ISO-10303-21;
HEADER;
FILE_DESCRIPTION (( 'STEP AP214' ),
    '1' );
FILE_NAME ('83197.STEP',
    '2023-06-23T08:23:13',
    ( '' ),
    ( '' ),
    'SwSTEP 2.0',
    'SolidWorks 2023',
    '' );
FILE_SCHEMA (( 'AUTOMOTIVE_DESIGN' ));
ENDSEC;

DATA;
#1 = CARTESIAN_POINT ( 'NONE',  ( 1.913510623667739463E-17, 0.000000000000000000, 0.1562500000000000000 ) ) ;
#2 = CIRCLE ( 'NONE', #267, 0.1562499999999998612 ) ;
#3 = UNCERTAINTY_MEASURE_WITH_UNIT (LENGTH_MEASURE( 1.000000000000000082E-05 ), #138, 'distance_accuracy_value', 'NONE');
#4 = DIRECTION ( 'NONE',  ( -1.000000000000000000, 0.000000000000000000, 0.000000000000000000 ) ) ;
#5 = LENGTH_MEASURE_WITH_UNIT ( LENGTH_MEASURE( 0.02539999999999999897 ), #23 );
#6 =( GEOMETRIC_REPRESENTATION_CONTEXT ( 3 ) GLOBAL_UNCERTAINTY_ASSIGNED_CONTEXT ( ( #233 ) ) GLOBAL_UNIT_ASSIGNED_CONTEXT ( ( #93, #15, #102 ) ) REPRESENTATION_CONTEXT ( 'NONE', 'WORKASPACE' ) );
#7 = LINE ( 'NONE', #27, #159 ) ;
#8 = EDGE_LOOP ( 'NONE', ( #150, #33, #173, #72 ) ) ;
#9 = DIRECTION ( 'NONE',  ( 0.000000000000000000, 0.000000000000000000, -1.000000000000000000 ) ) ;
#10 = MECHANICAL_DESIGN_GEOMETRIC_PRESENTATION_REPRESENTATION (  '', ( #18 ), #253 ) ;
#11 = CARTESIAN_POINT ( 'NONE',  ( 0.000000000000000000, 0.000000000000000000, 0.000000000000000000 ) ) ;
#12 = EDGE_CURVE ( 'NONE', #116, #270, #307, .T. ) ;
#13 = DIRECTION ( 'NONE',  ( 8.164311994315692567E-17, 1.000000000000000000, -0.000000000000000000 ) ) ;
#14 =( NAMED_UNIT ( * ) SI_UNIT ( $, .STERADIAN. ) SOLID_ANGLE_UNIT ( ) );
#15 =( NAMED_UNIT ( * ) PLANE_ANGLE_UNIT ( ) SI_UNIT ( $, .RADIAN. ) );
#16 = STYLED_ITEM ( 'NONE', ( #148 ), #97 ) ;
#17 = CARTESIAN_POINT ( 'NONE',  ( 0.1562500000000000000, 2.000000000000000000, 0.000000000000000000 ) ) ;
#18 = STYLED_ITEM ( 'NONE', ( #89 ), #283 ) ;
#19 = DIRECTION ( 'NONE',  ( -8.164311994315692567E-17, -1.000000000000000000, 0.000000000000000000 ) ) ;
#20 = SURFACE_STYLE_USAGE ( .BOTH. , #258 ) ;
#21 = EDGE_LOOP ( 'NONE', ( #162, #217 ) ) ;
#22 = CIRCLE ( 'NONE', #290, 0.1562500000000000000 ) ;
#23 =( LENGTH_UNIT ( ) NAMED_UNIT ( * ) SI_UNIT ( $, .METRE. ) );
#24 = LENGTH_MEASURE_WITH_UNIT ( LENGTH_MEASURE( 0.02539999999999999897 ), #266 );
#25 = ORIENTED_EDGE ( 'NONE', *, *, #60, .T. ) ;
#26 = DIRECTION ( 'NONE',  ( -0.000000000000000000, -1.000000000000000000, -0.000000000000000000 ) ) ;
#27 = CARTESIAN_POINT ( 'NONE',  ( 1.913510623667739463E-17, 0.000000000000000000, 0.1562500000000000000 ) ) ;
#28 = CYLINDRICAL_SURFACE ( 'NONE', #229, 0.1562499999999999445 ) ;
#29 = CYLINDRICAL_SURFACE ( 'NONE', #73, 0.1562499999999999445 ) ;
#30 = EDGE_LOOP ( 'NONE', ( #112, #273 ) ) ;
#31 = PRODUCT_DEFINITION ( 'UNKNOWN', '', #226, #185 ) ;
#32 = MECHANICAL_DESIGN_GEOMETRIC_PRESENTATION_REPRESENTATION (  '', ( #88 ), #192 ) ;
#33 = ORIENTED_EDGE ( 'NONE', *, *, #168, .T. ) ;
#34 = SURFACE_STYLE_FILL_AREA ( #52 ) ;
#35 = SURFACE_SIDE_STYLE ('',( #105 ) ) ;
#36 =( CONVERSION_BASED_UNIT ( 'INCH', #254 ) LENGTH_UNIT ( ) NAMED_UNIT ( #256 ) );
#37 = SURFACE_STYLE_USAGE ( .BOTH. , #86 ) ;
#38 = DIRECTION ( 'NONE',  ( 8.164311994315692567E-17, 1.000000000000000000, -0.000000000000000000 ) ) ;
#39 = STYLED_ITEM ( 'NONE', ( #84 ), #189 ) ;
#40 = CARTESIAN_POINT ( 'NONE',  ( 0.000000000000000000, 0.000000000000000000, 0.000000000000000000 ) ) ;
#41 = DIRECTION ( 'NONE',  ( 0.000000000000000000, 0.000000000000000000, -1.000000000000000000 ) ) ;
#42 = ORIENTED_EDGE ( 'NONE', *, *, #140, .T. ) ;
#43 =( NAMED_UNIT ( * ) SI_UNIT ( $, .STERADIAN. ) SOLID_ANGLE_UNIT ( ) );
#44 = EDGE_CURVE ( 'NONE', #265, #128, #298, .T. ) ;
#45 =( NAMED_UNIT ( * ) PLANE_ANGLE_UNIT ( ) SI_UNIT ( $, .RADIAN. ) );
#46 = FILL_AREA_STYLE ('',( #154 ) ) ;
#47 = CARTESIAN_POINT ( 'NONE',  ( 0.000000000000000000, 0.5000000000000001110, 0.000000000000000000 ) ) ;
#48 = COLOUR_RGB ( '',1.000000000000000000, 0.000000000000000000, 0.000000000000000000 ) ;
#49 = CARTESIAN_POINT ( 'NONE',  ( 1.224646799147353700E-16, 2.000000000000000000, 0.000000000000000000 ) ) ;
#50 = DIRECTION ( 'NONE',  ( 0.000000000000000000, 0.000000000000000000, -1.000000000000000000 ) ) ;
#51 = ORIENTED_EDGE ( 'NONE', *, *, #80, .T. ) ;
#52 = FILL_AREA_STYLE ('',( #278 ) ) ;
#53 =( GEOMETRIC_REPRESENTATION_CONTEXT ( 3 ) GLOBAL_UNCERTAINTY_ASSIGNED_CONTEXT ( ( #111 ) ) GLOBAL_UNIT_ASSIGNED_CONTEXT ( ( #306, #252, #208 ) ) REPRESENTATION_CONTEXT ( 'NONE', 'WORKASPACE' ) );
#54 = EDGE_LOOP ( 'NONE', ( #302, #94 ) ) ;
#55 = DIRECTION ( 'NONE',  ( 8.164311994315692567E-17, 1.000000000000000000, -0.000000000000000000 ) ) ;
#56 = LENGTH_MEASURE_WITH_UNIT ( LENGTH_MEASURE( 0.02539999999999999897 ), #224 );
#57 = DIRECTION ( 'NONE',  ( -1.000000000000000000, 0.000000000000000000, 0.000000000000000000 ) ) ;
#58 = MECHANICAL_DESIGN_GEOMETRIC_PRESENTATION_REPRESENTATION (  '', ( #16 ), #99 ) ;
#59 = PLANE ( 'NONE',  #179 ) ;
#60 = EDGE_CURVE ( 'NONE', #190, #247, #106, .T. ) ;
#61 = DIRECTION ( 'NONE',  ( 0.000000000000000000, 0.000000000000000000, 1.000000000000000000 ) ) ;
#62 = FACE_OUTER_BOUND ( 'NONE', #21, .T. ) ;
#63 = AXIS2_PLACEMENT_3D ( 'NONE', #77, #274, #125 ) ;
#64 = ORIENTED_EDGE ( 'NONE', *, *, #218, .T. ) ;
#65 = PRODUCT_CONTEXT ( 'NONE', #263, 'mechanical' ) ;
#66 = SURFACE_STYLE_FILL_AREA ( #255 ) ;
#67 = FACE_OUTER_BOUND ( 'NONE', #211, .T. ) ;
#68 = UNCERTAINTY_MEASURE_WITH_UNIT (LENGTH_MEASURE( 1.000000000000000082E-05 ), #36, 'distance_accuracy_value', 'NONE');
#69 = PRESENTATION_STYLE_ASSIGNMENT (( #294 ) ) ;
#70 = CARTESIAN_POINT ( 'NONE',  ( 5.207499245353677666E-34, 0.5000000000000000000, 0.000000000000000000 ) ) ;
#71 = MECHANICAL_DESIGN_GEOMETRIC_PRESENTATION_REPRESENTATION (  '', ( #100 ), #53 ) ;
#72 = ORIENTED_EDGE ( 'NONE', *, *, #200, .F. ) ;
#73 = AXIS2_PLACEMENT_3D ( 'NONE', #49, #82, #195 ) ;
#74 = ADVANCED_FACE ( 'NONE', ( #169 ), #29, .T. ) ;
#75 = FACE_OUTER_BOUND ( 'NONE', #261, .T. ) ;
#76 = FACE_OUTER_BOUND ( 'NONE', #30, .T. ) ;
#77 = CARTESIAN_POINT ( 'NONE',  ( 0.000000000000000000, 0.000000000000000000, 0.000000000000000000 ) ) ;
#78 = PRODUCT ( '83197', '83197', '', ( #65 ) ) ;
#79 = DIRECTION ( 'NONE',  ( 0.000000000000000000, 0.000000000000000000, -1.000000000000000000 ) ) ;
#80 = EDGE_CURVE ( 'NONE', #128, #265, #22, .T. ) ;
#81 = ORIENTED_EDGE ( 'NONE', *, *, #152, .T. ) ;
#82 = DIRECTION ( 'NONE',  ( 8.164311994315692567E-17, 1.000000000000000000, -0.000000000000000000 ) ) ;
#83 = CARTESIAN_POINT ( 'NONE',  ( 1.224646799147353700E-16, 2.000000000000000000, 0.000000000000000000 ) ) ;
#84 = PRESENTATION_STYLE_ASSIGNMENT (( #238 ) ) ;
#85 = APPLICATION_PROTOCOL_DEFINITION ( 'draft international standard', 'automotive_design', 1998, #281 ) ;
#86 = SURFACE_SIDE_STYLE ('',( #66 ) ) ;
#87 = FILL_AREA_STYLE_COLOUR ( '', #90 ) ;
#88 = STYLED_ITEM ( 'NONE', ( #69 ), #289 ) ;
#89 = PRESENTATION_STYLE_ASSIGNMENT (( #37 ) ) ;
#90 = COLOUR_RGB ( '',0.7921568627450980005, 0.8196078431372548767, 0.9333333333333333481 ) ;
#91 = EDGE_CURVE ( 'NONE', #270, #116, #145, .T. ) ;
#92 = COLOUR_RGB ( '',1.000000000000000000, 0.000000000000000000, 0.000000000000000000 ) ;
#93 =( CONVERSION_BASED_UNIT ( 'INCH', #225 ) LENGTH_UNIT ( ) NAMED_UNIT ( #122 ) );
#94 = ORIENTED_EDGE ( 'NONE', *, *, #60, .F. ) ;
#95 = CARTESIAN_POINT ( 'NONE',  ( -0.1562499999999997224, 2.000000000000000000, 0.000000000000000000 ) ) ;
#96 = FILL_AREA_STYLE_COLOUR ( '', #156 ) ;
#97 = MANIFOLD_SOLID_BREP ( 'Revolve - Tool Body (Straight Shanked)', #198 ) ;
#98 =( NAMED_UNIT ( * ) PLANE_ANGLE_UNIT ( ) SI_UNIT ( $, .RADIAN. ) );
#99 =( GEOMETRIC_REPRESENTATION_CONTEXT ( 3 ) GLOBAL_UNCERTAINTY_ASSIGNED_CONTEXT ( ( #260 ) ) GLOBAL_UNIT_ASSIGNED_CONTEXT ( ( #124, #98, #251 ) ) REPRESENTATION_CONTEXT ( 'NONE', 'WORKASPACE' ) );
#100 = STYLED_ITEM ( 'NONE', ( #153 ), #194 ) ;
#101 = SURFACE_STYLE_FILL_AREA ( #191 ) ;
#102 =( NAMED_UNIT ( * ) SI_UNIT ( $, .STERADIAN. ) SOLID_ANGLE_UNIT ( ) );
#103 = DIRECTION ( 'NONE',  ( -0.000000000000000000, -1.000000000000000000, -0.000000000000000000 ) ) ;
#104 = CARTESIAN_POINT ( 'NONE',  ( 0.000000000000000000, 0.000000000000000000, 0.000000000000000000 ) ) ;
#105 = SURFACE_STYLE_FILL_AREA ( #46 ) ;
#106 = CIRCLE ( 'NONE', #133, 0.1562500000000000000 ) ;
#107 =( NAMED_UNIT ( * ) PLANE_ANGLE_UNIT ( ) SI_UNIT ( $, .RADIAN. ) );
#108 = SURFACE_STYLE_FILL_AREA ( #257 ) ;
#109 = CARTESIAN_POINT ( 'NONE',  ( 0.000000000000000000, 0.000000000000000000, 0.000000000000000000 ) ) ;
#110 = DIRECTION ( 'NONE',  ( 8.164311994315692567E-17, 1.000000000000000000, -0.000000000000000000 ) ) ;
#111 = UNCERTAINTY_MEASURE_WITH_UNIT (LENGTH_MEASURE( 1.000000000000000082E-05 ), #306, 'distance_accuracy_value', 'NONE');
#112 = ORIENTED_EDGE ( 'NONE', *, *, #12, .T. ) ;
#113 = APPLICATION_PROTOCOL_DEFINITION ( 'draft international standard', 'automotive_design', 1998, #263 ) ;
#114 = PLANE ( 'NONE',  #296 ) ;
#115 = COLOUR_RGB ( '',1.000000000000000000, 0.000000000000000000, 0.000000000000000000 ) ;
#116 = VERTEX_POINT ( 'NONE', #180 ) ;
#117 = SURFACE_STYLE_FILL_AREA ( #271 ) ;
#118 = FILL_AREA_STYLE_COLOUR ( '', #115 ) ;
#119 = CARTESIAN_POINT ( 'NONE',  ( 0.000000000000000000, 0.5000000000000000000, 0.000000000000000000 ) ) ;
#120 = DIRECTION ( 'NONE',  ( -1.000000000000000000, 0.000000000000000000, 0.000000000000000000 ) ) ;
#121 = ORIENTED_EDGE ( 'NONE', *, *, #200, .T. ) ;
#122 = DIMENSIONAL_EXPONENTS ( 1.000000000000000000, 0.000000000000000000, 0.000000000000000000, 0.000000000000000000, 0.000000000000000000, 0.000000000000000000, 0.000000000000000000 ) ;
#123 = ADVANCED_FACE ( 'NONE', ( #67 ), #28, .T. ) ;
#124 =( CONVERSION_BASED_UNIT ( 'INCH', #243 ) LENGTH_UNIT ( ) NAMED_UNIT ( #131 ) );
#125 = DIRECTION ( 'NONE',  ( 0.000000000000000000, 0.000000000000000000, -1.000000000000000000 ) ) ;
#126 =( GEOMETRIC_REPRESENTATION_CONTEXT ( 3 ) GLOBAL_UNCERTAINTY_ASSIGNED_CONTEXT ( ( #3 ) ) GLOBAL_UNIT_ASSIGNED_CONTEXT ( ( #138, #209, #14 ) ) REPRESENTATION_CONTEXT ( 'NONE', 'WORKASPACE' ) );
#127 =( GEOMETRIC_REPRESENTATION_CONTEXT ( 3 ) GLOBAL_UNCERTAINTY_ASSIGNED_CONTEXT ( ( #182 ) ) GLOBAL_UNIT_ASSIGNED_CONTEXT ( ( #282, #107, #228 ) ) REPRESENTATION_CONTEXT ( 'NONE', 'WORKASPACE' ) );
#128 = VERTEX_POINT ( 'NONE', #187 ) ;
#129 = ADVANCED_FACE ( 'NONE', ( #232 ), #295, .F. ) ;
#130 = ADVANCED_BREP_SHAPE_REPRESENTATION ( '83197', ( #203, #97, #297 ), #126 ) ;
#131 = DIMENSIONAL_EXPONENTS ( 1.000000000000000000, 0.000000000000000000, 0.000000000000000000, 0.000000000000000000, 0.000000000000000000, 0.000000000000000000, 0.000000000000000000 ) ;
#132 = DIRECTION ( 'NONE',  ( -1.000000000000000000, 0.000000000000000000, 0.000000000000000000 ) ) ;
#133 = AXIS2_PLACEMENT_3D ( 'NONE', #47, #13, #222 ) ;
#134 = COLOUR_RGB ( '',1.000000000000000000, 0.000000000000000000, 0.000000000000000000 ) ;
#135 = PRODUCT_RELATED_PRODUCT_CATEGORY ( 'part', '', ( #78 ) ) ;
#136 = FILL_AREA_STYLE_COLOUR ( '', #92 ) ;
#137 = ORIENTED_EDGE ( 'NONE', *, *, #269, .T. ) ;
#138 =( CONVERSION_BASED_UNIT ( 'INCH', #5 ) LENGTH_UNIT ( ) NAMED_UNIT ( #172 ) );
#139 = VECTOR ( 'NONE', #55, 39.37007874015748143 ) ;
#140 = EDGE_CURVE ( 'NONE', #247, #301, #250, .T. ) ;
#141 = PRESENTATION_LAYER_ASSIGNMENT (  '', '', ( #18 ) ) ;
#142 =( CONVERSION_BASED_UNIT ( 'INCH', #24 ) LENGTH_UNIT ( ) NAMED_UNIT ( #244 ) );
#143 = CYLINDRICAL_SURFACE ( 'NONE', #220, 0.1562500000000000000 ) ;
#144 = ORIENTED_EDGE ( 'NONE', *, *, #140, .F. ) ;
#145 = CIRCLE ( 'NONE', #303, 0.1562500000000000000 ) ;
#146 =( NAMED_UNIT ( * ) PLANE_ANGLE_UNIT ( ) SI_UNIT ( $, .RADIAN. ) );
#147 = DIMENSIONAL_EXPONENTS ( 1.000000000000000000, 0.000000000000000000, 0.000000000000000000, 0.000000000000000000, 0.000000000000000000, 0.000000000000000000, 0.000000000000000000 ) ;
#148 = PRESENTATION_STYLE_ASSIGNMENT (( #277 ) ) ;
#149 = PRODUCT_DEFINITION_SHAPE ( 'NONE', 'NONE',  #31 ) ;
#150 = ORIENTED_EDGE ( 'NONE', *, *, #44, .T. ) ;
#151 = CIRCLE ( 'NONE', #285, 0.1562500000000000000 ) ;
#152 = EDGE_CURVE ( 'NONE', #190, #304, #166, .T. ) ;
#153 = PRESENTATION_STYLE_ASSIGNMENT (( #176 ) ) ;
#154 = FILL_AREA_STYLE_COLOUR ( '', #48 ) ;
#155 = EDGE_CURVE ( 'NONE', #304, #301, #2, .T. ) ;
#156 = COLOUR_RGB ( '',0.7921568627450980005, 0.8196078431372548767, 0.9333333333333333481 ) ;
#157 = PRESENTATION_STYLE_ASSIGNMENT (( #20 ) ) ;
#158 = DIRECTION ( 'NONE',  ( 0.000000000000000000, -1.000000000000000000, -0.000000000000000000 ) ) ;
#159 = VECTOR ( 'NONE', #199, 39.37007874015748143 ) ;
#160 = ORIENTED_EDGE ( 'NONE', *, *, #218, .F. ) ;
#161 = UNCERTAINTY_MEASURE_WITH_UNIT (LENGTH_MEASURE( 1.000000000000000082E-05 ), #142, 'distance_accuracy_value', 'NONE');
#162 = ORIENTED_EDGE ( 'NONE', *, *, #44, .F. ) ;
#163 = DIRECTION ( 'NONE',  ( 8.164311994315692567E-17, 1.000000000000000000, -0.000000000000000000 ) ) ;
#164 = CIRCLE ( 'NONE', #259, 0.1562499999999998612 ) ;
#165 = ORIENTED_EDGE ( 'NONE', *, *, #155, .F. ) ;
#166 = LINE ( 'NONE', #196, #221 ) ;
#167 = EDGE_LOOP ( 'NONE', ( #64, #299 ) ) ;
#168 = EDGE_CURVE ( 'NONE', #128, #270, #7, .T. ) ;
#169 = FACE_OUTER_BOUND ( 'NONE', #234, .T. ) ;
#170 = MECHANICAL_DESIGN_GEOMETRIC_PRESENTATION_REPRESENTATION (  '', ( #39 ), #6 ) ;
#171 = DIRECTION ( 'NONE',  ( -0.000000000000000000, -1.000000000000000000, -0.000000000000000000 ) ) ;
#172 = DIMENSIONAL_EXPONENTS ( 1.000000000000000000, 0.000000000000000000, 0.000000000000000000, 0.000000000000000000, 0.000000000000000000, 0.000000000000000000, 0.000000000000000000 ) ;
#173 = ORIENTED_EDGE ( 'NONE', *, *, #12, .F. ) ;
#174 = MECHANICAL_DESIGN_GEOMETRIC_PRESENTATION_REPRESENTATION (  '', ( #231 ), #127 ) ;
#175 = DIRECTION ( 'NONE',  ( 8.164311994315692567E-17, 1.000000000000000000, -0.000000000000000000 ) ) ;
#176 = SURFACE_STYLE_USAGE ( .BOTH. , #216 ) ;
#177 = CARTESIAN_POINT ( 'NONE',  ( 0.000000000000000000, 0.000000000000000000, -0.1562500000000000000 ) ) ;
#178 = DIRECTION ( 'NONE',  ( 1.000000000000000000, -8.164311994315692567E-17, 0.000000000000000000 ) ) ;
#179 = AXIS2_PLACEMENT_3D ( 'NONE', #119, #186, #292 ) ;
#180 = CARTESIAN_POINT ( 'NONE',  ( 0.000000000000000000, 0.000000000000000000, -0.1562500000000000000 ) ) ;
#181 = SHAPE_DEFINITION_REPRESENTATION ( #149, #130 ) ;
#182 = UNCERTAINTY_MEASURE_WITH_UNIT (LENGTH_MEASURE( 1.000000000000000082E-05 ), #282, 'distance_accuracy_value', 'NONE');
#183 =( LENGTH_UNIT ( ) NAMED_UNIT ( * ) SI_UNIT ( $, .METRE. ) );
#184 = PRESENTATION_LAYER_ASSIGNMENT (  '', '', ( #16 ) ) ;
#185 = PRODUCT_DEFINITION_CONTEXT ( 'detailed design', #281, 'design' ) ;
#186 = DIRECTION ( 'NONE',  ( 0.000000000000000000, 1.000000000000000000, 0.000000000000000000 ) ) ;
#187 = CARTESIAN_POINT ( 'NONE',  ( 1.913510623667739463E-17, 0.5000000000000000000, 0.1562500000000000000 ) ) ;
#188 = CYLINDRICAL_SURFACE ( 'NONE', #205, 0.1562500000000000000 ) ;
#189 = ADVANCED_FACE ( 'NONE', ( #240 ), #188, .T. ) ;
#190 = VERTEX_POINT ( 'NONE', #300 ) ;
#191 = FILL_AREA_STYLE ('',( #96 ) ) ;
#192 =( GEOMETRIC_REPRESENTATION_CONTEXT ( 3 ) GLOBAL_UNCERTAINTY_ASSIGNED_CONTEXT ( ( #161 ) ) GLOBAL_UNIT_ASSIGNED_CONTEXT ( ( #142, #45, #239 ) ) REPRESENTATION_CONTEXT ( 'NONE', 'WORKASPACE' ) );
#193 = AXIS2_PLACEMENT_3D ( 'NONE', #40, #158, #230 ) ;
#194 = ADVANCED_FACE ( 'NONE', ( #76 ), #202, .T. ) ;
#195 = DIRECTION ( 'NONE',  ( -1.000000000000000000, 0.000000000000000000, 0.000000000000000000 ) ) ;
#196 = CARTESIAN_POINT ( 'NONE',  ( 0.1562500000000000833, 2.000000000000000000, 1.913510623667738539E-17 ) ) ;
#197 = SURFACE_SIDE_STYLE ('',( #101 ) ) ;
#198 = CLOSED_SHELL ( 'NONE', ( #123, #129, #74, #212 ) ) ;
#199 = DIRECTION ( 'NONE',  ( -0.000000000000000000, -1.000000000000000000, -0.000000000000000000 ) ) ;
#200 = EDGE_CURVE ( 'NONE', #265, #116, #287, .T. ) ;
#201 = DIRECTION ( 'NONE',  ( 1.000000000000000000, 0.000000000000000000, 0.000000000000000000 ) ) ;
#202 = PLANE ( 'NONE',  #193 ) ;
#203 = MANIFOLD_SOLID_BREP ( 'Revolve - Cutting Edge', #214 ) ;
#204 = FACE_OUTER_BOUND ( 'NONE', #167, .T. ) ;
#205 = AXIS2_PLACEMENT_3D ( 'NONE', #104, #272, #249 ) ;
#206 =( LENGTH_UNIT ( ) NAMED_UNIT ( * ) SI_UNIT ( $, .METRE. ) );
#207 = CARTESIAN_POINT ( 'NONE',  ( 0.000000000000000000, 0.5000000000000000000, -0.1562500000000000000 ) ) ;
#208 =( NAMED_UNIT ( * ) SI_UNIT ( $, .STERADIAN. ) SOLID_ANGLE_UNIT ( ) );
#209 =( NAMED_UNIT ( * ) PLANE_ANGLE_UNIT ( ) SI_UNIT ( $, .RADIAN. ) );
#210 = DIRECTION ( 'NONE',  ( 8.164311994315692567E-17, 1.000000000000000000, -0.000000000000000000 ) ) ;
#211 = EDGE_LOOP ( 'NONE', ( #137, #81, #160, #144 ) ) ;
#212 = ADVANCED_FACE ( 'NONE', ( #204 ), #114, .F. ) ;
#213 = CARTESIAN_POINT ( 'NONE',  ( -0.1562499999999998057, 2.000000000000000000, 0.000000000000000000 ) ) ;
#214 = CLOSED_SHELL ( 'NONE', ( #189, #283, #289, #194 ) ) ;
#215 = SURFACE_SIDE_STYLE ('',( #117 ) ) ;
#216 = SURFACE_SIDE_STYLE ('',( #34 ) ) ;
#217 = ORIENTED_EDGE ( 'NONE', *, *, #80, .F. ) ;
#218 = EDGE_CURVE ( 'NONE', #301, #304, #164, .T. ) ;
#219 = DIMENSIONAL_EXPONENTS ( 1.000000000000000000, 0.000000000000000000, 0.000000000000000000, 0.000000000000000000, 0.000000000000000000, 0.000000000000000000, 0.000000000000000000 ) ;
#220 = AXIS2_PLACEMENT_3D ( 'NONE', #264, #26, #41 ) ;
#221 = VECTOR ( 'NONE', #280, 39.37007874015748143 ) ;
#222 = DIRECTION ( 'NONE',  ( -1.000000000000000000, 0.000000000000000000, 0.000000000000000000 ) ) ;
#223 = PRESENTATION_LAYER_ASSIGNMENT (  '', '', ( #100 ) ) ;
#224 =( LENGTH_UNIT ( ) NAMED_UNIT ( * ) SI_UNIT ( $, .METRE. ) );
#225 = LENGTH_MEASURE_WITH_UNIT ( LENGTH_MEASURE( 0.02539999999999999897 ), #227 );
#226 = PRODUCT_DEFINITION_FORMATION_WITH_SPECIFIED_SOURCE ( 'ANY', '', #78, .NOT_KNOWN. ) ;
#227 =( LENGTH_UNIT ( ) NAMED_UNIT ( * ) SI_UNIT ( $, .METRE. ) );
#228 =( NAMED_UNIT ( * ) SI_UNIT ( $, .STERADIAN. ) SOLID_ANGLE_UNIT ( ) );
#229 = AXIS2_PLACEMENT_3D ( 'NONE', #236, #210, #4 ) ;
#230 = DIRECTION ( 'NONE',  ( 0.000000000000000000, 0.000000000000000000, -1.000000000000000000 ) ) ;
#231 = STYLED_ITEM ( 'NONE', ( #157 ), #203 ) ;
#232 = FACE_OUTER_BOUND ( 'NONE', #54, .T. ) ;
#233 = UNCERTAINTY_MEASURE_WITH_UNIT (LENGTH_MEASURE( 1.000000000000000082E-05 ), #93, 'distance_accuracy_value', 'NONE');
#234 = EDGE_LOOP ( 'NONE', ( #276, #25, #42, #165 ) ) ;
#235 = PRESENTATION_LAYER_ASSIGNMENT (  '', '', ( #39 ) ) ;
#236 = CARTESIAN_POINT ( 'NONE',  ( 1.224646799147353700E-16, 2.000000000000000000, 0.000000000000000000 ) ) ;
#237 = CARTESIAN_POINT ( 'NONE',  ( 0.1562500000000000000, 2.000000000000000000, 1.913510623667738847E-17 ) ) ;
#238 = SURFACE_STYLE_USAGE ( .BOTH. , #35 ) ;
#239 =( NAMED_UNIT ( * ) SI_UNIT ( $, .STERADIAN. ) SOLID_ANGLE_UNIT ( ) );
#240 = FACE_OUTER_BOUND ( 'NONE', #8, .T. ) ;
#241 = AXIS2_PLACEMENT_3D ( 'NONE', #242, #245, #79 ) ;
#242 = CARTESIAN_POINT ( 'NONE',  ( 0.000000000000000000, 0.5000000000000000000, 0.000000000000000000 ) ) ;
#243 = LENGTH_MEASURE_WITH_UNIT ( LENGTH_MEASURE( 0.02539999999999999897 ), #275 );
#244 = DIMENSIONAL_EXPONENTS ( 1.000000000000000000, 0.000000000000000000, 0.000000000000000000, 0.000000000000000000, 0.000000000000000000, 0.000000000000000000, 0.000000000000000000 ) ;
#245 = DIRECTION ( 'NONE',  ( -0.000000000000000000, -1.000000000000000000, -0.000000000000000000 ) ) ;
#246 = PRESENTATION_LAYER_ASSIGNMENT (  '', '', ( #231 ) ) ;
#247 = VERTEX_POINT ( 'NONE', #262 ) ;
#248 = VECTOR ( 'NONE', #291, 39.37007874015748143 ) ;
#249 = DIRECTION ( 'NONE',  ( 0.000000000000000000, 0.000000000000000000, -1.000000000000000000 ) ) ;
#250 = LINE ( 'NONE', #213, #139 ) ;
#251 =( NAMED_UNIT ( * ) SI_UNIT ( $, .STERADIAN. ) SOLID_ANGLE_UNIT ( ) );
#252 =( NAMED_UNIT ( * ) PLANE_ANGLE_UNIT ( ) SI_UNIT ( $, .RADIAN. ) );
#253 =( GEOMETRIC_REPRESENTATION_CONTEXT ( 3 ) GLOBAL_UNCERTAINTY_ASSIGNED_CONTEXT ( ( #68 ) ) GLOBAL_UNIT_ASSIGNED_CONTEXT ( ( #36, #146, #43 ) ) REPRESENTATION_CONTEXT ( 'NONE', 'WORKASPACE' ) );
#254 = LENGTH_MEASURE_WITH_UNIT ( LENGTH_MEASURE( 0.02539999999999999897 ), #183 );
#255 = FILL_AREA_STYLE ('',( #136 ) ) ;
#256 = DIMENSIONAL_EXPONENTS ( 1.000000000000000000, 0.000000000000000000, 0.000000000000000000, 0.000000000000000000, 0.000000000000000000, 0.000000000000000000, 0.000000000000000000 ) ;
#257 = FILL_AREA_STYLE ('',( #87 ) ) ;
#258 = SURFACE_SIDE_STYLE ('',( #108 ) ) ;
#259 = AXIS2_PLACEMENT_3D ( 'NONE', #308, #110, #57 ) ;
#260 = UNCERTAINTY_MEASURE_WITH_UNIT (LENGTH_MEASURE( 1.000000000000000082E-05 ), #124, 'distance_accuracy_value', 'NONE');
#261 = EDGE_LOOP ( 'NONE', ( #293, #51, #121, #279 ) ) ;
#262 = CARTESIAN_POINT ( 'NONE',  ( -0.1562500000000000000, 0.5000000000000001110, 0.000000000000000000 ) ) ;
#263 = APPLICATION_CONTEXT ( 'automotive_design' ) ;
#264 = CARTESIAN_POINT ( 'NONE',  ( 0.000000000000000000, 0.000000000000000000, 0.000000000000000000 ) ) ;
#265 = VERTEX_POINT ( 'NONE', #207 ) ;
#266 =( LENGTH_UNIT ( ) NAMED_UNIT ( * ) SI_UNIT ( $, .METRE. ) );
#267 = AXIS2_PLACEMENT_3D ( 'NONE', #83, #175, #120 ) ;
#268 = DIRECTION ( 'NONE',  ( -1.000000000000000000, 8.164311994315692567E-17, 0.000000000000000000 ) ) ;
#269 = EDGE_CURVE ( 'NONE', #247, #190, #151, .T. ) ;
#270 = VERTEX_POINT ( 'NONE', #1 ) ;
#271 = FILL_AREA_STYLE ('',( #118 ) ) ;
#272 = DIRECTION ( 'NONE',  ( -0.000000000000000000, -1.000000000000000000, -0.000000000000000000 ) ) ;
#273 = ORIENTED_EDGE ( 'NONE', *, *, #91, .T. ) ;
#274 = DIRECTION ( 'NONE',  ( -0.000000000000000000, -1.000000000000000000, -0.000000000000000000 ) ) ;
#275 =( LENGTH_UNIT ( ) NAMED_UNIT ( * ) SI_UNIT ( $, .METRE. ) );
#276 = ORIENTED_EDGE ( 'NONE', *, *, #152, .F. ) ;
#277 = SURFACE_STYLE_USAGE ( .BOTH. , #197 ) ;
#278 = FILL_AREA_STYLE_COLOUR ( '', #134 ) ;
#279 = ORIENTED_EDGE ( 'NONE', *, *, #91, .F. ) ;
#280 = DIRECTION ( 'NONE',  ( 8.164311994315692567E-17, 1.000000000000000000, -0.000000000000000000 ) ) ;
#281 = APPLICATION_CONTEXT ( 'automotive_design' ) ;
#282 =( CONVERSION_BASED_UNIT ( 'INCH', #286 ) LENGTH_UNIT ( ) NAMED_UNIT ( #219 ) );
#283 = ADVANCED_FACE ( 'NONE', ( #62 ), #59, .T. ) ;
#284 = AXIS2_PLACEMENT_3D ( 'NONE', #70, #163, #268 ) ;
#285 = AXIS2_PLACEMENT_3D ( 'NONE', #288, #38, #132 ) ;
#286 = LENGTH_MEASURE_WITH_UNIT ( LENGTH_MEASURE( 0.02539999999999999897 ), #206 );
#287 = LINE ( 'NONE', #177, #248 ) ;
#288 = CARTESIAN_POINT ( 'NONE',  ( 0.000000000000000000, 0.5000000000000001110, 0.000000000000000000 ) ) ;
#289 = ADVANCED_FACE ( 'NONE', ( #75 ), #143, .T. ) ;
#290 = AXIS2_PLACEMENT_3D ( 'NONE', #305, #103, #9 ) ;
#291 = DIRECTION ( 'NONE',  ( -0.000000000000000000, -1.000000000000000000, -0.000000000000000000 ) ) ;
#292 = DIRECTION ( 'NONE',  ( 0.000000000000000000, -0.000000000000000000, 1.000000000000000000 ) ) ;
#293 = ORIENTED_EDGE ( 'NONE', *, *, #168, .F. ) ;
#294 = SURFACE_STYLE_USAGE ( .BOTH. , #215 ) ;
#295 = PLANE ( 'NONE',  #284 ) ;
#296 = AXIS2_PLACEMENT_3D ( 'NONE', #17, #19, #178 ) ;
#297 = AXIS2_PLACEMENT_3D ( 'NONE', #109, #61, #201 ) ;
#298 = CIRCLE ( 'NONE', #241, 0.1562500000000000000 ) ;
#299 = ORIENTED_EDGE ( 'NONE', *, *, #155, .T. ) ;
#300 = CARTESIAN_POINT ( 'NONE',  ( 0.1562500000000000000, 0.5000000000000001110, 1.913510623667738847E-17 ) ) ;
#301 = VERTEX_POINT ( 'NONE', #95 ) ;
#302 = ORIENTED_EDGE ( 'NONE', *, *, #269, .F. ) ;
#303 = AXIS2_PLACEMENT_3D ( 'NONE', #11, #171, #50 ) ;
#304 = VERTEX_POINT ( 'NONE', #237 ) ;
#305 = CARTESIAN_POINT ( 'NONE',  ( 0.000000000000000000, 0.5000000000000000000, 0.000000000000000000 ) ) ;
#306 =( CONVERSION_BASED_UNIT ( 'INCH', #56 ) LENGTH_UNIT ( ) NAMED_UNIT ( #147 ) );
#307 = CIRCLE ( 'NONE', #63, 0.1562500000000000000 ) ;
#308 = CARTESIAN_POINT ( 'NONE',  ( 1.224646799147353700E-16, 2.000000000000000000, 0.000000000000000000 ) ) ;
#309 = PRESENTATION_LAYER_ASSIGNMENT (  '', '', ( #88 ) ) ;
ENDSEC;
END-ISO-10303-21;
