ISO-10303-21;
HEADER;
FILE_DESCRIPTION (( 'STEP AP214' ),
    '1' );
FILE_NAME ('Micro_KC-125-190-050.STEP',
    '2021-09-03T19:08:32',
    ( '' ),
    ( '' ),
    'SwSTEP 2.0',
    'SolidWorks 2020',
    '' );
FILE_SCHEMA (( 'AUTOMOTIVE_DESIGN' ));
ENDSEC;

DATA;
#1 = ORIENTED_EDGE ( 'NONE', *, *, #55, .F. ) ;
#2 = ORIENTED_EDGE ( 'NONE', *, *, #67, .F. ) ;
#3 = LENGTH_MEASURE_WITH_UNIT ( LENGTH_MEASURE( 0.02539999999999999897 ), #273 );
#4 = ORIENTED_EDGE ( 'NONE', *, *, #67, .T. ) ;
#5 =( LENGTH_UNIT ( ) NAMED_UNIT ( * ) SI_UNIT ( $, .METRE. ) );
#6 = DIRECTION ( 'NONE',  ( 1.000000000000000000, 0.0000000000000000000, 0.0000000000000000000 ) ) ;
#7 = UNCERTAINTY_MEASURE_WITH_UNIT (LENGTH_MEASURE( 1.000000000000000082E-05 ), #177, 'distance_accuracy_value', 'NONE');
#8 = VECTOR ( 'NONE', #138, 39.37007874015748143 ) ;
#9 = FACE_OUTER_BOUND ( 'NONE', #237, .T. ) ;
#10 = EDGE_CURVE ( 'NONE', #62, #263, #354, .T. ) ;
#11 = SURFACE_STYLE_USAGE ( .BOTH. , #336 ) ;
#12 = DIRECTION ( 'NONE',  ( 0.0000000000000000000, 0.0000000000000000000, 1.000000000000000000 ) ) ;
#13 = APPLICATION_CONTEXT ( 'automotive_design' ) ;
#14 = ORIENTED_EDGE ( 'NONE', *, *, #95, .T. ) ;
#15 = EDGE_CURVE ( 'NONE', #176, #293, #210, .T. ) ;
#16 = DIRECTION ( 'NONE',  ( -0.0000000000000000000, -0.0000000000000000000, -1.000000000000000000 ) ) ;
#17 = VECTOR ( 'NONE', #45, 39.37007874015748143 ) ;
#18 = DIRECTION ( 'NONE',  ( 1.000000000000000000, 0.0000000000000000000, 0.0000000000000000000 ) ) ;
#19 = CARTESIAN_POINT ( 'NONE',  ( -0.04750000000000064587, 0.0000000000000000000, 1.500000000000000222 ) ) ;
#20 = DIRECTION ( 'NONE',  ( -0.0000000000000000000, -0.0000000000000000000, -1.000000000000000000 ) ) ;
#21 = CIRCLE ( 'NONE', #364, 0.06250000000000000000 ) ;
#22 = EDGE_CURVE ( 'NONE', #263, #62, #72, .T. ) ;
#23 = CARTESIAN_POINT ( 'NONE',  ( 0.0000000000000000000, 0.0000000000000000000, 0.1899999999999999745 ) ) ;
#24 = ORIENTED_EDGE ( 'NONE', *, *, #15, .F. ) ;
#25 = DIMENSIONAL_EXPONENTS ( 1.000000000000000000, 0.0000000000000000000, 0.0000000000000000000, 0.0000000000000000000, 0.0000000000000000000, 0.0000000000000000000, 0.0000000000000000000 ) ;
#26 = APPLICATION_CONTEXT ( 'automotive_design' ) ;
#27 = EDGE_CURVE ( 'NONE', #62, #298, #276, .T. ) ;
#28 = EDGE_LOOP ( 'NONE', ( #213, #54, #349, #2 ) ) ;
#29 = PRESENTATION_LAYER_ASSIGNMENT (  '', '', ( #317 ) ) ;
#30 = FACE_OUTER_BOUND ( 'NONE', #228, .T. ) ;
#31 = ORIENTED_EDGE ( 'NONE', *, *, #153, .T. ) ;
#32 =( NAMED_UNIT ( * ) PLANE_ANGLE_UNIT ( ) SI_UNIT ( $, .RADIAN. ) );
#33 = CARTESIAN_POINT ( 'NONE',  ( 0.0000000000000000000, 0.0000000000000000000, 1.500000000000000222 ) ) ;
#34 = ORIENTED_EDGE ( 'NONE', *, *, #322, .F. ) ;
#35 = ADVANCED_FACE ( 'NONE', ( #185 ), #242, .F. ) ;
#36 = DIRECTION ( 'NONE',  ( 0.7071067811865456854, 8.659560562354911904E-17, -0.7071067811865493491 ) ) ;
#37 = DIMENSIONAL_EXPONENTS ( 1.000000000000000000, 0.0000000000000000000, 0.0000000000000000000, 0.0000000000000000000, 0.0000000000000000000, 0.0000000000000000000, 0.0000000000000000000 ) ;
#38 = DIRECTION ( 'NONE',  ( 1.000000000000000000, 0.0000000000000000000, 0.0000000000000000000 ) ) ;
#39 = DIRECTION ( 'NONE',  ( 0.0000000000000000000, 0.0000000000000000000, 1.000000000000000000 ) ) ;
#40 = DIRECTION ( 'NONE',  ( 0.0000000000000000000, 0.0000000000000000000, -1.000000000000000000 ) ) ;
#41 = ADVANCED_FACE ( 'NONE', ( #135 ), #241, .T. ) ;
#42 = DIRECTION ( 'NONE',  ( -1.000000000000000000, 0.0000000000000000000, 0.0000000000000000000 ) ) ;
#43 = EDGE_LOOP ( 'NONE', ( #60, #175, #88, #352 ) ) ;
#44 = CARTESIAN_POINT ( 'NONE',  ( -0.04750000000000064587, 0.0000000000000000000, 1.500000000000000222 ) ) ;
#45 = DIRECTION ( 'NONE',  ( -0.0000000000000000000, -0.0000000000000000000, -1.000000000000000000 ) ) ;
#46 = CONICAL_SURFACE ( 'NONE', #173, 0.03100000000000001713, 0.7853981633974502774 ) ;
#47 = AXIS2_PLACEMENT_3D ( 'NONE', #85, #201, #321 ) ;
#48 = CARTESIAN_POINT ( 'NONE',  ( -0.03100000000000000325, 0.0000000000000000000, 0.05000000000000000278 ) ) ;
#49 = DIRECTION ( 'NONE',  ( 1.000000000000000000, 0.0000000000000000000, 0.0000000000000000000 ) ) ;
#50 = EDGE_CURVE ( 'NONE', #263, #271, #355, .T. ) ;
#51 = DIRECTION ( 'NONE',  ( -0.0000000000000000000, -0.0000000000000000000, -1.000000000000000000 ) ) ;
#52 = MECHANICAL_DESIGN_GEOMETRIC_PRESENTATION_REPRESENTATION (  '', ( #317 ), #146 ) ;
#53 = DIRECTION ( 'NONE',  ( -0.0000000000000000000, -0.0000000000000000000, -1.000000000000000000 ) ) ;
#54 = ORIENTED_EDGE ( 'NONE', *, *, #217, .T. ) ;
#55 = EDGE_CURVE ( 'NONE', #271, #298, #192, .T. ) ;
#56 = DIRECTION ( 'NONE',  ( 1.000000000000000000, 0.0000000000000000000, 0.0000000000000000000 ) ) ;
#57 = EDGE_LOOP ( 'NONE', ( #122, #305, #34, #182 ) ) ;
#58 = CARTESIAN_POINT ( 'NONE',  ( 0.0000000000000000000, 0.0000000000000000000, 0.0000000000000000000 ) ) ;
#59 = VERTEX_POINT ( 'NONE', #239 ) ;
#60 = ORIENTED_EDGE ( 'NONE', *, *, #104, .F. ) ;
#61 =( CONVERSION_BASED_UNIT ( 'INCH', #346 ) LENGTH_UNIT ( ) NAMED_UNIT ( #37 ) );
#62 = VERTEX_POINT ( 'NONE', #274 ) ;
#63 = ADVANCED_FACE ( 'NONE', ( #9 ), #356, .T. ) ;
#64 = ORIENTED_EDGE ( 'NONE', *, *, #286, .F. ) ;
#65 = DIMENSIONAL_EXPONENTS ( 1.000000000000000000, 0.0000000000000000000, 0.0000000000000000000, 0.0000000000000000000, 0.0000000000000000000, 0.0000000000000000000, 0.0000000000000000000 ) ;
#66 = ORIENTED_EDGE ( 'NONE', *, *, #139, .F. ) ;
#67 = EDGE_CURVE ( 'NONE', #358, #304, #307, .T. ) ;
#68 =( NAMED_UNIT ( * ) SI_UNIT ( $, .STERADIAN. ) SOLID_ANGLE_UNIT ( ) );
#69 = ORIENTED_EDGE ( 'NONE', *, *, #190, .F. ) ;
#70 = EDGE_LOOP ( 'NONE', ( #212, #200, #4, #31 ) ) ;
#71 = APPLICATION_PROTOCOL_DEFINITION ( 'draft international standard', 'automotive_design', 1998, #13 ) ;
#72 = CIRCLE ( 'NONE', #164, 0.06250000000000000000 ) ;
#73 = CARTESIAN_POINT ( 'NONE',  ( 0.0000000000000000000, 0.0000000000000000000, 1.500000000000000222 ) ) ;
#74 = DIRECTION ( 'NONE',  ( -1.000000000000000000, 0.0000000000000000000, 0.0000000000000000000 ) ) ;
#75 = CARTESIAN_POINT ( 'NONE',  ( -0.06250000000000000000, 0.0000000000000000000, 1.485000000000000764 ) ) ;
#76 = CARTESIAN_POINT ( 'NONE',  ( 0.0000000000000000000, 0.0000000000000000000, 0.05000000000000000278 ) ) ;
#77 = AXIS2_PLACEMENT_3D ( 'NONE', #243, #129, #102 ) ;
#78 = EDGE_CURVE ( 'NONE', #230, #358, #103, .T. ) ;
#79 = DIRECTION ( 'NONE',  ( 0.0000000000000000000, 0.0000000000000000000, 1.000000000000000000 ) ) ;
#80 = DIRECTION ( 'NONE',  ( 1.000000000000000000, 0.0000000000000000000, 0.0000000000000000000 ) ) ;
#81 = CLOSED_SHELL ( 'NONE', ( #120, #296, #41, #366, #234, #312, #372, #63, #108, #282, #270, #35, #250 ) ) ;
#82 = CARTESIAN_POINT ( 'NONE',  ( 0.0000000000000000000, 0.0000000000000000000, 0.0000000000000000000 ) ) ;
#83 = VERTEX_POINT ( 'NONE', #75 ) ;
#84 =( GEOMETRIC_REPRESENTATION_CONTEXT ( 3 ) GLOBAL_UNCERTAINTY_ASSIGNED_CONTEXT ( ( #157 ) ) GLOBAL_UNIT_ASSIGNED_CONTEXT ( ( #61, #32, #287 ) ) REPRESENTATION_CONTEXT ( 'NONE', 'WORKASPACE' ) );
#85 = CARTESIAN_POINT ( 'NONE',  ( 0.0000000000000000000, 0.0000000000000000000, 1.485000000000000764 ) ) ;
#86 = ORIENTED_EDGE ( 'NONE', *, *, #170, .T. ) ;
#87 = FILL_AREA_STYLE_COLOUR ( '', #89 ) ;
#88 = ORIENTED_EDGE ( 'NONE', *, *, #329, .F. ) ;
#89 = COLOUR_RGB ( '',0.7921568627450980005, 0.8196078431372548767, 0.9333333333333333481 ) ;
#90 = CIRCLE ( 'NONE', #47, 0.06250000000000000000 ) ;
#91 = FACE_OUTER_BOUND ( 'NONE', #328, .T. ) ;
#92 = FILL_AREA_STYLE_COLOUR ( '', #115 ) ;
#93 = ORIENTED_EDGE ( 'NONE', *, *, #50, .T. ) ;
#94 = CARTESIAN_POINT ( 'NONE',  ( -0.06250000000000000000, 0.0000000000000000000, 1.500000000000000222 ) ) ;
#95 = EDGE_CURVE ( 'NONE', #358, #377, #163, .T. ) ;
#96 = PRODUCT_DEFINITION_SHAPE ( 'NONE', 'NONE',  #359 ) ;
#97 = STYLED_ITEM ( 'NONE', ( #203 ), #291 ) ;
#98 = PRESENTATION_STYLE_ASSIGNMENT (( #11 ) ) ;
#99 = DIRECTION ( 'NONE',  ( 0.0000000000000000000, 0.0000000000000000000, -1.000000000000000000 ) ) ;
#100 = EDGE_LOOP ( 'NONE', ( #288, #207 ) ) ;
#101 = DIRECTION ( 'NONE',  ( 0.0000000000000000000, 0.0000000000000000000, 1.000000000000000000 ) ) ;
#102 = DIRECTION ( 'NONE',  ( 1.000000000000000000, 0.0000000000000000000, 0.0000000000000000000 ) ) ;
#103 = CIRCLE ( 'NONE', #344, 0.03100000000000001713 ) ;
#104 = EDGE_CURVE ( 'NONE', #176, #183, #316, .T. ) ;
#105 = DIRECTION ( 'NONE',  ( -0.0000000000000000000, -0.0000000000000000000, -1.000000000000000000 ) ) ;
#106 = FACE_OUTER_BOUND ( 'NONE', #326, .T. ) ;
#107 = FACE_OUTER_BOUND ( 'NONE', #57, .T. ) ;
#108 = ADVANCED_FACE ( 'NONE', ( #141 ), #46, .T. ) ;
#109 = LINE ( 'NONE', #248, #331 ) ;
#110 = AXIS2_PLACEMENT_3D ( 'NONE', #378, #118, #56 ) ;
#111 = AXIS2_PLACEMENT_3D ( 'NONE', #360, #101, #38 ) ;
#112 = CYLINDRICAL_SURFACE ( 'NONE', #323, 0.06250000000000000000 ) ;
#113 = CYLINDRICAL_SURFACE ( 'NONE', #251, 0.03100000000000000672 ) ;
#114 = CIRCLE ( 'NONE', #123, 0.04750000000000064587 ) ;
#115 = COLOUR_RGB ( '',0.7921568627450980005, 0.8196078431372548767, 0.9333333333333333481 ) ;
#116 = CARTESIAN_POINT ( 'NONE',  ( -0.06250000000000000000, 0.0000000000000000000, 0.05000000000000000278 ) ) ;
#117 = VERTEX_POINT ( 'NONE', #48 ) ;
#118 = DIRECTION ( 'NONE',  ( 0.0000000000000000000, 0.0000000000000000000, -1.000000000000000000 ) ) ;
#119 = ORIENTED_EDGE ( 'NONE', *, *, #184, .F. ) ;
#120 = ADVANCED_FACE ( 'NONE', ( #106 ), #247, .T. ) ;
#121 = CARTESIAN_POINT ( 'NONE',  ( 0.06250000000000000000, 7.654042494670956004E-18, 0.0000000000000000000 ) ) ;
#122 = ORIENTED_EDGE ( 'NONE', *, *, #329, .T. ) ;
#123 = AXIS2_PLACEMENT_3D ( 'NONE', #140, #278, #280 ) ;
#124 = SHAPE_DEFINITION_REPRESENTATION ( #96, #259 ) ;
#125 =( NAMED_UNIT ( * ) PLANE_ANGLE_UNIT ( ) SI_UNIT ( $, .RADIAN. ) );
#126 = EDGE_CURVE ( 'NONE', #117, #377, #369, .T. ) ;
#127 = ORIENTED_EDGE ( 'NONE', *, *, #104, .T. ) ;
#128 = FACE_OUTER_BOUND ( 'NONE', #43, .T. ) ;
#129 = DIRECTION ( 'NONE',  ( 0.0000000000000000000, 0.0000000000000000000, 1.000000000000000000 ) ) ;
#130 = VECTOR ( 'NONE', #309, 39.37007874015748143 ) ;
#131 = CARTESIAN_POINT ( 'NONE',  ( 0.03100000000000000325, 3.796405077356795010E-18, 0.05000000000000000278 ) ) ;
#132 = EDGE_LOOP ( 'NONE', ( #375, #290 ) ) ;
#133 = DIRECTION ( 'NONE',  ( 1.000000000000000000, 0.0000000000000000000, -0.0000000000000000000 ) ) ;
#134 = EDGE_CURVE ( 'NONE', #377, #117, #169, .T. ) ;
#135 = FACE_OUTER_BOUND ( 'NONE', #28, .T. ) ;
#136 = VECTOR ( 'NONE', #314, 39.37007874015748143 ) ;
#137 = CARTESIAN_POINT ( 'NONE',  ( 0.0000000000000000000, 0.0000000000000000000, 0.1899999999999999745 ) ) ;
#138 = DIRECTION ( 'NONE',  ( -0.0000000000000000000, -0.0000000000000000000, -1.000000000000000000 ) ) ;
#139 = EDGE_CURVE ( 'NONE', #230, #117, #281, .T. ) ;
#140 = CARTESIAN_POINT ( 'NONE',  ( 0.0000000000000000000, 0.0000000000000000000, 1.500000000000000222 ) ) ;
#141 = FACE_OUTER_BOUND ( 'NONE', #70, .T. ) ;
#142 = CARTESIAN_POINT ( 'NONE',  ( 0.06250000000000000000, 7.654042494670956004E-18, 1.485000000000000764 ) ) ;
#143 = CYLINDRICAL_SURFACE ( 'NONE', #350, 0.03100000000000000672 ) ;
#144 = DIRECTION ( 'NONE',  ( 0.0000000000000000000, 0.0000000000000000000, 1.000000000000000000 ) ) ;
#145 = MECHANICAL_DESIGN_GEOMETRIC_PRESENTATION_REPRESENTATION (  '', ( #97 ), #84 ) ;
#146 =( GEOMETRIC_REPRESENTATION_CONTEXT ( 3 ) GLOBAL_UNCERTAINTY_ASSIGNED_CONTEXT ( ( #240 ) ) GLOBAL_UNIT_ASSIGNED_CONTEXT ( ( #208, #327, #68 ) ) REPRESENTATION_CONTEXT ( 'NONE', 'WORKASPACE' ) );
#147 = SURFACE_SIDE_STYLE ('',( #348 ) ) ;
#148 = ORIENTED_EDGE ( 'NONE', *, *, #50, .F. ) ;
#149 = ORIENTED_EDGE ( 'NONE', *, *, #55, .T. ) ;
#150 = ORIENTED_EDGE ( 'NONE', *, *, #286, .T. ) ;
#151 = AXIS2_PLACEMENT_3D ( 'NONE', #342, #20, #252 ) ;
#152 = PRODUCT_DEFINITION_FORMATION_WITH_SPECIFIED_SOURCE ( 'ANY', '', #179, .NOT_KNOWN. ) ;
#153 = EDGE_CURVE ( 'NONE', #304, #59, #265, .T. ) ;
#154 =( NAMED_UNIT ( * ) SI_UNIT ( $, .STERADIAN. ) SOLID_ANGLE_UNIT ( ) );
#155 = CARTESIAN_POINT ( 'NONE',  ( 0.06250000000000000000, 7.654042494670956004E-18, 1.500000000000000222 ) ) ;
#156 = DIRECTION ( 'NONE',  ( -0.0000000000000000000, -0.0000000000000000000, -1.000000000000000000 ) ) ;
#157 = UNCERTAINTY_MEASURE_WITH_UNIT (LENGTH_MEASURE( 1.000000000000000082E-05 ), #61, 'distance_accuracy_value', 'NONE');
#158 = ORIENTED_EDGE ( 'NONE', *, *, #255, .T. ) ;
#159 = AXIS2_PLACEMENT_3D ( 'NONE', #332, #12, #133 ) ;
#160 = VECTOR ( 'NONE', #216, 39.37007874015748143 ) ;
#161 = CARTESIAN_POINT ( 'NONE',  ( 0.0000000000000000000, 0.0000000000000000000, 0.05000000000000000278 ) ) ;
#162 = CARTESIAN_POINT ( 'NONE',  ( 0.03100000000000001713, 0.0000000000000000000, 0.1899999999999999745 ) ) ;
#163 = LINE ( 'NONE', #245, #160 ) ;
#164 = AXIS2_PLACEMENT_3D ( 'NONE', #357, #277, #42 ) ;
#165 = CARTESIAN_POINT ( 'NONE',  ( 0.04750000000000064587, 6.735557395310482421E-18, 1.500000000000000222 ) ) ;
#166 = DIRECTION ( 'NONE',  ( -1.000000000000000000, 0.0000000000000000000, 0.0000000000000000000 ) ) ;
#167 = CARTESIAN_POINT ( 'NONE',  ( -0.06250000000000000000, 0.0000000000000000000, 1.500000000000000222 ) ) ;
#168 = CARTESIAN_POINT ( 'NONE',  ( 0.0000000000000000000, 0.0000000000000000000, 1.500000000000000222 ) ) ;
#169 = CIRCLE ( 'NONE', #275, 0.03100000000000000325 ) ;
#170 = EDGE_CURVE ( 'NONE', #183, #83, #191, .T. ) ;
#171 = FILL_AREA_STYLE ('',( #87 ) ) ;
#172 = ORIENTED_EDGE ( 'NONE', *, *, #153, .F. ) ;
#173 = AXIS2_PLACEMENT_3D ( 'NONE', #137, #79, #80 ) ;
#174 = DIRECTION ( 'NONE',  ( -0.0000000000000000000, -0.0000000000000000000, -1.000000000000000000 ) ) ;
#175 = ORIENTED_EDGE ( 'NONE', *, *, #15, .T. ) ;
#176 = VERTEX_POINT ( 'NONE', #165 ) ;
#177 =( CONVERSION_BASED_UNIT ( 'INCH', #3 ) LENGTH_UNIT ( ) NAMED_UNIT ( #65 ) );
#178 = ORIENTED_EDGE ( 'NONE', *, *, #139, .T. ) ;
#179 = PRODUCT ( 'Micro_KC-125-190-050', 'Micro_KC-125-190-050', '', ( #236 ) ) ;
#180 = AXIS2_PLACEMENT_3D ( 'NONE', #319, #318, #254 ) ;
#181 = DIRECTION ( 'NONE',  ( 1.000000000000000000, 0.0000000000000000000, -0.0000000000000000000 ) ) ;
#182 = ORIENTED_EDGE ( 'NONE', *, *, #197, .F. ) ;
#183 = VERTEX_POINT ( 'NONE', #44 ) ;
#184 = EDGE_CURVE ( 'NONE', #183, #176, #114, .T. ) ;
#185 = FACE_OUTER_BOUND ( 'NONE', #226, .T. ) ;
#186 = VECTOR ( 'NONE', #16, 39.37007874015748143 ) ;
#187 = APPLICATION_PROTOCOL_DEFINITION ( 'draft international standard', 'automotive_design', 1998, #26 ) ;
#188 = DIRECTION ( 'NONE',  ( -1.000000000000000000, 0.0000000000000000000, 0.0000000000000000000 ) ) ;
#189 = CARTESIAN_POINT ( 'NONE',  ( 0.0000000000000000000, 0.0000000000000000000, 0.2214999999999998359 ) ) ;
#190 = EDGE_CURVE ( 'NONE', #293, #304, #310, .T. ) ;
#191 = LINE ( 'NONE', #19, #130 ) ;
#192 = CIRCLE ( 'NONE', #338, 0.06250000000000000000 ) ;
#193 = AXIS2_PLACEMENT_3D ( 'NONE', #33, #333, #181 ) ;
#194 = DIRECTION ( 'NONE',  ( -0.0000000000000000000, -0.0000000000000000000, -1.000000000000000000 ) ) ;
#195 = CARTESIAN_POINT ( 'NONE',  ( -0.03100000000000001713, 5.725223786013877433E-18, 0.1899999999999999745 ) ) ;
#196 = CARTESIAN_POINT ( 'NONE',  ( 0.0000000000000000000, 0.0000000000000000000, 0.1899999999999999745 ) ) ;
#197 = EDGE_CURVE ( 'NONE', #83, #59, #222, .T. ) ;
#198 = DIRECTION ( 'NONE',  ( -1.000000000000000000, 0.0000000000000000000, 0.0000000000000000000 ) ) ;
#199 = AXIS2_PLACEMENT_3D ( 'NONE', #23, #53, #229 ) ;
#200 = ORIENTED_EDGE ( 'NONE', *, *, #255, .F. ) ;
#201 = DIRECTION ( 'NONE',  ( 0.0000000000000000000, 0.0000000000000000000, -1.000000000000000000 ) ) ;
#202 = ORIENTED_EDGE ( 'NONE', *, *, #10, .T. ) ;
#203 = PRESENTATION_STYLE_ASSIGNMENT (( #373 ) ) ;
#204 = AXIS2_PLACEMENT_3D ( 'NONE', #168, #340, #49 ) ;
#205 = EDGE_LOOP ( 'NONE', ( #347, #127 ) ) ;
#206 = CYLINDRICAL_SURFACE ( 'NONE', #180, 0.06250000000000000000 ) ;
#207 = ORIENTED_EDGE ( 'NONE', *, *, #134, .T. ) ;
#208 =( CONVERSION_BASED_UNIT ( 'INCH', #211 ) LENGTH_UNIT ( ) NAMED_UNIT ( #25 ) );
#209 = ORIENTED_EDGE ( 'NONE', *, *, #27, .F. ) ;
#210 = LINE ( 'NONE', #361, #215 ) ;
#211 = LENGTH_MEASURE_WITH_UNIT ( LENGTH_MEASURE( 0.02539999999999999897 ), #5 );
#212 = ORIENTED_EDGE ( 'NONE', *, *, #217, .F. ) ;
#213 = ORIENTED_EDGE ( 'NONE', *, *, #78, .F. ) ;
#214 = DIRECTION ( 'NONE',  ( -0.0000000000000000000, -0.0000000000000000000, -1.000000000000000000 ) ) ;
#215 = VECTOR ( 'NONE', #36, 39.37007874015748143 ) ;
#216 = DIRECTION ( 'NONE',  ( -0.0000000000000000000, -0.0000000000000000000, -1.000000000000000000 ) ) ;
#217 = EDGE_CURVE ( 'NONE', #230, #59, #109, .T. ) ;
#218 = CARTESIAN_POINT ( 'NONE',  ( -0.03100000000000000672, 0.0000000000000000000, 0.0000000000000000000 ) ) ;
#219 = CYLINDRICAL_SURFACE ( 'NONE', #151, 0.06250000000000000000 ) ;
#220 = AXIS2_PLACEMENT_3D ( 'NONE', #253, #297, #260 ) ;
#221 = DIRECTION ( 'NONE',  ( -1.000000000000000000, 0.0000000000000000000, 0.0000000000000000000 ) ) ;
#222 = LINE ( 'NONE', #167, #186 ) ;
#223 = DIRECTION ( 'NONE',  ( -0.0000000000000000000, -0.0000000000000000000, -1.000000000000000000 ) ) ;
#224 = AXIS2_PLACEMENT_3D ( 'NONE', #76, #194, #365 ) ;
#225 = AXIS2_PLACEMENT_3D ( 'NONE', #268, #40, #303 ) ;
#226 = EDGE_LOOP ( 'NONE', ( #1, #295 ) ) ;
#227 = PLANE ( 'NONE',  #220 ) ;
#228 = EDGE_LOOP ( 'NONE', ( #256, #158, #178, #269 ) ) ;
#229 = DIRECTION ( 'NONE',  ( -1.000000000000000000, 0.0000000000000000000, 0.0000000000000000000 ) ) ;
#230 = VERTEX_POINT ( 'NONE', #195 ) ;
#231 = CARTESIAN_POINT ( 'NONE',  ( 0.06250000000000000000, 7.654042494670956004E-18, 0.2214999999999998359 ) ) ;
#232 = ORIENTED_EDGE ( 'NONE', *, *, #27, .T. ) ;
#233 = FACE_OUTER_BOUND ( 'NONE', #205, .T. ) ;
#234 = ADVANCED_FACE ( 'NONE', ( #107 ), #219, .T. ) ;
#235 = EDGE_LOOP ( 'NONE', ( #209, #202, #93, #149 ) ) ;
#236 = PRODUCT_CONTEXT ( 'NONE', #13, 'mechanical' ) ;
#237 = EDGE_LOOP ( 'NONE', ( #24, #119, #86, #64 ) ) ;
#238 = PLANE ( 'NONE',  #193 ) ;
#239 = CARTESIAN_POINT ( 'NONE',  ( -0.06250000000000000000, 0.0000000000000000000, 0.2214999999999998359 ) ) ;
#240 = UNCERTAINTY_MEASURE_WITH_UNIT (LENGTH_MEASURE( 1.000000000000000082E-05 ), #208, 'distance_accuracy_value', 'NONE');
#241 = CONICAL_SURFACE ( 'NONE', #77, 0.03100000000000001713, 0.7853981633974502774 ) ;
#242 = PLANE ( 'NONE',  #159 ) ;
#243 = CARTESIAN_POINT ( 'NONE',  ( 0.0000000000000000000, 0.0000000000000000000, 0.1899999999999999745 ) ) ;
#244 = PRODUCT_RELATED_PRODUCT_CATEGORY ( 'part', '', ( #179 ) ) ;
#245 = CARTESIAN_POINT ( 'NONE',  ( 0.03100000000000000672, 3.796405077356795780E-18, 0.0000000000000000000 ) ) ;
#246 = CIRCLE ( 'NONE', #267, 0.06250000000000000000 ) ;
#247 = CYLINDRICAL_SURFACE ( 'NONE', #300, 0.06250000000000000000 ) ;
#248 = CARTESIAN_POINT ( 'NONE',  ( -0.03100000000000001713, 3.796405077356796551E-18, 0.1899999999999999745 ) ) ;
#249 = DIRECTION ( 'NONE',  ( -0.0000000000000000000, -0.0000000000000000000, -1.000000000000000000 ) ) ;
#250 = ADVANCED_FACE ( 'NONE', ( #371 ), #112, .T. ) ;
#251 = AXIS2_PLACEMENT_3D ( 'NONE', #58, #174, #198 ) ;
#252 = DIRECTION ( 'NONE',  ( -1.000000000000000000, 0.0000000000000000000, 0.0000000000000000000 ) ) ;
#253 = CARTESIAN_POINT ( 'NONE',  ( 0.06250000000000000000, 0.0000000000000000000, 0.05000000000000000278 ) ) ;
#254 = DIRECTION ( 'NONE',  ( -1.000000000000000000, 0.0000000000000000000, 0.0000000000000000000 ) ) ;
#255 = EDGE_CURVE ( 'NONE', #358, #230, #363, .T. ) ;
#256 = ORIENTED_EDGE ( 'NONE', *, *, #95, .F. ) ;
#257 = CARTESIAN_POINT ( 'NONE',  ( 0.0000000000000000000, 0.0000000000000000000, 0.2214999999999998359 ) ) ;
#258 = CIRCLE ( 'NONE', #110, 0.06250000000000000000 ) ;
#259 = ADVANCED_BREP_SHAPE_REPRESENTATION ( 'Micro_KC-125-190-050', ( #291, #111 ), #284 ) ;
#260 = DIRECTION ( 'NONE',  ( 1.000000000000000000, 0.0000000000000000000, -0.0000000000000000000 ) ) ;
#261 = ORIENTED_EDGE ( 'NONE', *, *, #197, .T. ) ;
#262 = CARTESIAN_POINT ( 'NONE',  ( -0.06250000000000000000, 0.0000000000000000000, 0.0000000000000000000 ) ) ;
#263 = VERTEX_POINT ( 'NONE', #116 ) ;
#264 = SURFACE_STYLE_FILL_AREA ( #330 ) ;
#265 = CIRCLE ( 'NONE', #311, 0.06250000000000000000 ) ;
#266 = ORIENTED_EDGE ( 'NONE', *, *, #126, .F. ) ;
#267 = AXIS2_PLACEMENT_3D ( 'NONE', #257, #325, #376 ) ;
#268 = CARTESIAN_POINT ( 'NONE',  ( 0.0000000000000000000, 0.0000000000000000000, 1.500000000000000222 ) ) ;
#269 = ORIENTED_EDGE ( 'NONE', *, *, #134, .F. ) ;
#270 = ADVANCED_FACE ( 'NONE', ( #292, #289 ), #227, .T. ) ;
#271 = VERTEX_POINT ( 'NONE', #262 ) ;
#272 = AXIS2_PLACEMENT_3D ( 'NONE', #161, #301, #302 ) ;
#273 =( LENGTH_UNIT ( ) NAMED_UNIT ( * ) SI_UNIT ( $, .METRE. ) );
#274 = CARTESIAN_POINT ( 'NONE',  ( 0.06250000000000000000, 7.654042494670956004E-18, 0.05000000000000000278 ) ) ;
#275 = AXIS2_PLACEMENT_3D ( 'NONE', #313, #105, #166 ) ;
#276 = LINE ( 'NONE', #155, #279 ) ;
#277 = DIRECTION ( 'NONE',  ( -0.0000000000000000000, -0.0000000000000000000, -1.000000000000000000 ) ) ;
#278 = DIRECTION ( 'NONE',  ( 0.0000000000000000000, 0.0000000000000000000, 1.000000000000000000 ) ) ;
#279 = VECTOR ( 'NONE', #156, 39.37007874015748143 ) ;
#280 = DIRECTION ( 'NONE',  ( 1.000000000000000000, 0.0000000000000000000, 0.0000000000000000000 ) ) ;
#281 = LINE ( 'NONE', #218, #17 ) ;
#282 = ADVANCED_FACE ( 'NONE', ( #30 ), #113, .T. ) ;
#283 = AXIS2_PLACEMENT_3D ( 'NONE', #73, #99, #188 ) ;
#284 =( GEOMETRIC_REPRESENTATION_CONTEXT ( 3 ) GLOBAL_UNCERTAINTY_ASSIGNED_CONTEXT ( ( #7 ) ) GLOBAL_UNIT_ASSIGNED_CONTEXT ( ( #177, #125, #154 ) ) REPRESENTATION_CONTEXT ( 'NONE', 'WORKASPACE' ) );
#285 = DIRECTION ( 'NONE',  ( -1.000000000000000000, 0.0000000000000000000, 0.0000000000000000000 ) ) ;
#286 = EDGE_CURVE ( 'NONE', #293, #83, #258, .T. ) ;
#287 =( NAMED_UNIT ( * ) SI_UNIT ( $, .STERADIAN. ) SOLID_ANGLE_UNIT ( ) );
#288 = ORIENTED_EDGE ( 'NONE', *, *, #126, .T. ) ;
#289 = FACE_OUTER_BOUND ( 'NONE', #132, .T. ) ;
#290 = ORIENTED_EDGE ( 'NONE', *, *, #10, .F. ) ;
#291 = MANIFOLD_SOLID_BREP ( 'Cut-Revolve1', #81 ) ;
#292 = FACE_BOUND ( 'NONE', #100, .T. ) ;
#293 = VERTEX_POINT ( 'NONE', #142 ) ;
#294 =( LENGTH_UNIT ( ) NAMED_UNIT ( * ) SI_UNIT ( $, .METRE. ) );
#295 = ORIENTED_EDGE ( 'NONE', *, *, #308, .F. ) ;
#296 = ADVANCED_FACE ( 'NONE', ( #374 ), #143, .T. ) ;
#297 = DIRECTION ( 'NONE',  ( 0.0000000000000000000, 0.0000000000000000000, 1.000000000000000000 ) ) ;
#298 = VERTEX_POINT ( 'NONE', #121 ) ;
#299 = CARTESIAN_POINT ( 'NONE',  ( 0.03100000000000001713, 0.0000000000000000000, 0.1899999999999999745 ) ) ;
#300 = AXIS2_PLACEMENT_3D ( 'NONE', #362, #339, #221 ) ;
#301 = DIRECTION ( 'NONE',  ( -0.0000000000000000000, -0.0000000000000000000, -1.000000000000000000 ) ) ;
#302 = DIRECTION ( 'NONE',  ( -1.000000000000000000, 0.0000000000000000000, 0.0000000000000000000 ) ) ;
#303 = DIRECTION ( 'NONE',  ( -1.000000000000000000, 0.0000000000000000000, 0.0000000000000000000 ) ) ;
#304 = VERTEX_POINT ( 'NONE', #231 ) ;
#305 = ORIENTED_EDGE ( 'NONE', *, *, #190, .T. ) ;
#306 = PRESENTATION_LAYER_ASSIGNMENT (  '', '', ( #97 ) ) ;
#307 = LINE ( 'NONE', #162, #136 ) ;
#308 = EDGE_CURVE ( 'NONE', #298, #271, #21, .T. ) ;
#309 = DIRECTION ( 'NONE',  ( -0.7071067811865456854, 0.0000000000000000000, -0.7071067811865493491 ) ) ;
#310 = LINE ( 'NONE', #368, #8 ) ;
#311 = AXIS2_PLACEMENT_3D ( 'NONE', #189, #249, #18 ) ;
#312 = ADVANCED_FACE ( 'NONE', ( #91 ), #206, .T. ) ;
#313 = CARTESIAN_POINT ( 'NONE',  ( 0.0000000000000000000, 0.0000000000000000000, 0.05000000000000000278 ) ) ;
#314 = DIRECTION ( 'NONE',  ( 0.7071067811865489050, 0.0000000000000000000, 0.7071067811865461294 ) ) ;
#315 = CARTESIAN_POINT ( 'NONE',  ( 0.0000000000000000000, 0.0000000000000000000, 1.500000000000000222 ) ) ;
#316 = CIRCLE ( 'NONE', #204, 0.04750000000000064587 ) ;
#317 = STYLED_ITEM ( 'NONE', ( #98 ), #259 ) ;
#318 = DIRECTION ( 'NONE',  ( -0.0000000000000000000, -0.0000000000000000000, -1.000000000000000000 ) ) ;
#319 = CARTESIAN_POINT ( 'NONE',  ( 0.0000000000000000000, 0.0000000000000000000, 1.500000000000000222 ) ) ;
#320 = EDGE_LOOP ( 'NONE', ( #353, #14, #266, #66 ) ) ;
#321 = DIRECTION ( 'NONE',  ( 1.000000000000000000, 0.0000000000000000000, 0.0000000000000000000 ) ) ;
#322 = EDGE_CURVE ( 'NONE', #59, #304, #246, .T. ) ;
#323 = AXIS2_PLACEMENT_3D ( 'NONE', #315, #51, #285 ) ;
#324 = ORIENTED_EDGE ( 'NONE', *, *, #22, .T. ) ;
#325 = DIRECTION ( 'NONE',  ( -0.0000000000000000000, -0.0000000000000000000, -1.000000000000000000 ) ) ;
#326 = EDGE_LOOP ( 'NONE', ( #324, #232, #335, #148 ) ) ;
#327 =( NAMED_UNIT ( * ) PLANE_ANGLE_UNIT ( ) SI_UNIT ( $, .RADIAN. ) );
#328 = EDGE_LOOP ( 'NONE', ( #69, #150, #261, #172 ) ) ;
#329 = EDGE_CURVE ( 'NONE', #83, #293, #90, .T. ) ;
#330 = FILL_AREA_STYLE ('',( #92 ) ) ;
#331 = VECTOR ( 'NONE', #367, 39.37007874015748143 ) ;
#332 = CARTESIAN_POINT ( 'NONE',  ( 0.0000000000000000000, 0.0000000000000000000, 0.0000000000000000000 ) ) ;
#333 = DIRECTION ( 'NONE',  ( 0.0000000000000000000, 0.0000000000000000000, 1.000000000000000000 ) ) ;
#334 = PRODUCT_DEFINITION_CONTEXT ( 'detailed design', #26, 'design' ) ;
#335 = ORIENTED_EDGE ( 'NONE', *, *, #308, .T. ) ;
#336 = SURFACE_SIDE_STYLE ('',( #264 ) ) ;
#337 = CARTESIAN_POINT ( 'NONE',  ( 0.0000000000000000000, 0.0000000000000000000, 0.0000000000000000000 ) ) ;
#338 = AXIS2_PLACEMENT_3D ( 'NONE', #337, #39, #6 ) ;
#339 = DIRECTION ( 'NONE',  ( -0.0000000000000000000, -0.0000000000000000000, -1.000000000000000000 ) ) ;
#340 = DIRECTION ( 'NONE',  ( 0.0000000000000000000, 0.0000000000000000000, 1.000000000000000000 ) ) ;
#341 = VECTOR ( 'NONE', #214, 39.37007874015748143 ) ;
#342 = CARTESIAN_POINT ( 'NONE',  ( 0.0000000000000000000, 0.0000000000000000000, 1.500000000000000222 ) ) ;
#343 = DIRECTION ( 'NONE',  ( -0.0000000000000000000, -0.0000000000000000000, -1.000000000000000000 ) ) ;
#344 = AXIS2_PLACEMENT_3D ( 'NONE', #196, #343, #74 ) ;
#345 = DIRECTION ( 'NONE',  ( 1.000000000000000000, 0.0000000000000000000, 0.0000000000000000000 ) ) ;
#346 = LENGTH_MEASURE_WITH_UNIT ( LENGTH_MEASURE( 0.02539999999999999897 ), #294 );
#347 = ORIENTED_EDGE ( 'NONE', *, *, #184, .T. ) ;
#348 = SURFACE_STYLE_FILL_AREA ( #171 ) ;
#349 = ORIENTED_EDGE ( 'NONE', *, *, #322, .T. ) ;
#350 = AXIS2_PLACEMENT_3D ( 'NONE', #82, #223, #379 ) ;
#351 = CARTESIAN_POINT ( 'NONE',  ( 0.0000000000000000000, 0.0000000000000000000, 0.0000000000000000000 ) ) ;
#352 = ORIENTED_EDGE ( 'NONE', *, *, #170, .F. ) ;
#353 = ORIENTED_EDGE ( 'NONE', *, *, #78, .T. ) ;
#354 = CIRCLE ( 'NONE', #272, 0.06250000000000000000 ) ;
#355 = LINE ( 'NONE', #94, #341 ) ;
#356 = CONICAL_SURFACE ( 'NONE', #283, 0.04750000000000064587, 0.7853981633974457255 ) ;
#357 = CARTESIAN_POINT ( 'NONE',  ( 0.0000000000000000000, 0.0000000000000000000, 0.05000000000000000278 ) ) ;
#358 = VERTEX_POINT ( 'NONE', #299 ) ;
#359 = PRODUCT_DEFINITION ( 'UNKNOWN', '', #152, #334 ) ;
#360 = CARTESIAN_POINT ( 'NONE',  ( 0.0000000000000000000, 0.0000000000000000000, 0.0000000000000000000 ) ) ;
#361 = CARTESIAN_POINT ( 'NONE',  ( 0.04750000000000064587, 5.817072295950006528E-18, 1.500000000000000222 ) ) ;
#362 = CARTESIAN_POINT ( 'NONE',  ( 0.0000000000000000000, 0.0000000000000000000, 1.500000000000000222 ) ) ;
#363 = CIRCLE ( 'NONE', #199, 0.03100000000000001713 ) ;
#364 = AXIS2_PLACEMENT_3D ( 'NONE', #351, #144, #345 ) ;
#365 = DIRECTION ( 'NONE',  ( -1.000000000000000000, 0.0000000000000000000, 0.0000000000000000000 ) ) ;
#366 = ADVANCED_FACE ( 'NONE', ( #128 ), #370, .T. ) ;
#367 = DIRECTION ( 'NONE',  ( -0.7071067811865489050, 8.659560562354950115E-17, 0.7071067811865461294 ) ) ;
#368 = CARTESIAN_POINT ( 'NONE',  ( 0.06250000000000000000, 7.654042494670956004E-18, 1.500000000000000222 ) ) ;
#369 = CIRCLE ( 'NONE', #224, 0.03100000000000000325 ) ;
#370 = CONICAL_SURFACE ( 'NONE', #225, 0.04750000000000064587, 0.7853981633974457255 ) ;
#371 = FACE_OUTER_BOUND ( 'NONE', #235, .T. ) ;
#372 = ADVANCED_FACE ( 'NONE', ( #233 ), #238, .T. ) ;
#373 = SURFACE_STYLE_USAGE ( .BOTH. , #147 ) ;
#374 = FACE_OUTER_BOUND ( 'NONE', #320, .T. ) ;
#375 = ORIENTED_EDGE ( 'NONE', *, *, #22, .F. ) ;
#376 = DIRECTION ( 'NONE',  ( 1.000000000000000000, 0.0000000000000000000, 0.0000000000000000000 ) ) ;
#377 = VERTEX_POINT ( 'NONE', #131 ) ;
#378 = CARTESIAN_POINT ( 'NONE',  ( 0.0000000000000000000, 0.0000000000000000000, 1.485000000000000764 ) ) ;
#379 = DIRECTION ( 'NONE',  ( -1.000000000000000000, 0.0000000000000000000, 0.0000000000000000000 ) ) ;
ENDSEC;
END-ISO-10303-21;
