ISO-10303-21;
HEADER;
FILE_DESCRIPTION (( 'STEP AP214' ),
    '1' );
FILE_NAME ('48395.STEP',
    '2023-06-22T21:31:19',
    ( '' ),
    ( '' ),
    'SwSTEP 2.0',
    'SolidWorks 2023',
    '' );
FILE_SCHEMA (( 'AUTOMOTIVE_DESIGN' ));
ENDSEC;

DATA;
#1 = PRODUCT_CONTEXT ( 'NONE', #265, 'mechanical' ) ;
#2 = ORIENTED_EDGE ( 'NONE', *, *, #3, .F. ) ;
#3 = EDGE_CURVE ( 'NONE', #122, #127, #79, .T. ) ;
#4 = CIRCLE ( 'NONE', #128, 0.2500000000000000000 ) ;
#5 = APPLICATION_PROTOCOL_DEFINITION ( 'draft international standard', 'automotive_design', 1998, #226 ) ;
#6 = PRESENTATION_STYLE_ASSIGNMENT (( #211 ) ) ;
#7 = CLOSED_SHELL ( 'NONE', ( #234, #96, #186, #177 ) ) ;
#8 = STYLED_ITEM ( 'NONE', ( #191 ), #177 ) ;
#9 = FACE_OUTER_BOUND ( 'NONE', #199, .T. ) ;
#10 =( LENGTH_UNIT ( ) NAMED_UNIT ( * ) SI_UNIT ( $, .METRE. ) );
#11 = PLANE ( 'NONE',  #92 ) ;
#12 = ORIENTED_EDGE ( 'NONE', *, *, #90, .F. ) ;
#13 = DIRECTION ( 'NONE',  ( 3.498990854706726443E-17, -1.000000000000000000, 0.000000000000000000 ) ) ;
#14 =( LENGTH_UNIT ( ) NAMED_UNIT ( * ) SI_UNIT ( $, .METRE. ) );
#15 = EDGE_LOOP ( 'NONE', ( #66, #129, #276, #53 ) ) ;
#16 = PRESENTATION_LAYER_ASSIGNMENT (  '', '', ( #286 ) ) ;
#17 = FACE_OUTER_BOUND ( 'NONE', #221, .T. ) ;
#18 = UNCERTAINTY_MEASURE_WITH_UNIT (LENGTH_MEASURE( 1.000000000000000082E-05 ), #145, 'distance_accuracy_value', 'NONE');
#19 = DIRECTION ( 'NONE',  ( -0.000000000000000000, -1.000000000000000000, -0.000000000000000000 ) ) ;
#20 = CARTESIAN_POINT ( 'NONE',  ( -0.2500000000000001665, 3.000000000000000444, 0.000000000000000000 ) ) ;
#21 = DIRECTION ( 'NONE',  ( -1.000000000000000000, 0.000000000000000000, 0.000000000000000000 ) ) ;
#22 = LENGTH_MEASURE_WITH_UNIT ( LENGTH_MEASURE( 0.02539999999999999897 ), #230 );
#23 = DIRECTION ( 'NONE',  ( -3.498990854706726443E-17, 1.000000000000000000, -0.000000000000000000 ) ) ;
#24 = AXIS2_PLACEMENT_3D ( 'NONE', #37, #110, #44 ) ;
#25 = CARTESIAN_POINT ( 'NONE',  ( 0.000000000000000000, 0.000000000000000000, -0.2500000000000000000 ) ) ;
#26 = AXIS2_PLACEMENT_3D ( 'NONE', #65, #23, #208 ) ;
#27 =( NAMED_UNIT ( * ) SI_UNIT ( $, .STERADIAN. ) SOLID_ANGLE_UNIT ( ) );
#28 =( GEOMETRIC_REPRESENTATION_CONTEXT ( 3 ) GLOBAL_UNCERTAINTY_ASSIGNED_CONTEXT ( ( #130 ) ) GLOBAL_UNIT_ASSIGNED_CONTEXT ( ( #235, #239, #212 ) ) REPRESENTATION_CONTEXT ( 'NONE', 'WORKASPACE' ) );
#29 = SURFACE_SIDE_STYLE ('',( #189 ) ) ;
#30 = DIRECTION ( 'NONE',  ( -0.000000000000000000, -1.000000000000000000, -0.000000000000000000 ) ) ;
#31 = ORIENTED_EDGE ( 'NONE', *, *, #36, .F. ) ;
#32 = PRESENTATION_LAYER_ASSIGNMENT (  '', '', ( #178 ) ) ;
#33 = DIRECTION ( 'NONE',  ( -3.498990854706726443E-17, 1.000000000000000000, 0.000000000000000000 ) ) ;
#34 = ORIENTED_EDGE ( 'NONE', *, *, #46, .T. ) ;
#35 = CARTESIAN_POINT ( 'NONE',  ( 3.061616997868383018E-17, 0.000000000000000000, 0.2500000000000000000 ) ) ;
#36 = EDGE_CURVE ( 'NONE', #127, #122, #39, .T. ) ;
#37 = CARTESIAN_POINT ( 'NONE',  ( 0.000000000000000000, 1.250000000000000000, 0.000000000000000000 ) ) ;
#38 = LINE ( 'NONE', #25, #114 ) ;
#39 = CIRCLE ( 'NONE', #214, 0.2499999999999999722 ) ;
#40 = AXIS2_PLACEMENT_3D ( 'NONE', #76, #50, #223 ) ;
#41 = DIRECTION ( 'NONE',  ( -0.000000000000000000, -1.000000000000000000, -0.000000000000000000 ) ) ;
#42 = DIRECTION ( 'NONE',  ( -3.498990854706726443E-17, 1.000000000000000000, -0.000000000000000000 ) ) ;
#43 = CARTESIAN_POINT ( 'NONE',  ( -6.123233995736772199E-17, 3.000000000000000444, 0.000000000000000000 ) ) ;
#44 = DIRECTION ( 'NONE',  ( 0.000000000000000000, -0.000000000000000000, 1.000000000000000000 ) ) ;
#45 = DIMENSIONAL_EXPONENTS ( 1.000000000000000000, 0.000000000000000000, 0.000000000000000000, 0.000000000000000000, 0.000000000000000000, 0.000000000000000000, 0.000000000000000000 ) ;
#46 = EDGE_CURVE ( 'NONE', #227, #246, #74, .T. ) ;
#47 = DIRECTION ( 'NONE',  ( -0.000000000000000000, -1.000000000000000000, -0.000000000000000000 ) ) ;
#48 = SURFACE_STYLE_USAGE ( .BOTH. , #241 ) ;
#49 = CIRCLE ( 'NONE', #87, 0.2499999999999999722 ) ;
#50 = DIRECTION ( 'NONE',  ( -0.000000000000000000, -1.000000000000000000, -0.000000000000000000 ) ) ;
#51 = DIMENSIONAL_EXPONENTS ( 1.000000000000000000, 0.000000000000000000, 0.000000000000000000, 0.000000000000000000, 0.000000000000000000, 0.000000000000000000, 0.000000000000000000 ) ;
#52 = CYLINDRICAL_SURFACE ( 'NONE', #151, 0.2500000000000000000 ) ;
#53 = ORIENTED_EDGE ( 'NONE', *, *, #218, .F. ) ;
#54 = MECHANICAL_DESIGN_GEOMETRIC_PRESENTATION_REPRESENTATION (  '', ( #292 ), #260 ) ;
#55 =( LENGTH_UNIT ( ) NAMED_UNIT ( * ) SI_UNIT ( $, .METRE. ) );
#56 = LENGTH_MEASURE_WITH_UNIT ( LENGTH_MEASURE( 0.02539999999999999897 ), #55 );
#57 =( CONVERSION_BASED_UNIT ( 'INCH', #173 ) LENGTH_UNIT ( ) NAMED_UNIT ( #293 ) );
#58 = ORIENTED_EDGE ( 'NONE', *, *, #240, .T. ) ;
#59 = DIRECTION ( 'NONE',  ( -3.498990854706726443E-17, 1.000000000000000000, -0.000000000000000000 ) ) ;
#60 = ORIENTED_EDGE ( 'NONE', *, *, #257, .F. ) ;
#61 =( CONVERSION_BASED_UNIT ( 'INCH', #175 ) LENGTH_UNIT ( ) NAMED_UNIT ( #112 ) );
#62 = CYLINDRICAL_SURFACE ( 'NONE', #26, 0.2500000000000000555 ) ;
#63 = PRESENTATION_LAYER_ASSIGNMENT (  '', '', ( #237 ) ) ;
#64 =( GEOMETRIC_REPRESENTATION_CONTEXT ( 3 ) GLOBAL_UNCERTAINTY_ASSIGNED_CONTEXT ( ( #202 ) ) GLOBAL_UNIT_ASSIGNED_CONTEXT ( ( #61, #135, #105 ) ) REPRESENTATION_CONTEXT ( 'NONE', 'WORKASPACE' ) );
#65 = CARTESIAN_POINT ( 'NONE',  ( -6.123233995736772199E-17, 3.000000000000000444, 0.000000000000000000 ) ) ;
#66 = ORIENTED_EDGE ( 'NONE', *, *, #36, .T. ) ;
#67 =( CONVERSION_BASED_UNIT ( 'INCH', #69 ) LENGTH_UNIT ( ) NAMED_UNIT ( #143 ) );
#68 = PRODUCT_DEFINITION ( 'UNKNOWN', '', #305, #284 ) ;
#69 = LENGTH_MEASURE_WITH_UNIT ( LENGTH_MEASURE( 0.02539999999999999897 ), #215 );
#70 = PRESENTATION_STYLE_ASSIGNMENT (( #48 ) ) ;
#71 = CARTESIAN_POINT ( 'NONE',  ( 3.061616997868383018E-17, 0.000000000000000000, 0.2500000000000000000 ) ) ;
#72 = SURFACE_SIDE_STYLE ('',( #198 ) ) ;
#73 = PRESENTATION_STYLE_ASSIGNMENT (( #102 ) ) ;
#74 = CIRCLE ( 'NONE', #258, 0.2500000000000000000 ) ;
#75 = AXIS2_PLACEMENT_3D ( 'NONE', #248, #13, #196 ) ;
#76 = CARTESIAN_POINT ( 'NONE',  ( 0.000000000000000000, 0.000000000000000000, 0.000000000000000000 ) ) ;
#77 = EDGE_LOOP ( 'NONE', ( #249, #252, #174, #12 ) ) ;
#78 =( LENGTH_UNIT ( ) NAMED_UNIT ( * ) SI_UNIT ( $, .METRE. ) );
#79 = CIRCLE ( 'NONE', #299, 0.2499999999999999722 ) ;
#80 = PRESENTATION_LAYER_ASSIGNMENT (  '', '', ( #8 ) ) ;
#81 = DIRECTION ( 'NONE',  ( 1.000000000000000000, 0.000000000000000000, 0.000000000000000000 ) ) ;
#82 = FACE_OUTER_BOUND ( 'NONE', #280, .T. ) ;
#83 = EDGE_CURVE ( 'NONE', #122, #104, #159, .T. ) ;
#84 = CARTESIAN_POINT ( 'NONE',  ( -6.123233995736772199E-17, 3.000000000000000444, 0.000000000000000000 ) ) ;
#85 = ORIENTED_EDGE ( 'NONE', *, *, #222, .T. ) ;
#86 = DIRECTION ( 'NONE',  ( -1.000000000000000000, 0.000000000000000000, 0.000000000000000000 ) ) ;
#87 = AXIS2_PLACEMENT_3D ( 'NONE', #229, #285, #289 ) ;
#88 = CARTESIAN_POINT ( 'NONE',  ( 0.000000000000000000, 1.250000000000000000, 0.000000000000000000 ) ) ;
#89 = PRESENTATION_STYLE_ASSIGNMENT (( #264 ) ) ;
#90 = EDGE_CURVE ( 'NONE', #148, #246, #38, .T. ) ;
#91 = CARTESIAN_POINT ( 'NONE',  ( -0.2499999999999999722, 1.250000000000000000, 0.000000000000000000 ) ) ;
#92 = AXIS2_PLACEMENT_3D ( 'NONE', #224, #33, #298 ) ;
#93 = ADVANCED_BREP_SHAPE_REPRESENTATION ( '48395', ( #118, #116, #238 ), #64 ) ;
#94 = SURFACE_STYLE_USAGE ( .BOTH. , #29 ) ;
#95 = FILL_AREA_STYLE ('',( #220 ) ) ;
#96 = ADVANCED_FACE ( 'NONE', ( #82 ), #182, .T. ) ;
#97 = DIRECTION ( 'NONE',  ( 0.000000000000000000, 0.000000000000000000, -1.000000000000000000 ) ) ;
#98 = CARTESIAN_POINT ( 'NONE',  ( 0.000000000000000000, 0.000000000000000000, 0.000000000000000000 ) ) ;
#99 = VERTEX_POINT ( 'NONE', #20 ) ;
#100 = COLOUR_RGB ( '',1.000000000000000000, 0.000000000000000000, 0.000000000000000000 ) ;
#101 = VECTOR ( 'NONE', #47, 39.37007874015748143 ) ;
#102 = SURFACE_STYLE_USAGE ( .BOTH. , #146 ) ;
#103 =( NAMED_UNIT ( * ) SI_UNIT ( $, .STERADIAN. ) SOLID_ANGLE_UNIT ( ) );
#104 = VERTEX_POINT ( 'NONE', #132 ) ;
#105 =( NAMED_UNIT ( * ) SI_UNIT ( $, .STERADIAN. ) SOLID_ANGLE_UNIT ( ) );
#106 = ORIENTED_EDGE ( 'NONE', *, *, #244, .F. ) ;
#107 =( GEOMETRIC_REPRESENTATION_CONTEXT ( 3 ) GLOBAL_UNCERTAINTY_ASSIGNED_CONTEXT ( ( #256 ) ) GLOBAL_UNIT_ASSIGNED_CONTEXT ( ( #160, #139, #27 ) ) REPRESENTATION_CONTEXT ( 'NONE', 'WORKASPACE' ) );
#108 = FILL_AREA_STYLE ('',( #207 ) ) ;
#109 = EDGE_LOOP ( 'NONE', ( #282, #306, #272, #106 ) ) ;
#110 = DIRECTION ( 'NONE',  ( 0.000000000000000000, 1.000000000000000000, 0.000000000000000000 ) ) ;
#111 =( LENGTH_UNIT ( ) NAMED_UNIT ( * ) SI_UNIT ( $, .METRE. ) );
#112 = DIMENSIONAL_EXPONENTS ( 1.000000000000000000, 0.000000000000000000, 0.000000000000000000, 0.000000000000000000, 0.000000000000000000, 0.000000000000000000, 0.000000000000000000 ) ;
#113 = PLANE ( 'NONE',  #288 ) ;
#114 = VECTOR ( 'NONE', #41, 39.37007874015748143 ) ;
#115 = COLOUR_RGB ( '',0.7921568627450980005, 0.8196078431372548767, 0.9333333333333333481 ) ;
#116 = MANIFOLD_SOLID_BREP ( 'Revolve - Tool Body (Straight Shanked)', #273 ) ;
#117 =( NAMED_UNIT ( * ) PLANE_ANGLE_UNIT ( ) SI_UNIT ( $, .RADIAN. ) );
#118 = MANIFOLD_SOLID_BREP ( 'Revolve - Cutting Edge', #7 ) ;
#119 = FILL_AREA_STYLE ('',( #294 ) ) ;
#120 = FACE_OUTER_BOUND ( 'NONE', #77, .T. ) ;
#121 = VECTOR ( 'NONE', #242, 39.37007874015748143 ) ;
#122 = VERTEX_POINT ( 'NONE', #269 ) ;
#123 =( GEOMETRIC_REPRESENTATION_CONTEXT ( 3 ) GLOBAL_UNCERTAINTY_ASSIGNED_CONTEXT ( ( #18 ) ) GLOBAL_UNIT_ASSIGNED_CONTEXT ( ( #145, #169, #103 ) ) REPRESENTATION_CONTEXT ( 'NONE', 'WORKASPACE' ) );
#124 = EDGE_LOOP ( 'NONE', ( #58, #254 ) ) ;
#125 = FACE_OUTER_BOUND ( 'NONE', #124, .T. ) ;
#126 = FACE_OUTER_BOUND ( 'NONE', #185, .T. ) ;
#127 = VERTEX_POINT ( 'NONE', #91 ) ;
#128 = AXIS2_PLACEMENT_3D ( 'NONE', #250, #30, #195 ) ;
#129 = ORIENTED_EDGE ( 'NONE', *, *, #83, .T. ) ;
#130 = UNCERTAINTY_MEASURE_WITH_UNIT (LENGTH_MEASURE( 1.000000000000000082E-05 ), #235, 'distance_accuracy_value', 'NONE');
#131 = DIRECTION ( 'NONE',  ( -1.000000000000000000, 0.000000000000000000, 0.000000000000000000 ) ) ;
#132 = CARTESIAN_POINT ( 'NONE',  ( 0.2500000000000000555, 3.000000000000000444, 3.061616997868384251E-17 ) ) ;
#133 = CARTESIAN_POINT ( 'NONE',  ( 0.000000000000000000, 0.000000000000000000, -0.2500000000000000000 ) ) ;
#134 = DIRECTION ( 'NONE',  ( 0.000000000000000000, 0.000000000000000000, -1.000000000000000000 ) ) ;
#135 =( NAMED_UNIT ( * ) PLANE_ANGLE_UNIT ( ) SI_UNIT ( $, .RADIAN. ) );
#136 = EDGE_CURVE ( 'NONE', #303, #227, #142, .T. ) ;
#137 = FILL_AREA_STYLE_COLOUR ( '', #115 ) ;
#138 = COLOUR_RGB ( '',1.000000000000000000, 0.000000000000000000, 0.000000000000000000 ) ;
#139 =( NAMED_UNIT ( * ) PLANE_ANGLE_UNIT ( ) SI_UNIT ( $, .RADIAN. ) );
#140 = PRODUCT_DEFINITION_SHAPE ( 'NONE', 'NONE',  #68 ) ;
#141 = CIRCLE ( 'NONE', #183, 0.2500000000000001110 ) ;
#142 = LINE ( 'NONE', #71, #101 ) ;
#143 = DIMENSIONAL_EXPONENTS ( 1.000000000000000000, 0.000000000000000000, 0.000000000000000000, 0.000000000000000000, 0.000000000000000000, 0.000000000000000000, 0.000000000000000000 ) ;
#144 = DIMENSIONAL_EXPONENTS ( 1.000000000000000000, 0.000000000000000000, 0.000000000000000000, 0.000000000000000000, 0.000000000000000000, 0.000000000000000000, 0.000000000000000000 ) ;
#145 =( CONVERSION_BASED_UNIT ( 'INCH', #56 ) LENGTH_UNIT ( ) NAMED_UNIT ( #168 ) );
#146 = SURFACE_SIDE_STYLE ('',( #194 ) ) ;
#147 = PRESENTATION_LAYER_ASSIGNMENT (  '', '', ( #292 ) ) ;
#148 = VERTEX_POINT ( 'NONE', #217 ) ;
#149 = SURFACE_STYLE_USAGE ( .BOTH. , #72 ) ;
#150 = ORIENTED_EDGE ( 'NONE', *, *, #277, .F. ) ;
#151 = AXIS2_PLACEMENT_3D ( 'NONE', #302, #304, #184 ) ;
#152 = SURFACE_STYLE_FILL_AREA ( #108 ) ;
#153 = SURFACE_STYLE_FILL_AREA ( #204 ) ;
#154 = CARTESIAN_POINT ( 'NONE',  ( 0.000000000000000000, 0.000000000000000000, 0.000000000000000000 ) ) ;
#155 = MECHANICAL_DESIGN_GEOMETRIC_PRESENTATION_REPRESENTATION (  '', ( #237 ), #28 ) ;
#156 =( NAMED_UNIT ( * ) SI_UNIT ( $, .STERADIAN. ) SOLID_ANGLE_UNIT ( ) );
#157 = CARTESIAN_POINT ( 'NONE',  ( 0.000000000000000000, 1.250000000000000000, 0.000000000000000000 ) ) ;
#158 = CARTESIAN_POINT ( 'NONE',  ( 3.061616997868382402E-17, 1.250000000000000000, 0.2499999999999999722 ) ) ;
#159 = LINE ( 'NONE', #255, #267 ) ;
#160 =( CONVERSION_BASED_UNIT ( 'INCH', #193 ) LENGTH_UNIT ( ) NAMED_UNIT ( #51 ) );
#161 = COLOUR_RGB ( '',1.000000000000000000, 0.000000000000000000, 0.000000000000000000 ) ;
#162 = SURFACE_STYLE_FILL_AREA ( #295 ) ;
#163 = PRODUCT_RELATED_PRODUCT_CATEGORY ( 'part', '', ( #188 ) ) ;
#164 =( NAMED_UNIT ( * ) SI_UNIT ( $, .STERADIAN. ) SOLID_ANGLE_UNIT ( ) );
#165 = MECHANICAL_DESIGN_GEOMETRIC_PRESENTATION_REPRESENTATION (  '', ( #286 ), #296 ) ;
#166 = CIRCLE ( 'NONE', #192, 0.2500000000000001110 ) ;
#167 = LENGTH_MEASURE_WITH_UNIT ( LENGTH_MEASURE( 0.02539999999999999897 ), #10 );
#168 = DIMENSIONAL_EXPONENTS ( 1.000000000000000000, 0.000000000000000000, 0.000000000000000000, 0.000000000000000000, 0.000000000000000000, 0.000000000000000000, 0.000000000000000000 ) ;
#169 =( NAMED_UNIT ( * ) PLANE_ANGLE_UNIT ( ) SI_UNIT ( $, .RADIAN. ) );
#170 = DIRECTION ( 'NONE',  ( 0.000000000000000000, -1.000000000000000000, -0.000000000000000000 ) ) ;
#171 = ORIENTED_EDGE ( 'NONE', *, *, #136, .F. ) ;
#172 = PRESENTATION_STYLE_ASSIGNMENT (( #149 ) ) ;
#173 = LENGTH_MEASURE_WITH_UNIT ( LENGTH_MEASURE( 0.02539999999999999897 ), #14 );
#174 = ORIENTED_EDGE ( 'NONE', *, *, #222, .F. ) ;
#175 = LENGTH_MEASURE_WITH_UNIT ( LENGTH_MEASURE( 0.02539999999999999897 ), #78 );
#176 = ORIENTED_EDGE ( 'NONE', *, *, #46, .F. ) ;
#177 = ADVANCED_FACE ( 'NONE', ( #9 ), #113, .T. ) ;
#178 = STYLED_ITEM ( 'NONE', ( #70 ), #118 ) ;
#179 = DIRECTION ( 'NONE',  ( -3.498990854706726443E-17, 1.000000000000000000, -0.000000000000000000 ) ) ;
#180 =( NAMED_UNIT ( * ) SI_UNIT ( $, .STERADIAN. ) SOLID_ANGLE_UNIT ( ) );
#181 =( NAMED_UNIT ( * ) PLANE_ANGLE_UNIT ( ) SI_UNIT ( $, .RADIAN. ) );
#182 = PLANE ( 'NONE',  #24 ) ;
#183 = AXIS2_PLACEMENT_3D ( 'NONE', #308, #281, #131 ) ;
#184 = DIRECTION ( 'NONE',  ( 0.000000000000000000, 0.000000000000000000, -1.000000000000000000 ) ) ;
#185 = EDGE_LOOP ( 'NONE', ( #31, #2 ) ) ;
#186 = ADVANCED_FACE ( 'NONE', ( #17 ), #270, .T. ) ;
#187 = COLOUR_RGB ( '',0.7921568627450980005, 0.8196078431372548767, 0.9333333333333333481 ) ;
#188 = PRODUCT ( '48395', '48395', '', ( #1 ) ) ;
#189 = SURFACE_STYLE_FILL_AREA ( #119 ) ;
#190 = ADVANCED_FACE ( 'NONE', ( #125 ), #297, .F. ) ;
#191 = PRESENTATION_STYLE_ASSIGNMENT (( #94 ) ) ;
#192 = AXIS2_PLACEMENT_3D ( 'NONE', #84, #179, #86 ) ;
#193 = LENGTH_MEASURE_WITH_UNIT ( LENGTH_MEASURE( 0.02539999999999999897 ), #111 );
#194 = SURFACE_STYLE_FILL_AREA ( #95 ) ;
#195 = DIRECTION ( 'NONE',  ( 0.000000000000000000, 0.000000000000000000, -1.000000000000000000 ) ) ;
#196 = DIRECTION ( 'NONE',  ( 1.000000000000000000, 3.498990854706726443E-17, 0.000000000000000000 ) ) ;
#197 =( GEOMETRIC_REPRESENTATION_CONTEXT ( 3 ) GLOBAL_UNCERTAINTY_ASSIGNED_CONTEXT ( ( #236 ) ) GLOBAL_UNIT_ASSIGNED_CONTEXT ( ( #67, #117, #164 ) ) REPRESENTATION_CONTEXT ( 'NONE', 'WORKASPACE' ) );
#198 = SURFACE_STYLE_FILL_AREA ( #245 ) ;
#199 = EDGE_LOOP ( 'NONE', ( #85, #34 ) ) ;
#200 = FACE_OUTER_BOUND ( 'NONE', #109, .T. ) ;
#201 = ORIENTED_EDGE ( 'NONE', *, *, #257, .T. ) ;
#202 = UNCERTAINTY_MEASURE_WITH_UNIT (LENGTH_MEASURE( 1.000000000000000082E-05 ), #61, 'distance_accuracy_value', 'NONE');
#203 = APPLICATION_PROTOCOL_DEFINITION ( 'draft international standard', 'automotive_design', 1998, #265 ) ;
#204 = FILL_AREA_STYLE ('',( #137 ) ) ;
#205 = DIRECTION ( 'NONE',  ( 0.000000000000000000, 0.000000000000000000, 1.000000000000000000 ) ) ;
#206 = UNCERTAINTY_MEASURE_WITH_UNIT (LENGTH_MEASURE( 1.000000000000000082E-05 ), #57, 'distance_accuracy_value', 'NONE');
#207 = FILL_AREA_STYLE_COLOUR ( '', #100 ) ;
#208 = DIRECTION ( 'NONE',  ( -1.000000000000000000, 0.000000000000000000, 0.000000000000000000 ) ) ;
#209 =( NAMED_UNIT ( * ) PLANE_ANGLE_UNIT ( ) SI_UNIT ( $, .RADIAN. ) );
#210 = CIRCLE ( 'NONE', #251, 0.2499999999999999722 ) ;
#211 = SURFACE_STYLE_USAGE ( .BOTH. , #232 ) ;
#212 =( NAMED_UNIT ( * ) SI_UNIT ( $, .STERADIAN. ) SOLID_ANGLE_UNIT ( ) );
#213 = FILL_AREA_STYLE_COLOUR ( '', #187 ) ;
#214 = AXIS2_PLACEMENT_3D ( 'NONE', #157, #291, #21 ) ;
#215 =( LENGTH_UNIT ( ) NAMED_UNIT ( * ) SI_UNIT ( $, .METRE. ) );
#216 = SHAPE_DEFINITION_REPRESENTATION ( #140, #93 ) ;
#217 = CARTESIAN_POINT ( 'NONE',  ( 0.000000000000000000, 1.250000000000000000, -0.2499999999999999722 ) ) ;
#218 = EDGE_CURVE ( 'NONE', #127, #99, #271, .T. ) ;
#219 = MECHANICAL_DESIGN_GEOMETRIC_PRESENTATION_REPRESENTATION (  '', ( #8 ), #107 ) ;
#220 = FILL_AREA_STYLE_COLOUR ( '', #279 ) ;
#221 = EDGE_LOOP ( 'NONE', ( #171, #201, #274, #176 ) ) ;
#222 = EDGE_CURVE ( 'NONE', #246, #227, #4, .T. ) ;
#223 = DIRECTION ( 'NONE',  ( 0.000000000000000000, 0.000000000000000000, -1.000000000000000000 ) ) ;
#224 = CARTESIAN_POINT ( 'NONE',  ( 1.530367125165163381E-34, 1.250000000000000000, 0.000000000000000000 ) ) ;
#225 = ADVANCED_FACE ( 'NONE', ( #126 ), #11, .F. ) ;
#226 = APPLICATION_CONTEXT ( 'automotive_design' ) ;
#227 = VERTEX_POINT ( 'NONE', #35 ) ;
#228 =( CONVERSION_BASED_UNIT ( 'INCH', #22 ) LENGTH_UNIT ( ) NAMED_UNIT ( #144 ) );
#229 = CARTESIAN_POINT ( 'NONE',  ( 0.000000000000000000, 1.250000000000000000, 0.000000000000000000 ) ) ;
#230 =( LENGTH_UNIT ( ) NAMED_UNIT ( * ) SI_UNIT ( $, .METRE. ) );
#231 = DIRECTION ( 'NONE',  ( -1.000000000000000000, 0.000000000000000000, 0.000000000000000000 ) ) ;
#232 = SURFACE_SIDE_STYLE ('',( #153 ) ) ;
#233 = AXIS2_PLACEMENT_3D ( 'NONE', #43, #59, #231 ) ;
#234 = ADVANCED_FACE ( 'NONE', ( #120 ), #52, .T. ) ;
#235 =( CONVERSION_BASED_UNIT ( 'INCH', #167 ) LENGTH_UNIT ( ) NAMED_UNIT ( #45 ) );
#236 = UNCERTAINTY_MEASURE_WITH_UNIT (LENGTH_MEASURE( 1.000000000000000082E-05 ), #67, 'distance_accuracy_value', 'NONE');
#237 = STYLED_ITEM ( 'NONE', ( #6 ), #116 ) ;
#238 = AXIS2_PLACEMENT_3D ( 'NONE', #253, #205, #81 ) ;
#239 =( NAMED_UNIT ( * ) PLANE_ANGLE_UNIT ( ) SI_UNIT ( $, .RADIAN. ) );
#240 = EDGE_CURVE ( 'NONE', #99, #104, #166, .T. ) ;
#241 = SURFACE_SIDE_STYLE ('',( #162 ) ) ;
#242 = DIRECTION ( 'NONE',  ( -3.498990854706726443E-17, 1.000000000000000000, -0.000000000000000000 ) ) ;
#243 = MECHANICAL_DESIGN_GEOMETRIC_PRESENTATION_REPRESENTATION (  '', ( #178 ), #197 ) ;
#244 = EDGE_CURVE ( 'NONE', #104, #99, #141, .T. ) ;
#245 = FILL_AREA_STYLE ('',( #275 ) ) ;
#246 = VERTEX_POINT ( 'NONE', #133 ) ;
#247 = CARTESIAN_POINT ( 'NONE',  ( -0.2500000000000001110, 3.000000000000000444, 0.000000000000000000 ) ) ;
#248 = CARTESIAN_POINT ( 'NONE',  ( 0.2500000000000000555, 3.000000000000000444, 0.000000000000000000 ) ) ;
#249 = ORIENTED_EDGE ( 'NONE', *, *, #277, .T. ) ;
#250 = CARTESIAN_POINT ( 'NONE',  ( 0.000000000000000000, 0.000000000000000000, 0.000000000000000000 ) ) ;
#251 = AXIS2_PLACEMENT_3D ( 'NONE', #283, #19, #261 ) ;
#252 = ORIENTED_EDGE ( 'NONE', *, *, #136, .T. ) ;
#253 = CARTESIAN_POINT ( 'NONE',  ( 0.000000000000000000, 0.000000000000000000, 0.000000000000000000 ) ) ;
#254 = ORIENTED_EDGE ( 'NONE', *, *, #244, .T. ) ;
#255 = CARTESIAN_POINT ( 'NONE',  ( 0.2499999999999999722, 3.000000000000000444, 3.061616997868383634E-17 ) ) ;
#256 = UNCERTAINTY_MEASURE_WITH_UNIT (LENGTH_MEASURE( 1.000000000000000082E-05 ), #160, 'distance_accuracy_value', 'NONE');
#257 = EDGE_CURVE ( 'NONE', #303, #148, #49, .T. ) ;
#258 = AXIS2_PLACEMENT_3D ( 'NONE', #154, #259, #134 ) ;
#259 = DIRECTION ( 'NONE',  ( -0.000000000000000000, -1.000000000000000000, -0.000000000000000000 ) ) ;
#260 =( GEOMETRIC_REPRESENTATION_CONTEXT ( 3 ) GLOBAL_UNCERTAINTY_ASSIGNED_CONTEXT ( ( #206 ) ) GLOBAL_UNIT_ASSIGNED_CONTEXT ( ( #57, #181, #156 ) ) REPRESENTATION_CONTEXT ( 'NONE', 'WORKASPACE' ) );
#261 = DIRECTION ( 'NONE',  ( 0.000000000000000000, 0.000000000000000000, -1.000000000000000000 ) ) ;
#262 = DIRECTION ( 'NONE',  ( -3.498990854706726443E-17, 1.000000000000000000, -0.000000000000000000 ) ) ;
#263 = CYLINDRICAL_SURFACE ( 'NONE', #233, 0.2500000000000000555 ) ;
#264 = SURFACE_STYLE_USAGE ( .BOTH. , #287 ) ;
#265 = APPLICATION_CONTEXT ( 'automotive_design' ) ;
#266 = PRESENTATION_LAYER_ASSIGNMENT (  '', '', ( #268 ) ) ;
#267 = VECTOR ( 'NONE', #42, 39.37007874015748143 ) ;
#268 = STYLED_ITEM ( 'NONE', ( #172 ), #186 ) ;
#269 = CARTESIAN_POINT ( 'NONE',  ( 0.2499999999999999722, 1.250000000000000000, 3.061616997868383634E-17 ) ) ;
#270 = CYLINDRICAL_SURFACE ( 'NONE', #40, 0.2500000000000000000 ) ;
#271 = LINE ( 'NONE', #247, #121 ) ;
#272 = ORIENTED_EDGE ( 'NONE', *, *, #218, .T. ) ;
#273 = CLOSED_SHELL ( 'NONE', ( #301, #225, #307, #190 ) ) ;
#274 = ORIENTED_EDGE ( 'NONE', *, *, #90, .T. ) ;
#275 = FILL_AREA_STYLE_COLOUR ( '', #138 ) ;
#276 = ORIENTED_EDGE ( 'NONE', *, *, #240, .F. ) ;
#277 = EDGE_CURVE ( 'NONE', #148, #303, #210, .T. ) ;
#278 = FACE_OUTER_BOUND ( 'NONE', #15, .T. ) ;
#279 = COLOUR_RGB ( '',1.000000000000000000, 0.000000000000000000, 0.000000000000000000 ) ;
#280 = EDGE_LOOP ( 'NONE', ( #150, #60 ) ) ;
#281 = DIRECTION ( 'NONE',  ( -3.498990854706726443E-17, 1.000000000000000000, -0.000000000000000000 ) ) ;
#282 = ORIENTED_EDGE ( 'NONE', *, *, #83, .F. ) ;
#283 = CARTESIAN_POINT ( 'NONE',  ( 0.000000000000000000, 1.250000000000000000, 0.000000000000000000 ) ) ;
#284 = PRODUCT_DEFINITION_CONTEXT ( 'detailed design', #226, 'design' ) ;
#285 = DIRECTION ( 'NONE',  ( -0.000000000000000000, -1.000000000000000000, -0.000000000000000000 ) ) ;
#286 = STYLED_ITEM ( 'NONE', ( #89 ), #96 ) ;
#287 = SURFACE_SIDE_STYLE ('',( #152 ) ) ;
#288 = AXIS2_PLACEMENT_3D ( 'NONE', #98, #170, #97 ) ;
#289 = DIRECTION ( 'NONE',  ( 0.000000000000000000, 0.000000000000000000, -1.000000000000000000 ) ) ;
#290 = UNCERTAINTY_MEASURE_WITH_UNIT (LENGTH_MEASURE( 1.000000000000000082E-05 ), #228, 'distance_accuracy_value', 'NONE');
#291 = DIRECTION ( 'NONE',  ( -3.498990854706726443E-17, 1.000000000000000000, -0.000000000000000000 ) ) ;
#292 = STYLED_ITEM ( 'NONE', ( #73 ), #234 ) ;
#293 = DIMENSIONAL_EXPONENTS ( 1.000000000000000000, 0.000000000000000000, 0.000000000000000000, 0.000000000000000000, 0.000000000000000000, 0.000000000000000000, 0.000000000000000000 ) ;
#294 = FILL_AREA_STYLE_COLOUR ( '', #161 ) ;
#295 = FILL_AREA_STYLE ('',( #213 ) ) ;
#296 =( GEOMETRIC_REPRESENTATION_CONTEXT ( 3 ) GLOBAL_UNCERTAINTY_ASSIGNED_CONTEXT ( ( #290 ) ) GLOBAL_UNIT_ASSIGNED_CONTEXT ( ( #228, #209, #180 ) ) REPRESENTATION_CONTEXT ( 'NONE', 'WORKASPACE' ) );
#297 = PLANE ( 'NONE',  #75 ) ;
#298 = DIRECTION ( 'NONE',  ( -1.000000000000000000, -3.498990854706726443E-17, 0.000000000000000000 ) ) ;
#299 = AXIS2_PLACEMENT_3D ( 'NONE', #88, #262, #309 ) ;
#300 = MECHANICAL_DESIGN_GEOMETRIC_PRESENTATION_REPRESENTATION (  '', ( #268 ), #123 ) ;
#301 = ADVANCED_FACE ( 'NONE', ( #278 ), #62, .T. ) ;
#302 = CARTESIAN_POINT ( 'NONE',  ( 0.000000000000000000, 0.000000000000000000, 0.000000000000000000 ) ) ;
#303 = VERTEX_POINT ( 'NONE', #158 ) ;
#304 = DIRECTION ( 'NONE',  ( -0.000000000000000000, -1.000000000000000000, -0.000000000000000000 ) ) ;
#305 = PRODUCT_DEFINITION_FORMATION_WITH_SPECIFIED_SOURCE ( 'ANY', '', #188, .NOT_KNOWN. ) ;
#306 = ORIENTED_EDGE ( 'NONE', *, *, #3, .T. ) ;
#307 = ADVANCED_FACE ( 'NONE', ( #200 ), #263, .T. ) ;
#308 = CARTESIAN_POINT ( 'NONE',  ( -6.123233995736772199E-17, 3.000000000000000444, 0.000000000000000000 ) ) ;
#309 = DIRECTION ( 'NONE',  ( -1.000000000000000000, 0.000000000000000000, 0.000000000000000000 ) ) ;
ENDSEC;
END-ISO-10303-21;
