ISO-10303-21;
HEADER;
FILE_DESCRIPTION (( 'STEP AP214' ),
    '1' );
FILE_NAME ('44482.STEP',
    '2023-06-22T20:45:05',
    ( '' ),
    ( '' ),
    'SwSTEP 2.0',
    'SolidWorks 2023',
    '' );
FILE_SCHEMA (( 'AUTOMOTIVE_DESIGN' ));
ENDSEC;

DATA;
#1 = LENGTH_MEASURE_WITH_UNIT ( LENGTH_MEASURE( 0.02539999999999999897 ), #106 );
#2 = FILL_AREA_STYLE_COLOUR ( '', #171 ) ;
#3 =( LENGTH_UNIT ( ) NAMED_UNIT ( * ) SI_UNIT ( $, .METRE. ) );
#4 = DIRECTION ( 'NONE',  ( -1.000000000000000000, -4.259641040512529009E-17, 0.000000000000000000 ) ) ;
#5 = ADVANCED_FACE ( 'NONE', ( #86 ), #162, .T. ) ;
#6 =( LENGTH_UNIT ( ) NAMED_UNIT ( * ) SI_UNIT ( $, .METRE. ) );
#7 = COLOUR_RGB ( '',0.7921568627450980005, 0.8196078431372548767, 0.9333333333333333481 ) ;
#8 = MECHANICAL_DESIGN_GEOMETRIC_PRESENTATION_REPRESENTATION (  '', ( #230 ), #309 ) ;
#9 = EDGE_CURVE ( 'NONE', #137, #63, #297, .T. ) ;
#10 = ORIENTED_EDGE ( 'NONE', *, *, #259, .F. ) ;
#11 = ORIENTED_EDGE ( 'NONE', *, *, #305, .T. ) ;
#12 = PRESENTATION_STYLE_ASSIGNMENT (( #118 ) ) ;
#13 = COLOUR_RGB ( '',1.000000000000000000, 0.000000000000000000, 0.000000000000000000 ) ;
#14 = MANIFOLD_SOLID_BREP ( 'Revolve - Tool Body (Straight Shanked)', #195 ) ;
#15 = EDGE_LOOP ( 'NONE', ( #114, #138 ) ) ;
#16 = ORIENTED_EDGE ( 'NONE', *, *, #157, .F. ) ;
#17 = FILL_AREA_STYLE ('',( #96 ) ) ;
#18 = DIRECTION ( 'NONE',  ( -1.000000000000000000, 0.000000000000000000, 0.000000000000000000 ) ) ;
#19 = EDGE_CURVE ( 'NONE', #35, #188, #109, .T. ) ;
#20 = DIRECTION ( 'NONE',  ( 0.000000000000000000, -1.000000000000000000, -0.000000000000000000 ) ) ;
#21 = CYLINDRICAL_SURFACE ( 'NONE', #119, 0.6250000000000000000 ) ;
#22 = PRODUCT_RELATED_PRODUCT_CATEGORY ( 'part', '', ( #199 ) ) ;
#23 = DIRECTION ( 'NONE',  ( -0.000000000000000000, -1.000000000000000000, -0.000000000000000000 ) ) ;
#24 = SURFACE_SIDE_STYLE ('',( #73 ) ) ;
#25 = DIRECTION ( 'NONE',  ( 4.259641040512529009E-17, -1.000000000000000000, 0.000000000000000000 ) ) ;
#26 =( NAMED_UNIT ( * ) PLANE_ANGLE_UNIT ( ) SI_UNIT ( $, .RADIAN. ) );
#27 =( GEOMETRIC_REPRESENTATION_CONTEXT ( 3 ) GLOBAL_UNCERTAINTY_ASSIGNED_CONTEXT ( ( #179 ) ) GLOBAL_UNIT_ASSIGNED_CONTEXT ( ( #129, #250, #291 ) ) REPRESENTATION_CONTEXT ( 'NONE', 'WORKASPACE' ) );
#28 = COLOUR_RGB ( '',1.000000000000000000, 0.000000000000000000, 0.000000000000000000 ) ;
#29 = PLANE ( 'NONE',  #172 ) ;
#30 = SURFACE_STYLE_FILL_AREA ( #52 ) ;
#31 = DIRECTION ( 'NONE',  ( -4.259641040512529009E-17, 1.000000000000000000, -0.000000000000000000 ) ) ;
#32 = STYLED_ITEM ( 'NONE', ( #246 ), #290 ) ;
#33 = CIRCLE ( 'NONE', #84, 0.6250000000000000000 ) ;
#34 =( NAMED_UNIT ( * ) PLANE_ANGLE_UNIT ( ) SI_UNIT ( $, .RADIAN. ) );
#35 = VERTEX_POINT ( 'NONE', #270 ) ;
#36 = CIRCLE ( 'NONE', #78, 0.6250000000000001110 ) ;
#37 = EDGE_CURVE ( 'NONE', #213, #207, #214, .T. ) ;
#38 = EDGE_LOOP ( 'NONE', ( #144, #112 ) ) ;
#39 = LINE ( 'NONE', #43, #158 ) ;
#40 = FILL_AREA_STYLE_COLOUR ( '', #7 ) ;
#41 = DIRECTION ( 'NONE',  ( -4.259641040512529009E-17, 1.000000000000000000, -0.000000000000000000 ) ) ;
#42 =( NAMED_UNIT ( * ) SI_UNIT ( $, .STERADIAN. ) SOLID_ANGLE_UNIT ( ) );
#43 = CARTESIAN_POINT ( 'NONE',  ( -0.6250000000000001110, 5.500000000000000000, 0.000000000000000000 ) ) ;
#44 = DIRECTION ( 'NONE',  ( -4.259641040512529009E-17, 1.000000000000000000, -0.000000000000000000 ) ) ;
#45 =( NAMED_UNIT ( * ) PLANE_ANGLE_UNIT ( ) SI_UNIT ( $, .RADIAN. ) );
#46 = DIRECTION ( 'NONE',  ( -0.000000000000000000, -1.000000000000000000, -0.000000000000000000 ) ) ;
#47 = STYLED_ITEM ( 'NONE', ( #127 ), #14 ) ;
#48 = AXIS2_PLACEMENT_3D ( 'NONE', #85, #233, #296 ) ;
#49 =( CONVERSION_BASED_UNIT ( 'INCH', #1 ) LENGTH_UNIT ( ) NAMED_UNIT ( #151 ) );
#50 =( CONVERSION_BASED_UNIT ( 'INCH', #263 ) LENGTH_UNIT ( ) NAMED_UNIT ( #218 ) );
#51 = FILL_AREA_STYLE ('',( #223 ) ) ;
#52 = FILL_AREA_STYLE ('',( #2 ) ) ;
#53 = CARTESIAN_POINT ( 'NONE',  ( 0.000000000000000000, 2.625000000000000000, 0.000000000000000000 ) ) ;
#54 = SURFACE_STYLE_USAGE ( .BOTH. , #24 ) ;
#55 = CARTESIAN_POINT ( 'NONE',  ( 0.6249999999999998890, 5.500000000000000000, 7.654042494670957853E-17 ) ) ;
#56 = PRESENTATION_LAYER_ASSIGNMENT (  '', '', ( #225 ) ) ;
#57 = EDGE_CURVE ( 'NONE', #232, #98, #72, .T. ) ;
#58 = FILL_AREA_STYLE ('',( #271 ) ) ;
#59 = LENGTH_MEASURE_WITH_UNIT ( LENGTH_MEASURE( 0.02539999999999999897 ), #231 );
#60 = CLOSED_SHELL ( 'NONE', ( #290, #272, #115, #5 ) ) ;
#61 = AXIS2_PLACEMENT_3D ( 'NONE', #275, #25, #222 ) ;
#62 = VECTOR ( 'NONE', #31, 39.37007874015748143 ) ;
#63 = VERTEX_POINT ( 'NONE', #80 ) ;
#64 = DIRECTION ( 'NONE',  ( 0.000000000000000000, 0.000000000000000000, -1.000000000000000000 ) ) ;
#65 = DIRECTION ( 'NONE',  ( 0.000000000000000000, 0.000000000000000000, -1.000000000000000000 ) ) ;
#66 = ORIENTED_EDGE ( 'NONE', *, *, #97, .F. ) ;
#67 = CARTESIAN_POINT ( 'NONE',  ( 7.654042494670957853E-17, 2.625000000000000000, 0.6250000000000000000 ) ) ;
#68 = CARTESIAN_POINT ( 'NONE',  ( -1.224646799147351975E-16, 5.500000000000000000, 0.000000000000000000 ) ) ;
#69 = ADVANCED_BREP_SHAPE_REPRESENTATION ( '44482', ( #220, #14, #130 ), #92 ) ;
#70 = PRODUCT_DEFINITION_CONTEXT ( 'detailed design', #295, 'design' ) ;
#71 = CARTESIAN_POINT ( 'NONE',  ( 7.654042494670957853E-17, 0.000000000000000000, 0.6250000000000000000 ) ) ;
#72 = CIRCLE ( 'NONE', #113, 0.6250000000000001110 ) ;
#73 = SURFACE_STYLE_FILL_AREA ( #292 ) ;
#74 = FACE_OUTER_BOUND ( 'NONE', #186, .T. ) ;
#75 = FACE_OUTER_BOUND ( 'NONE', #15, .T. ) ;
#76 = CARTESIAN_POINT ( 'NONE',  ( 0.000000000000000000, 0.000000000000000000, 0.000000000000000000 ) ) ;
#77 = UNCERTAINTY_MEASURE_WITH_UNIT (LENGTH_MEASURE( 1.000000000000000082E-05 ), #104, 'distance_accuracy_value', 'NONE');
#78 = AXIS2_PLACEMENT_3D ( 'NONE', #163, #41, #18 ) ;
#79 = LINE ( 'NONE', #55, #62 ) ;
#80 = CARTESIAN_POINT ( 'NONE',  ( 0.000000000000000000, 0.000000000000000000, -0.6250000000000000000 ) ) ;
#81 = CARTESIAN_POINT ( 'NONE',  ( 0.000000000000000000, 0.000000000000000000, 0.000000000000000000 ) ) ;
#82 = CARTESIAN_POINT ( 'NONE',  ( -1.224646799147351975E-16, 5.500000000000000000, 0.000000000000000000 ) ) ;
#83 = DIRECTION ( 'NONE',  ( 0.000000000000000000, 0.000000000000000000, -1.000000000000000000 ) ) ;
#84 = AXIS2_PLACEMENT_3D ( 'NONE', #200, #176, #170 ) ;
#85 = CARTESIAN_POINT ( 'NONE',  ( 0.000000000000000000, 2.625000000000000000, 0.000000000000000000 ) ) ;
#86 = FACE_OUTER_BOUND ( 'NONE', #38, .T. ) ;
#87 = SURFACE_SIDE_STYLE ('',( #252 ) ) ;
#88 = SURFACE_STYLE_FILL_AREA ( #58 ) ;
#89 =( NAMED_UNIT ( * ) PLANE_ANGLE_UNIT ( ) SI_UNIT ( $, .RADIAN. ) );
#90 = PRESENTATION_LAYER_ASSIGNMENT (  '', '', ( #47 ) ) ;
#91 = MECHANICAL_DESIGN_GEOMETRIC_PRESENTATION_REPRESENTATION (  '', ( #225 ), #128 ) ;
#92 =( GEOMETRIC_REPRESENTATION_CONTEXT ( 3 ) GLOBAL_UNCERTAINTY_ASSIGNED_CONTEXT ( ( #266 ) ) GLOBAL_UNIT_ASSIGNED_CONTEXT ( ( #243, #45, #42 ) ) REPRESENTATION_CONTEXT ( 'NONE', 'WORKASPACE' ) );
#93 = ORIENTED_EDGE ( 'NONE', *, *, #198, .F. ) ;
#94 = CARTESIAN_POINT ( 'NONE',  ( 0.000000000000000000, 0.000000000000000000, 0.000000000000000000 ) ) ;
#95 = ORIENTED_EDGE ( 'NONE', *, *, #57, .T. ) ;
#96 = FILL_AREA_STYLE_COLOUR ( '', #183 ) ;
#97 = EDGE_CURVE ( 'NONE', #63, #137, #267, .T. ) ;
#98 = VERTEX_POINT ( 'NONE', #229 ) ;
#99 = STYLED_ITEM ( 'NONE', ( #12 ), #220 ) ;
#100 = CARTESIAN_POINT ( 'NONE',  ( 5.670169310630830774E-34, 2.625000000000000000, 0.000000000000000000 ) ) ;
#101 =( NAMED_UNIT ( * ) SI_UNIT ( $, .STERADIAN. ) SOLID_ANGLE_UNIT ( ) );
#102 = SURFACE_STYLE_USAGE ( .BOTH. , #121 ) ;
#103 = DIMENSIONAL_EXPONENTS ( 1.000000000000000000, 0.000000000000000000, 0.000000000000000000, 0.000000000000000000, 0.000000000000000000, 0.000000000000000000, 0.000000000000000000 ) ;
#104 =( CONVERSION_BASED_UNIT ( 'INCH', #217 ) LENGTH_UNIT ( ) NAMED_UNIT ( #103 ) );
#105 =( NAMED_UNIT ( * ) SI_UNIT ( $, .STERADIAN. ) SOLID_ANGLE_UNIT ( ) );
#106 =( LENGTH_UNIT ( ) NAMED_UNIT ( * ) SI_UNIT ( $, .METRE. ) );
#107 = UNCERTAINTY_MEASURE_WITH_UNIT (LENGTH_MEASURE( 1.000000000000000082E-05 ), #50, 'distance_accuracy_value', 'NONE');
#108 = PRODUCT_DEFINITION ( 'UNKNOWN', '', #149, #70 ) ;
#109 = CIRCLE ( 'NONE', #152, 0.6250000000000000000 ) ;
#110 = DIRECTION ( 'NONE',  ( -1.000000000000000000, 0.000000000000000000, 0.000000000000000000 ) ) ;
#111 = ORIENTED_EDGE ( 'NONE', *, *, #305, .F. ) ;
#112 = ORIENTED_EDGE ( 'NONE', *, *, #9, .T. ) ;
#113 = AXIS2_PLACEMENT_3D ( 'NONE', #82, #182, #269 ) ;
#114 = ORIENTED_EDGE ( 'NONE', *, *, #278, .F. ) ;
#115 = ADVANCED_FACE ( 'NONE', ( #300 ), #249, .T. ) ;
#116 = ORIENTED_EDGE ( 'NONE', *, *, #57, .F. ) ;
#117 = CARTESIAN_POINT ( 'NONE',  ( 0.000000000000000000, 0.000000000000000000, -0.6250000000000000000 ) ) ;
#118 = SURFACE_STYLE_USAGE ( .BOTH. , #168 ) ;
#119 = AXIS2_PLACEMENT_3D ( 'NONE', #277, #44, #284 ) ;
#120 =( NAMED_UNIT ( * ) PLANE_ANGLE_UNIT ( ) SI_UNIT ( $, .RADIAN. ) );
#121 = SURFACE_SIDE_STYLE ('',( #268 ) ) ;
#122 = DIMENSIONAL_EXPONENTS ( 1.000000000000000000, 0.000000000000000000, 0.000000000000000000, 0.000000000000000000, 0.000000000000000000, 0.000000000000000000, 0.000000000000000000 ) ;
#123 = AXIS2_PLACEMENT_3D ( 'NONE', #76, #20, #83 ) ;
#124 = DIRECTION ( 'NONE',  ( 0.000000000000000000, 1.000000000000000000, 0.000000000000000000 ) ) ;
#125 = ADVANCED_FACE ( 'NONE', ( #191 ), #280, .T. ) ;
#126 = DIRECTION ( 'NONE',  ( 0.000000000000000000, 0.000000000000000000, -1.000000000000000000 ) ) ;
#127 = PRESENTATION_STYLE_ASSIGNMENT (( #54 ) ) ;
#128 =( GEOMETRIC_REPRESENTATION_CONTEXT ( 3 ) GLOBAL_UNCERTAINTY_ASSIGNED_CONTEXT ( ( #77 ) ) GLOBAL_UNIT_ASSIGNED_CONTEXT ( ( #104, #221, #150 ) ) REPRESENTATION_CONTEXT ( 'NONE', 'WORKASPACE' ) );
#129 =( CONVERSION_BASED_UNIT ( 'INCH', #224 ) LENGTH_UNIT ( ) NAMED_UNIT ( #156 ) );
#130 = AXIS2_PLACEMENT_3D ( 'NONE', #94, #261, #238 ) ;
#131 = FILL_AREA_STYLE ('',( #205 ) ) ;
#132 =( CONVERSION_BASED_UNIT ( 'INCH', #59 ) LENGTH_UNIT ( ) NAMED_UNIT ( #161 ) );
#133 = PRESENTATION_LAYER_ASSIGNMENT (  '', '', ( #180 ) ) ;
#134 = PRESENTATION_LAYER_ASSIGNMENT (  '', '', ( #99 ) ) ;
#135 = ORIENTED_EDGE ( 'NONE', *, *, #198, .T. ) ;
#136 = CARTESIAN_POINT ( 'NONE',  ( 0.000000000000000000, 0.000000000000000000, 0.000000000000000000 ) ) ;
#137 = VERTEX_POINT ( 'NONE', #307 ) ;
#138 = ORIENTED_EDGE ( 'NONE', *, *, #19, .F. ) ;
#139 = LINE ( 'NONE', #117, #302 ) ;
#140 = PRESENTATION_STYLE_ASSIGNMENT (( #256 ) ) ;
#141 = EDGE_CURVE ( 'NONE', #188, #232, #39, .T. ) ;
#142 = FACE_OUTER_BOUND ( 'NONE', #303, .T. ) ;
#143 =( GEOMETRIC_REPRESENTATION_CONTEXT ( 3 ) GLOBAL_UNCERTAINTY_ASSIGNED_CONTEXT ( ( #227 ) ) GLOBAL_UNIT_ASSIGNED_CONTEXT ( ( #49, #120, #101 ) ) REPRESENTATION_CONTEXT ( 'NONE', 'WORKASPACE' ) );
#144 = ORIENTED_EDGE ( 'NONE', *, *, #97, .T. ) ;
#145 = CARTESIAN_POINT ( 'NONE',  ( 0.000000000000000000, 2.625000000000000000, 0.000000000000000000 ) ) ;
#146 = DIRECTION ( 'NONE',  ( -4.259641040512529009E-17, 1.000000000000000000, -0.000000000000000000 ) ) ;
#147 = AXIS2_PLACEMENT_3D ( 'NONE', #81, #46, #255 ) ;
#148 = AXIS2_PLACEMENT_3D ( 'NONE', #100, #219, #4 ) ;
#149 = PRODUCT_DEFINITION_FORMATION_WITH_SPECIFIED_SOURCE ( 'ANY', '', #199, .NOT_KNOWN. ) ;
#150 =( NAMED_UNIT ( * ) SI_UNIT ( $, .STERADIAN. ) SOLID_ANGLE_UNIT ( ) );
#151 = DIMENSIONAL_EXPONENTS ( 1.000000000000000000, 0.000000000000000000, 0.000000000000000000, 0.000000000000000000, 0.000000000000000000, 0.000000000000000000, 0.000000000000000000 ) ;
#152 = AXIS2_PLACEMENT_3D ( 'NONE', #216, #206, #110 ) ;
#153 = SURFACE_SIDE_STYLE ('',( #30 ) ) ;
#154 = CYLINDRICAL_SURFACE ( 'NONE', #215, 0.6250000000000000000 ) ;
#155 = DIRECTION ( 'NONE',  ( -0.000000000000000000, -1.000000000000000000, -0.000000000000000000 ) ) ;
#156 = DIMENSIONAL_EXPONENTS ( 1.000000000000000000, 0.000000000000000000, 0.000000000000000000, 0.000000000000000000, 0.000000000000000000, 0.000000000000000000, 0.000000000000000000 ) ;
#157 = EDGE_CURVE ( 'NONE', #207, #63, #139, .T. ) ;
#158 = VECTOR ( 'NONE', #146, 39.37007874015748143 ) ;
#159 = ORIENTED_EDGE ( 'NONE', *, *, #141, .F. ) ;
#160 = SURFACE_SIDE_STYLE ('',( #88 ) ) ;
#161 = DIMENSIONAL_EXPONENTS ( 1.000000000000000000, 0.000000000000000000, 0.000000000000000000, 0.000000000000000000, 0.000000000000000000, 0.000000000000000000, 0.000000000000000000 ) ;
#162 = PLANE ( 'NONE',  #123 ) ;
#163 = CARTESIAN_POINT ( 'NONE',  ( -1.224646799147351975E-16, 5.500000000000000000, 0.000000000000000000 ) ) ;
#164 = ORIENTED_EDGE ( 'NONE', *, *, #228, .F. ) ;
#165 = DIRECTION ( 'NONE',  ( -0.000000000000000000, -1.000000000000000000, -0.000000000000000000 ) ) ;
#166 = MECHANICAL_DESIGN_GEOMETRIC_PRESENTATION_REPRESENTATION (  '', ( #32 ), #143 ) ;
#167 = SHAPE_DEFINITION_REPRESENTATION ( #248, #69 ) ;
#168 = SURFACE_SIDE_STYLE ('',( #208 ) ) ;
#169 = DIRECTION ( 'NONE',  ( -0.000000000000000000, -1.000000000000000000, -0.000000000000000000 ) ) ;
#170 = DIRECTION ( 'NONE',  ( -1.000000000000000000, 0.000000000000000000, 0.000000000000000000 ) ) ;
#171 = COLOUR_RGB ( '',1.000000000000000000, 0.000000000000000000, 0.000000000000000000 ) ;
#172 = AXIS2_PLACEMENT_3D ( 'NONE', #53, #124, #197 ) ;
#173 = SURFACE_STYLE_USAGE ( .BOTH. , #153 ) ;
#174 = ADVANCED_FACE ( 'NONE', ( #142 ), #21, .T. ) ;
#175 = MECHANICAL_DESIGN_GEOMETRIC_PRESENTATION_REPRESENTATION (  '', ( #99 ), #196 ) ;
#176 = DIRECTION ( 'NONE',  ( -4.259641040512529009E-17, 1.000000000000000000, -0.000000000000000000 ) ) ;
#177 =( LENGTH_UNIT ( ) NAMED_UNIT ( * ) SI_UNIT ( $, .METRE. ) );
#178 = DIRECTION ( 'NONE',  ( 0.000000000000000000, 0.000000000000000000, -1.000000000000000000 ) ) ;
#179 = UNCERTAINTY_MEASURE_WITH_UNIT (LENGTH_MEASURE( 1.000000000000000082E-05 ), #129, 'distance_accuracy_value', 'NONE');
#180 = STYLED_ITEM ( 'NONE', ( #140 ), #5 ) ;
#181 = AXIS2_PLACEMENT_3D ( 'NONE', #145, #165, #65 ) ;
#182 = DIRECTION ( 'NONE',  ( -4.259641040512529009E-17, 1.000000000000000000, -0.000000000000000000 ) ) ;
#183 = COLOUR_RGB ( '',0.7921568627450980005, 0.8196078431372548767, 0.9333333333333333481 ) ;
#184 = EDGE_LOOP ( 'NONE', ( #95, #301 ) ) ;
#185 = FACE_OUTER_BOUND ( 'NONE', #184, .T. ) ;
#186 = EDGE_LOOP ( 'NONE', ( #93, #276 ) ) ;
#187 = DIRECTION ( 'NONE',  ( -4.259641040512529009E-17, 1.000000000000000000, -0.000000000000000000 ) ) ;
#188 = VERTEX_POINT ( 'NONE', #262 ) ;
#189 =( NAMED_UNIT ( * ) SI_UNIT ( $, .STERADIAN. ) SOLID_ANGLE_UNIT ( ) );
#190 = ORIENTED_EDGE ( 'NONE', *, *, #9, .F. ) ;
#191 = FACE_OUTER_BOUND ( 'NONE', #210, .T. ) ;
#192 = AXIS2_PLACEMENT_3D ( 'NONE', #304, #254, #64 ) ;
#193 = LENGTH_MEASURE_WITH_UNIT ( LENGTH_MEASURE( 0.02539999999999999897 ), #237 );
#194 = LINE ( 'NONE', #71, #245 ) ;
#195 = CLOSED_SHELL ( 'NONE', ( #174, #265, #125, #244 ) ) ;
#196 =( GEOMETRIC_REPRESENTATION_CONTEXT ( 3 ) GLOBAL_UNCERTAINTY_ASSIGNED_CONTEXT ( ( #201 ) ) GLOBAL_UNIT_ASSIGNED_CONTEXT ( ( #285, #89, #211 ) ) REPRESENTATION_CONTEXT ( 'NONE', 'WORKASPACE' ) );
#197 = DIRECTION ( 'NONE',  ( 0.000000000000000000, -0.000000000000000000, 1.000000000000000000 ) ) ;
#198 = EDGE_CURVE ( 'NONE', #207, #213, #273, .T. ) ;
#199 = PRODUCT ( '44482', '44482', '', ( #281 ) ) ;
#200 = CARTESIAN_POINT ( 'NONE',  ( 0.000000000000000000, 2.625000000000000000, 0.000000000000000000 ) ) ;
#201 = UNCERTAINTY_MEASURE_WITH_UNIT (LENGTH_MEASURE( 1.000000000000000082E-05 ), #285, 'distance_accuracy_value', 'NONE');
#202 = PRESENTATION_STYLE_ASSIGNMENT (( #102 ) ) ;
#203 = CARTESIAN_POINT ( 'NONE',  ( 0.000000000000000000, 0.000000000000000000, 0.000000000000000000 ) ) ;
#204 = MECHANICAL_DESIGN_GEOMETRIC_PRESENTATION_REPRESENTATION (  '', ( #47 ), #282 ) ;
#205 = FILL_AREA_STYLE_COLOUR ( '', #28 ) ;
#206 = DIRECTION ( 'NONE',  ( -4.259641040512529009E-17, 1.000000000000000000, -0.000000000000000000 ) ) ;
#207 = VERTEX_POINT ( 'NONE', #260 ) ;
#208 = SURFACE_STYLE_FILL_AREA ( #17 ) ;
#209 = PRESENTATION_LAYER_ASSIGNMENT (  '', '', ( #32 ) ) ;
#210 = EDGE_LOOP ( 'NONE', ( #111, #274, #283, #164 ) ) ;
#211 =( NAMED_UNIT ( * ) SI_UNIT ( $, .STERADIAN. ) SOLID_ANGLE_UNIT ( ) );
#212 = CARTESIAN_POINT ( 'NONE',  ( -0.6250000000000003331, 5.500000000000000000, 0.000000000000000000 ) ) ;
#213 = VERTEX_POINT ( 'NONE', #67 ) ;
#214 = CIRCLE ( 'NONE', #48, 0.6250000000000000000 ) ;
#215 = AXIS2_PLACEMENT_3D ( 'NONE', #203, #155, #126 ) ;
#216 = CARTESIAN_POINT ( 'NONE',  ( 0.000000000000000000, 2.625000000000000000, 0.000000000000000000 ) ) ;
#217 = LENGTH_MEASURE_WITH_UNIT ( LENGTH_MEASURE( 0.02539999999999999897 ), #6 );
#218 = DIMENSIONAL_EXPONENTS ( 1.000000000000000000, 0.000000000000000000, 0.000000000000000000, 0.000000000000000000, 0.000000000000000000, 0.000000000000000000, 0.000000000000000000 ) ;
#219 = DIRECTION ( 'NONE',  ( -4.259641040512529009E-17, 1.000000000000000000, 0.000000000000000000 ) ) ;
#220 = MANIFOLD_SOLID_BREP ( 'Revolve - Cutting Edge', #60 ) ;
#221 =( NAMED_UNIT ( * ) PLANE_ANGLE_UNIT ( ) SI_UNIT ( $, .RADIAN. ) );
#222 = DIRECTION ( 'NONE',  ( 1.000000000000000000, 4.259641040512529009E-17, 0.000000000000000000 ) ) ;
#223 = FILL_AREA_STYLE_COLOUR ( '', #13 ) ;
#224 = LENGTH_MEASURE_WITH_UNIT ( LENGTH_MEASURE( 0.02539999999999999897 ), #253 );
#225 = STYLED_ITEM ( 'NONE', ( #202 ), #272 ) ;
#226 = SURFACE_STYLE_USAGE ( .BOTH. , #87 ) ;
#227 = UNCERTAINTY_MEASURE_WITH_UNIT (LENGTH_MEASURE( 1.000000000000000082E-05 ), #49, 'distance_accuracy_value', 'NONE');
#228 = EDGE_CURVE ( 'NONE', #98, #232, #36, .T. ) ;
#229 = CARTESIAN_POINT ( 'NONE',  ( 0.6250000000000000000, 5.500000000000000000, 7.654042494670957853E-17 ) ) ;
#230 = STYLED_ITEM ( 'NONE', ( #298 ), #115 ) ;
#231 =( LENGTH_UNIT ( ) NAMED_UNIT ( * ) SI_UNIT ( $, .METRE. ) );
#232 = VERTEX_POINT ( 'NONE', #212 ) ;
#233 = DIRECTION ( 'NONE',  ( -0.000000000000000000, -1.000000000000000000, -0.000000000000000000 ) ) ;
#234 = DIMENSIONAL_EXPONENTS ( 1.000000000000000000, 0.000000000000000000, 0.000000000000000000, 0.000000000000000000, 0.000000000000000000, 0.000000000000000000, 0.000000000000000000 ) ;
#235 = COLOUR_RGB ( '',1.000000000000000000, 0.000000000000000000, 0.000000000000000000 ) ;
#236 = APPLICATION_PROTOCOL_DEFINITION ( 'draft international standard', 'automotive_design', 1998, #286 ) ;
#237 =( LENGTH_UNIT ( ) NAMED_UNIT ( * ) SI_UNIT ( $, .METRE. ) );
#238 = DIRECTION ( 'NONE',  ( 1.000000000000000000, 0.000000000000000000, 0.000000000000000000 ) ) ;
#239 = PLANE ( 'NONE',  #61 ) ;
#240 = MECHANICAL_DESIGN_GEOMETRIC_PRESENTATION_REPRESENTATION (  '', ( #180 ), #27 ) ;
#241 = AXIS2_PLACEMENT_3D ( 'NONE', #68, #187, #257 ) ;
#242 = UNCERTAINTY_MEASURE_WITH_UNIT (LENGTH_MEASURE( 1.000000000000000082E-05 ), #132, 'distance_accuracy_value', 'NONE');
#243 =( CONVERSION_BASED_UNIT ( 'INCH', #294 ) LENGTH_UNIT ( ) NAMED_UNIT ( #122 ) );
#244 = ADVANCED_FACE ( 'NONE', ( #185 ), #239, .F. ) ;
#245 = VECTOR ( 'NONE', #23, 39.37007874015748143 ) ;
#246 = PRESENTATION_STYLE_ASSIGNMENT (( #173 ) ) ;
#247 = DIRECTION ( 'NONE',  ( -0.000000000000000000, -1.000000000000000000, -0.000000000000000000 ) ) ;
#248 = PRODUCT_DEFINITION_SHAPE ( 'NONE', 'NONE',  #108 ) ;
#249 = CYLINDRICAL_SURFACE ( 'NONE', #192, 0.6250000000000000000 ) ;
#250 =( NAMED_UNIT ( * ) PLANE_ANGLE_UNIT ( ) SI_UNIT ( $, .RADIAN. ) );
#251 = ORIENTED_EDGE ( 'NONE', *, *, #278, .T. ) ;
#252 = SURFACE_STYLE_FILL_AREA ( #131 ) ;
#253 =( LENGTH_UNIT ( ) NAMED_UNIT ( * ) SI_UNIT ( $, .METRE. ) );
#254 = DIRECTION ( 'NONE',  ( -0.000000000000000000, -1.000000000000000000, -0.000000000000000000 ) ) ;
#255 = DIRECTION ( 'NONE',  ( 0.000000000000000000, 0.000000000000000000, -1.000000000000000000 ) ) ;
#256 = SURFACE_STYLE_USAGE ( .BOTH. , #160 ) ;
#257 = DIRECTION ( 'NONE',  ( -1.000000000000000000, 0.000000000000000000, 0.000000000000000000 ) ) ;
#258 = ORIENTED_EDGE ( 'NONE', *, *, #157, .T. ) ;
#259 = EDGE_CURVE ( 'NONE', #213, #137, #194, .T. ) ;
#260 = CARTESIAN_POINT ( 'NONE',  ( 0.000000000000000000, 2.625000000000000000, -0.6250000000000000000 ) ) ;
#261 = DIRECTION ( 'NONE',  ( 0.000000000000000000, 0.000000000000000000, 1.000000000000000000 ) ) ;
#262 = CARTESIAN_POINT ( 'NONE',  ( -0.6250000000000000000, 2.625000000000000000, 0.000000000000000000 ) ) ;
#263 = LENGTH_MEASURE_WITH_UNIT ( LENGTH_MEASURE( 0.02539999999999999897 ), #3 );
#264 = FACE_OUTER_BOUND ( 'NONE', #306, .T. ) ;
#265 = ADVANCED_FACE ( 'NONE', ( #75 ), #287, .F. ) ;
#266 = UNCERTAINTY_MEASURE_WITH_UNIT (LENGTH_MEASURE( 1.000000000000000082E-05 ), #243, 'distance_accuracy_value', 'NONE');
#267 = CIRCLE ( 'NONE', #288, 0.6250000000000000000 ) ;
#268 = SURFACE_STYLE_FILL_AREA ( #51 ) ;
#269 = DIRECTION ( 'NONE',  ( -1.000000000000000000, 0.000000000000000000, 0.000000000000000000 ) ) ;
#270 = CARTESIAN_POINT ( 'NONE',  ( 0.6250000000000000000, 2.625000000000000000, 7.654042494670957853E-17 ) ) ;
#271 = FILL_AREA_STYLE_COLOUR ( '', #235 ) ;
#272 = ADVANCED_FACE ( 'NONE', ( #74 ), #29, .T. ) ;
#273 = CIRCLE ( 'NONE', #181, 0.6250000000000000000 ) ;
#274 = ORIENTED_EDGE ( 'NONE', *, *, #19, .T. ) ;
#275 = CARTESIAN_POINT ( 'NONE',  ( 0.6250000000000000000, 5.500000000000000000, 0.000000000000000000 ) ) ;
#276 = ORIENTED_EDGE ( 'NONE', *, *, #37, .F. ) ;
#277 = CARTESIAN_POINT ( 'NONE',  ( -1.224646799147351975E-16, 5.500000000000000000, 0.000000000000000000 ) ) ;
#278 = EDGE_CURVE ( 'NONE', #188, #35, #33, .T. ) ;
#279 = ORIENTED_EDGE ( 'NONE', *, *, #259, .T. ) ;
#280 = CYLINDRICAL_SURFACE ( 'NONE', #241, 0.6250000000000000000 ) ;
#281 = PRODUCT_CONTEXT ( 'NONE', #286, 'mechanical' ) ;
#282 =( GEOMETRIC_REPRESENTATION_CONTEXT ( 3 ) GLOBAL_UNCERTAINTY_ASSIGNED_CONTEXT ( ( #107 ) ) GLOBAL_UNIT_ASSIGNED_CONTEXT ( ( #50, #26, #105 ) ) REPRESENTATION_CONTEXT ( 'NONE', 'WORKASPACE' ) );
#283 = ORIENTED_EDGE ( 'NONE', *, *, #141, .T. ) ;
#284 = DIRECTION ( 'NONE',  ( -1.000000000000000000, 0.000000000000000000, 0.000000000000000000 ) ) ;
#285 =( CONVERSION_BASED_UNIT ( 'INCH', #193 ) LENGTH_UNIT ( ) NAMED_UNIT ( #234 ) );
#286 = APPLICATION_CONTEXT ( 'automotive_design' ) ;
#287 = PLANE ( 'NONE',  #148 ) ;
#288 = AXIS2_PLACEMENT_3D ( 'NONE', #136, #247, #178 ) ;
#289 = APPLICATION_PROTOCOL_DEFINITION ( 'draft international standard', 'automotive_design', 1998, #295 ) ;
#290 = ADVANCED_FACE ( 'NONE', ( #264 ), #154, .T. ) ;
#291 =( NAMED_UNIT ( * ) SI_UNIT ( $, .STERADIAN. ) SOLID_ANGLE_UNIT ( ) );
#292 = FILL_AREA_STYLE ('',( #40 ) ) ;
#293 = PRESENTATION_LAYER_ASSIGNMENT (  '', '', ( #230 ) ) ;
#294 = LENGTH_MEASURE_WITH_UNIT ( LENGTH_MEASURE( 0.02539999999999999897 ), #177 );
#295 = APPLICATION_CONTEXT ( 'automotive_design' ) ;
#296 = DIRECTION ( 'NONE',  ( 0.000000000000000000, 0.000000000000000000, -1.000000000000000000 ) ) ;
#297 = CIRCLE ( 'NONE', #147, 0.6250000000000000000 ) ;
#298 = PRESENTATION_STYLE_ASSIGNMENT (( #226 ) ) ;
#299 = ORIENTED_EDGE ( 'NONE', *, *, #37, .T. ) ;
#300 = FACE_OUTER_BOUND ( 'NONE', #308, .T. ) ;
#301 = ORIENTED_EDGE ( 'NONE', *, *, #228, .T. ) ;
#302 = VECTOR ( 'NONE', #169, 39.37007874015748143 ) ;
#303 = EDGE_LOOP ( 'NONE', ( #251, #11, #116, #159 ) ) ;
#304 = CARTESIAN_POINT ( 'NONE',  ( 0.000000000000000000, 0.000000000000000000, 0.000000000000000000 ) ) ;
#305 = EDGE_CURVE ( 'NONE', #35, #98, #79, .T. ) ;
#306 = EDGE_LOOP ( 'NONE', ( #135, #279, #66, #16 ) ) ;
#307 = CARTESIAN_POINT ( 'NONE',  ( 7.654042494670957853E-17, 0.000000000000000000, 0.6250000000000000000 ) ) ;
#308 = EDGE_LOOP ( 'NONE', ( #10, #299, #258, #190 ) ) ;
#309 =( GEOMETRIC_REPRESENTATION_CONTEXT ( 3 ) GLOBAL_UNCERTAINTY_ASSIGNED_CONTEXT ( ( #242 ) ) GLOBAL_UNIT_ASSIGNED_CONTEXT ( ( #132, #34, #189 ) ) REPRESENTATION_CONTEXT ( 'NONE', 'WORKASPACE' ) );
ENDSEC;
END-ISO-10303-21;
