ISO-10303-21;
HEADER;
FILE_DESCRIPTION (( 'STEP AP214' ),
    '1' );
FILE_NAME ('Micro_DM-312-4120.STEP',
    '2021-09-02T16:03:03',
    ( '' ),
    ( '' ),
    'SwSTEP 2.0',
    'SolidWorks 2020',
    '' );
FILE_SCHEMA (( 'AUTOMOTIVE_DESIGN' ));
ENDSEC;

DATA;
#1 = FACE_OUTER_BOUND ( 'NONE', #11, .T. ) ;
#2 = UNCERTAINTY_MEASURE_WITH_UNIT (LENGTH_MEASURE( 1.000000000000000082E-05 ), #302, 'distance_accuracy_value', 'NONE');
#3 =( LENGTH_UNIT ( ) NAMED_UNIT ( * ) SI_UNIT ( $, .METRE. ) );
#4 = CARTESIAN_POINT ( 'NONE',  ( 0.0000000000000000000, 0.0000000000000000000, 2.500000000000000000 ) ) ;
#5 = APPLICATION_CONTEXT ( 'automotive_design' ) ;
#6 = ORIENTED_EDGE ( 'NONE', *, *, #73, .F. ) ;
#7 = CARTESIAN_POINT ( 'NONE',  ( 0.0000000000000000000, 0.0000000000000000000, 2.500000000000000000 ) ) ;
#8 = EDGE_CURVE ( 'NONE', #214, #190, #218, .T. ) ;
#9 = VECTOR ( 'NONE', #95, 39.37007874015748143 ) ;
#10 = EDGE_LOOP ( 'NONE', ( #63, #136, #81, #204 ) ) ;
#11 = EDGE_LOOP ( 'NONE', ( #82, #262, #31, #288 ) ) ;
#12 = FACE_OUTER_BOUND ( 'NONE', #268, .T. ) ;
#13 = CARTESIAN_POINT ( 'NONE',  ( 0.0000000000000000000, 0.0000000000000000000, 2.500000000000000000 ) ) ;
#14 = VERTEX_POINT ( 'NONE', #323 ) ;
#15 = SURFACE_STYLE_FILL_AREA ( #84 ) ;
#16 = CARTESIAN_POINT ( 'NONE',  ( 0.0000000000000000000, 0.0000000000000000000, 1.707404996040164512E-17 ) ) ;
#17 = ADVANCED_FACE ( 'NONE', ( #244 ), #217, .T. ) ;
#18 = PRODUCT_CONTEXT ( 'NONE', #5, 'mechanical' ) ;
#19 = DIRECTION ( 'NONE',  ( 0.0000000000000000000, 0.0000000000000000000, -1.000000000000000000 ) ) ;
#20 = DIRECTION ( 'NONE',  ( 0.0000000000000000000, 0.0000000000000000000, -1.000000000000000000 ) ) ;
#21 = DIRECTION ( 'NONE',  ( 1.000000000000000000, 0.0000000000000000000, -0.0000000000000000000 ) ) ;
#22 = AXIS2_PLACEMENT_3D ( 'NONE', #53, #72, #306 ) ;
#23 = CARTESIAN_POINT ( 'NONE',  ( 0.0000000000000000000, 0.0000000000000000000, 0.0000000000000000000 ) ) ;
#24 = CIRCLE ( 'NONE', #54, 0.1562500000000000000 ) ;
#25 = AXIS2_PLACEMENT_3D ( 'NONE', #49, #19, #247 ) ;
#26 = CARTESIAN_POINT ( 'NONE',  ( 0.1562500000000000000, 1.913510623667739463E-17, 2.484999999999999432 ) ) ;
#27 = CARTESIAN_POINT ( 'NONE',  ( 0.0000000000000000000, 0.0000000000000000000, 2.500000000000000000 ) ) ;
#28 = CARTESIAN_POINT ( 'NONE',  ( 0.0000000000000000000, 0.0000000000000000000, 0.08585198502849683555 ) ) ;
#29 = APPLICATION_PROTOCOL_DEFINITION ( 'draft international standard', 'automotive_design', 1998, #5 ) ;
#30 = AXIS2_PLACEMENT_3D ( 'NONE', #56, #183, #128 ) ;
#31 = ORIENTED_EDGE ( 'NONE', *, *, #133, .T. ) ;
#32 =( NAMED_UNIT ( * ) SI_UNIT ( $, .STERADIAN. ) SOLID_ANGLE_UNIT ( ) );
#33 = CLOSED_SHELL ( 'NONE', ( #326, #310, #123, #17, #184, #159, #274, #98, #112, #245, #284 ) ) ;
#34 = EDGE_LOOP ( 'NONE', ( #236, #263 ) ) ;
#35 = CIRCLE ( 'NONE', #92, 0.1562000000000000888 ) ;
#36 = SURFACE_STYLE_FILL_AREA ( #229 ) ;
#37 = ORIENTED_EDGE ( 'NONE', *, *, #133, .F. ) ;
#38 = VERTEX_POINT ( 'NONE', #215 ) ;
#39 = DIRECTION ( 'NONE',  ( 0.0000000000000000000, 0.0000000000000000000, -1.000000000000000000 ) ) ;
#40 = AXIS2_PLACEMENT_3D ( 'NONE', #23, #149, #71 ) ;
#41 = VERTEX_POINT ( 'NONE', #86 ) ;
#42 = FILL_AREA_STYLE_COLOUR ( '', #327 ) ;
#43 = CONICAL_SURFACE ( 'NONE', #235, 0.007499999999999999722, 1.047197551196600296 ) ;
#44 = PRODUCT_DEFINITION_FORMATION_WITH_SPECIFIED_SOURCE ( 'ANY', '', #261, .NOT_KNOWN. ) ;
#45 = ORIENTED_EDGE ( 'NONE', *, *, #304, .T. ) ;
#46 = DIRECTION ( 'NONE',  ( 1.000000000000000000, 0.0000000000000000000, 0.0000000000000000000 ) ) ;
#47 =( NAMED_UNIT ( * ) SI_UNIT ( $, .STERADIAN. ) SOLID_ANGLE_UNIT ( ) );
#48 = EDGE_CURVE ( 'NONE', #160, #14, #59, .T. ) ;
#49 = CARTESIAN_POINT ( 'NONE',  ( 0.0000000000000000000, 0.0000000000000000000, 2.500000000000000000 ) ) ;
#50 = CARTESIAN_POINT ( 'NONE',  ( 0.0000000000000000000, 0.0000000000000000000, 0.8129999999999997229 ) ) ;
#51 = CARTESIAN_POINT ( 'NONE',  ( -0.1412499999999994871, 0.0000000000000000000, 2.500000000000000000 ) ) ;
#52 = LINE ( 'NONE', #152, #153 ) ;
#53 = CARTESIAN_POINT ( 'NONE',  ( 0.0000000000000000000, 0.0000000000000000000, 2.500000000000000000 ) ) ;
#54 = AXIS2_PLACEMENT_3D ( 'NONE', #50, #295, #219 ) ;
#55 = CIRCLE ( 'NONE', #276, 0.1562500000000000000 ) ;
#56 = CARTESIAN_POINT ( 'NONE',  ( 0.0000000000000000000, 0.0000000000000000000, 1.707404996040164512E-17 ) ) ;
#57 = ORIENTED_EDGE ( 'NONE', *, *, #177, .T. ) ;
#58 = CARTESIAN_POINT ( 'NONE',  ( 0.0000000000000000000, 0.0000000000000000000, 0.0000000000000000000 ) ) ;
#59 = CIRCLE ( 'NONE', #101, 0.1562000000000000055 ) ;
#60 = PRESENTATION_LAYER_ASSIGNMENT (  '', '', ( #154 ) ) ;
#61 = ORIENTED_EDGE ( 'NONE', *, *, #177, .F. ) ;
#62 = ORIENTED_EDGE ( 'NONE', *, *, #167, .F. ) ;
#63 = ORIENTED_EDGE ( 'NONE', *, *, #65, .F. ) ;
#64 = EDGE_LOOP ( 'NONE', ( #134, #287 ) ) ;
#65 = EDGE_CURVE ( 'NONE', #285, #38, #286, .T. ) ;
#66 = CARTESIAN_POINT ( 'NONE',  ( 0.0000000000000000000, 0.0000000000000000000, 0.08585198502849683555 ) ) ;
#67 = DIRECTION ( 'NONE',  ( 1.000000000000000000, 0.0000000000000000000, 0.0000000000000000000 ) ) ;
#68 = SURFACE_SIDE_STYLE ('',( #15 ) ) ;
#69 = AXIS2_PLACEMENT_3D ( 'NONE', #157, #181, #227 ) ;
#70 = CARTESIAN_POINT ( 'NONE',  ( 0.0000000000000000000, 0.0000000000000000000, 0.8129999999999999449 ) ) ;
#71 = DIRECTION ( 'NONE',  ( -1.000000000000000000, 0.0000000000000000000, 0.0000000000000000000 ) ) ;
#72 = DIRECTION ( 'NONE',  ( 0.0000000000000000000, 0.0000000000000000000, 1.000000000000000000 ) ) ;
#73 = EDGE_CURVE ( 'NONE', #41, #165, #74, .T. ) ;
#74 = CIRCLE ( 'NONE', #300, 0.007499999999999999722 ) ;
#75 = MECHANICAL_DESIGN_GEOMETRIC_PRESENTATION_REPRESENTATION (  '', ( #102 ), #266 ) ;
#76 = DIRECTION ( 'NONE',  ( -0.0000000000000000000, -0.0000000000000000000, -1.000000000000000000 ) ) ;
#77 = CARTESIAN_POINT ( 'NONE',  ( -0.1562500000000000000, 0.0000000000000000000, 2.484999999999999432 ) ) ;
#78 = AXIS2_PLACEMENT_3D ( 'NONE', #116, #111, #67 ) ;
#79 =( CONVERSION_BASED_UNIT ( 'INCH', #205 ) LENGTH_UNIT ( ) NAMED_UNIT ( #319 ) );
#80 = EDGE_CURVE ( 'NONE', #267, #131, #24, .T. ) ;
#81 = ORIENTED_EDGE ( 'NONE', *, *, #8, .F. ) ;
#82 = ORIENTED_EDGE ( 'NONE', *, *, #294, .F. ) ;
#83 = FACE_OUTER_BOUND ( 'NONE', #110, .T. ) ;
#84 = FILL_AREA_STYLE ('',( #42 ) ) ;
#85 = ORIENTED_EDGE ( 'NONE', *, *, #237, .T. ) ;
#86 = CARTESIAN_POINT ( 'NONE',  ( 0.007499999999999999722, 0.0000000000000000000, 1.707404996040164512E-17 ) ) ;
#87 =( NAMED_UNIT ( * ) PLANE_ANGLE_UNIT ( ) SI_UNIT ( $, .RADIAN. ) );
#88 = CIRCLE ( 'NONE', #122, 0.007499999999999999722 ) ;
#89 = DIRECTION ( 'NONE',  ( 0.0000000000000000000, 0.0000000000000000000, 1.000000000000000000 ) ) ;
#90 = DIRECTION ( 'NONE',  ( -0.0000000000000000000, -0.0000000000000000000, -1.000000000000000000 ) ) ;
#91 = VECTOR ( 'NONE', #191, 39.37007874015748143 ) ;
#92 = AXIS2_PLACEMENT_3D ( 'NONE', #70, #271, #301 ) ;
#93 =( NAMED_UNIT ( * ) SI_UNIT ( $, .STERADIAN. ) SOLID_ANGLE_UNIT ( ) );
#94 = FACE_BOUND ( 'NONE', #315, .T. ) ;
#95 = DIRECTION ( 'NONE',  ( -0.0000000000000000000, -0.0000000000000000000, -1.000000000000000000 ) ) ;
#96 =( GEOMETRIC_REPRESENTATION_CONTEXT ( 3 ) GLOBAL_UNCERTAINTY_ASSIGNED_CONTEXT ( ( #173 ) ) GLOBAL_UNIT_ASSIGNED_CONTEXT ( ( #79, #115, #93 ) ) REPRESENTATION_CONTEXT ( 'NONE', 'WORKASPACE' ) );
#97 = DIRECTION ( 'NONE',  ( 0.0000000000000000000, 0.0000000000000000000, -1.000000000000000000 ) ) ;
#98 = ADVANCED_FACE ( 'NONE', ( #94, #196 ), #145, .T. ) ;
#99 = DIRECTION ( 'NONE',  ( -0.8660254037844398178, 1.060575238724908517E-16, 0.4999999999999977240 ) ) ;
#100 = CYLINDRICAL_SURFACE ( 'NONE', #40, 0.1562000000000000333 ) ;
#101 = AXIS2_PLACEMENT_3D ( 'NONE', #66, #90, #192 ) ;
#102 = STYLED_ITEM ( 'NONE', ( #147 ), #108 ) ;
#103 = CYLINDRICAL_SURFACE ( 'NONE', #69, 0.1562000000000000333 ) ;
#104 = CARTESIAN_POINT ( 'NONE',  ( 0.1412499999999994871, 1.729813603795630110E-17, 2.500000000000000000 ) ) ;
#105 =( LENGTH_UNIT ( ) NAMED_UNIT ( * ) SI_UNIT ( $, .METRE. ) );
#106 = DIRECTION ( 'NONE',  ( 1.000000000000000000, 0.0000000000000000000, -0.0000000000000000000 ) ) ;
#107 = AXIS2_PLACEMENT_3D ( 'NONE', #28, #76, #253 ) ;
#108 = MANIFOLD_SOLID_BREP ( 'Cut-Revolve4', #33 ) ;
#109 = ORIENTED_EDGE ( 'NONE', *, *, #304, .F. ) ;
#110 = EDGE_LOOP ( 'NONE', ( #311, #243 ) ) ;
#111 = DIRECTION ( 'NONE',  ( 0.0000000000000000000, 0.0000000000000000000, 1.000000000000000000 ) ) ;
#112 = ADVANCED_FACE ( 'NONE', ( #246 ), #43, .T. ) ;
#113 = ORIENTED_EDGE ( 'NONE', *, *, #8, .T. ) ;
#114 = DIRECTION ( 'NONE',  ( 0.0000000000000000000, 0.0000000000000000000, 1.000000000000000000 ) ) ;
#115 =( NAMED_UNIT ( * ) PLANE_ANGLE_UNIT ( ) SI_UNIT ( $, .RADIAN. ) );
#116 = CARTESIAN_POINT ( 'NONE',  ( 0.0000000000000000000, 0.0000000000000000000, 2.500000000000000000 ) ) ;
#117 = SHAPE_DEFINITION_REPRESENTATION ( #209, #119 ) ;
#118 = LINE ( 'NONE', #51, #260 ) ;
#119 = ADVANCED_BREP_SHAPE_REPRESENTATION ( 'Micro_DM-312-4120', ( #108, #256 ), #270 ) ;
#120 = DIMENSIONAL_EXPONENTS ( 1.000000000000000000, 0.0000000000000000000, 0.0000000000000000000, 0.0000000000000000000, 0.0000000000000000000, 0.0000000000000000000, 0.0000000000000000000 ) ;
#121 = LINE ( 'NONE', #104, #194 ) ;
#122 = AXIS2_PLACEMENT_3D ( 'NONE', #293, #155, #226 ) ;
#123 = ADVANCED_FACE ( 'NONE', ( #292 ), #308, .T. ) ;
#124 = FACE_OUTER_BOUND ( 'NONE', #64, .T. ) ;
#125 = DIRECTION ( 'NONE',  ( 0.0000000000000000000, 0.0000000000000000000, 1.000000000000000000 ) ) ;
#126 = SURFACE_STYLE_USAGE ( .BOTH. , #309 ) ;
#127 = CARTESIAN_POINT ( 'NONE',  ( -0.007499999999999999722, 1.002373405102108630E-17, 1.707404996040164512E-17 ) ) ;
#128 = DIRECTION ( 'NONE',  ( 1.000000000000000000, 0.0000000000000000000, 0.0000000000000000000 ) ) ;
#129 = ORIENTED_EDGE ( 'NONE', *, *, #48, .T. ) ;
#130 = EDGE_CURVE ( 'NONE', #165, #41, #88, .T. ) ;
#131 = VERTEX_POINT ( 'NONE', #278 ) ;
#132 = DIRECTION ( 'NONE',  ( 0.0000000000000000000, 0.0000000000000000000, 1.000000000000000000 ) ) ;
#133 = EDGE_CURVE ( 'NONE', #158, #160, #255, .T. ) ;
#134 = ORIENTED_EDGE ( 'NONE', *, *, #269, .T. ) ;
#135 = CONICAL_SURFACE ( 'NONE', #324, 0.1412499999999994871, 0.7853981633974391752 ) ;
#136 = ORIENTED_EDGE ( 'NONE', *, *, #137, .T. ) ;
#137 = EDGE_CURVE ( 'NONE', #285, #190, #121, .T. ) ;
#138 = DIRECTION ( 'NONE',  ( 0.8660254037844398178, 0.0000000000000000000, 0.4999999999999977240 ) ) ;
#139 = LENGTH_MEASURE_WITH_UNIT ( LENGTH_MEASURE( 0.02539999999999999897 ), #249 );
#140 = ORIENTED_EDGE ( 'NONE', *, *, #216, .F. ) ;
#141 = CIRCLE ( 'NONE', #107, 0.1562000000000000055 ) ;
#142 = EDGE_LOOP ( 'NONE', ( #113, #210, #208, #162 ) ) ;
#143 = ORIENTED_EDGE ( 'NONE', *, *, #130, .F. ) ;
#144 = AXIS2_PLACEMENT_3D ( 'NONE', #241, #20, #213 ) ;
#145 = PLANE ( 'NONE',  #146 ) ;
#146 = AXIS2_PLACEMENT_3D ( 'NONE', #195, #314, #291 ) ;
#147 = PRESENTATION_STYLE_ASSIGNMENT (( #169 ) ) ;
#148 = APPLICATION_PROTOCOL_DEFINITION ( 'draft international standard', 'automotive_design', 1998, #328 ) ;
#149 = DIRECTION ( 'NONE',  ( -0.0000000000000000000, -0.0000000000000000000, -1.000000000000000000 ) ) ;
#150 = CARTESIAN_POINT ( 'NONE',  ( 0.0000000000000000000, 0.0000000000000000000, 0.8129999999999999449 ) ) ;
#151 = EDGE_CURVE ( 'NONE', #14, #160, #141, .T. ) ;
#152 = CARTESIAN_POINT ( 'NONE',  ( 0.1562500000000000000, 1.913510623667739463E-17, 2.500000000000000000 ) ) ;
#153 = VECTOR ( 'NONE', #299, 39.37007874015748143 ) ;
#154 = STYLED_ITEM ( 'NONE', ( #305 ), #119 ) ;
#155 = DIRECTION ( 'NONE',  ( -0.0000000000000000000, -0.0000000000000000000, -1.000000000000000000 ) ) ;
#156 = CARTESIAN_POINT ( 'NONE',  ( 0.1562000000000000333, 1.912898300268165973E-17, 0.0000000000000000000 ) ) ;
#157 = CARTESIAN_POINT ( 'NONE',  ( 0.0000000000000000000, 0.0000000000000000000, 0.0000000000000000000 ) ) ;
#158 = VERTEX_POINT ( 'NONE', #254 ) ;
#159 = ADVANCED_FACE ( 'NONE', ( #124 ), #272, .T. ) ;
#160 = VERTEX_POINT ( 'NONE', #224 ) ;
#161 = EDGE_LOOP ( 'NONE', ( #143, #232, #129, #109 ) ) ;
#162 = ORIENTED_EDGE ( 'NONE', *, *, #225, .F. ) ;
#163 = CIRCLE ( 'NONE', #22, 0.1412499999999994871 ) ;
#164 = DIRECTION ( 'NONE',  ( -0.0000000000000000000, -0.0000000000000000000, -1.000000000000000000 ) ) ;
#165 = VERTEX_POINT ( 'NONE', #127 ) ;
#166 = AXIS2_PLACEMENT_3D ( 'NONE', #4, #125, #21 ) ;
#167 = EDGE_CURVE ( 'NONE', #165, #160, #273, .T. ) ;
#168 =( CONVERSION_BASED_UNIT ( 'INCH', #139 ) LENGTH_UNIT ( ) NAMED_UNIT ( #120 ) );
#169 = SURFACE_STYLE_USAGE ( .BOTH. , #68 ) ;
#170 = VECTOR ( 'NONE', #138, 39.37007874015748143 ) ;
#171 = EDGE_CURVE ( 'NONE', #190, #131, #52, .T. ) ;
#172 = DIRECTION ( 'NONE',  ( -0.0000000000000000000, -0.0000000000000000000, -1.000000000000000000 ) ) ;
#173 = UNCERTAINTY_MEASURE_WITH_UNIT (LENGTH_MEASURE( 1.000000000000000082E-05 ), #79, 'distance_accuracy_value', 'NONE');
#174 = DIRECTION ( 'NONE',  ( -0.0000000000000000000, -0.0000000000000000000, -1.000000000000000000 ) ) ;
#175 = DIRECTION ( 'NONE',  ( -1.000000000000000000, 0.0000000000000000000, 0.0000000000000000000 ) ) ;
#176 = CARTESIAN_POINT ( 'NONE',  ( -0.1562500000000000000, 0.0000000000000000000, 0.8129999999999997229 ) ) ;
#177 = EDGE_CURVE ( 'NONE', #190, #214, #55, .T. ) ;
#178 = PLANE ( 'NONE',  #180 ) ;
#179 = CIRCLE ( 'NONE', #280, 0.1562000000000000888 ) ;
#180 = AXIS2_PLACEMENT_3D ( 'NONE', #58, #132, #106 ) ;
#181 = DIRECTION ( 'NONE',  ( -0.0000000000000000000, -0.0000000000000000000, -1.000000000000000000 ) ) ;
#182 = CIRCLE ( 'NONE', #221, 0.1562500000000000000 ) ;
#183 = DIRECTION ( 'NONE',  ( 0.0000000000000000000, 0.0000000000000000000, 1.000000000000000000 ) ) ;
#184 = ADVANCED_FACE ( 'NONE', ( #203 ), #220, .T. ) ;
#185 = ORIENTED_EDGE ( 'NONE', *, *, #171, .F. ) ;
#186 = CARTESIAN_POINT ( 'NONE',  ( 0.1412499999999994871, 1.821662113731684786E-17, 2.500000000000000000 ) ) ;
#187 = ORIENTED_EDGE ( 'NONE', *, *, #269, .F. ) ;
#188 = CONICAL_SURFACE ( 'NONE', #30, 0.007499999999999999722, 1.047197551196600296 ) ;
#189 = ORIENTED_EDGE ( 'NONE', *, *, #231, .T. ) ;
#190 = VERTEX_POINT ( 'NONE', #26 ) ;
#191 = DIRECTION ( 'NONE',  ( -0.0000000000000000000, -0.0000000000000000000, -1.000000000000000000 ) ) ;
#192 = DIRECTION ( 'NONE',  ( -1.000000000000000000, 0.0000000000000000000, 0.0000000000000000000 ) ) ;
#193 = DIRECTION ( 'NONE',  ( -0.0000000000000000000, -0.0000000000000000000, -1.000000000000000000 ) ) ;
#194 = VECTOR ( 'NONE', #223, 39.37007874015748854 ) ;
#195 = CARTESIAN_POINT ( 'NONE',  ( 0.1562000000000000888, 0.0000000000000000000, 0.8129999999999999449 ) ) ;
#196 = FACE_OUTER_BOUND ( 'NONE', #34, .T. ) ;
#197 = DIRECTION ( 'NONE',  ( -0.0000000000000000000, -0.0000000000000000000, -1.000000000000000000 ) ) ;
#198 = DIRECTION ( 'NONE',  ( 1.000000000000000000, 0.0000000000000000000, 0.0000000000000000000 ) ) ;
#199 = UNCERTAINTY_MEASURE_WITH_UNIT (LENGTH_MEASURE( 1.000000000000000082E-05 ), #168, 'distance_accuracy_value', 'NONE');
#200 = DIRECTION ( 'NONE',  ( -1.000000000000000000, 0.0000000000000000000, 0.0000000000000000000 ) ) ;
#201 = CARTESIAN_POINT ( 'NONE',  ( 0.0000000000000000000, 0.0000000000000000000, 0.8129999999999997229 ) ) ;
#202 = MECHANICAL_DESIGN_GEOMETRIC_PRESENTATION_REPRESENTATION (  '', ( #154 ), #96 ) ;
#203 = FACE_OUTER_BOUND ( 'NONE', #312, .T. ) ;
#204 = ORIENTED_EDGE ( 'NONE', *, *, #237, .F. ) ;
#205 = LENGTH_MEASURE_WITH_UNIT ( LENGTH_MEASURE( 0.02539999999999999897 ), #105 );
#206 = ORIENTED_EDGE ( 'NONE', *, *, #231, .F. ) ;
#207 = VECTOR ( 'NONE', #99, 39.37007874015748143 ) ;
#208 = ORIENTED_EDGE ( 'NONE', *, *, #80, .F. ) ;
#209 = PRODUCT_DEFINITION_SHAPE ( 'NONE', 'NONE',  #222 ) ;
#210 = ORIENTED_EDGE ( 'NONE', *, *, #171, .T. ) ;
#211 = VERTEX_POINT ( 'NONE', #303 ) ;
#212 = FACE_OUTER_BOUND ( 'NONE', #161, .T. ) ;
#213 = DIRECTION ( 'NONE',  ( 1.000000000000000000, 0.0000000000000000000, 0.0000000000000000000 ) ) ;
#214 = VERTEX_POINT ( 'NONE', #77 ) ;
#215 = CARTESIAN_POINT ( 'NONE',  ( -0.1412499999999994871, 0.0000000000000000000, 2.500000000000000000 ) ) ;
#216 = EDGE_CURVE ( 'NONE', #211, #158, #35, .T. ) ;
#217 = CYLINDRICAL_SURFACE ( 'NONE', #248, 0.1562500000000000000 ) ;
#218 = CIRCLE ( 'NONE', #144, 0.1562500000000000000 ) ;
#219 = DIRECTION ( 'NONE',  ( -1.000000000000000000, 0.0000000000000000000, 0.0000000000000000000 ) ) ;
#220 = CYLINDRICAL_SURFACE ( 'NONE', #238, 0.1562500000000000000 ) ;
#221 = AXIS2_PLACEMENT_3D ( 'NONE', #201, #174, #175 ) ;
#222 = PRODUCT_DEFINITION ( 'UNKNOWN', '', #44, #275 ) ;
#223 = DIRECTION ( 'NONE',  ( 0.7071067811865410224, 8.659560562354852739E-17, -0.7071067811865539010 ) ) ;
#224 = CARTESIAN_POINT ( 'NONE',  ( -0.1561999999999999500, 1.912898300268165357E-17, 0.08585198502849683555 ) ) ;
#225 = EDGE_CURVE ( 'NONE', #214, #267, #329, .T. ) ;
#226 = DIRECTION ( 'NONE',  ( -1.000000000000000000, 0.0000000000000000000, 0.0000000000000000000 ) ) ;
#227 = DIRECTION ( 'NONE',  ( -1.000000000000000000, 0.0000000000000000000, 0.0000000000000000000 ) ) ;
#228 = DIRECTION ( 'NONE',  ( -1.000000000000000000, 0.0000000000000000000, 0.0000000000000000000 ) ) ;
#229 = FILL_AREA_STYLE ('',( #264 ) ) ;
#230 = ORIENTED_EDGE ( 'NONE', *, *, #250, .F. ) ;
#231 = EDGE_CURVE ( 'NONE', #158, #211, #179, .T. ) ;
#232 = ORIENTED_EDGE ( 'NONE', *, *, #167, .T. ) ;
#233 = CARTESIAN_POINT ( 'NONE',  ( 0.007499999999999999722, 0.0000000000000000000, 1.707404996040164512E-17 ) ) ;
#234 = PRESENTATION_LAYER_ASSIGNMENT (  '', '', ( #102 ) ) ;
#235 = AXIS2_PLACEMENT_3D ( 'NONE', #16, #114, #318 ) ;
#236 = ORIENTED_EDGE ( 'NONE', *, *, #80, .T. ) ;
#237 = EDGE_CURVE ( 'NONE', #38, #214, #118, .T. ) ;
#238 = AXIS2_PLACEMENT_3D ( 'NONE', #27, #197, #228 ) ;
#239 = ORIENTED_EDGE ( 'NONE', *, *, #151, .T. ) ;
#240 = LENGTH_MEASURE_WITH_UNIT ( LENGTH_MEASURE( 0.02539999999999999897 ), #3 );
#241 = CARTESIAN_POINT ( 'NONE',  ( 0.0000000000000000000, 0.0000000000000000000, 2.484999999999999432 ) ) ;
#242 = COLOUR_RGB ( '',0.7921568627450980005, 0.8196078431372548767, 0.9333333333333333481 ) ;
#243 = ORIENTED_EDGE ( 'NONE', *, *, #130, .T. ) ;
#244 = FACE_OUTER_BOUND ( 'NONE', #142, .T. ) ;
#245 = ADVANCED_FACE ( 'NONE', ( #1 ), #100, .T. ) ;
#246 = FACE_OUTER_BOUND ( 'NONE', #259, .T. ) ;
#247 = DIRECTION ( 'NONE',  ( -1.000000000000000000, 0.0000000000000000000, 0.0000000000000000000 ) ) ;
#248 = AXIS2_PLACEMENT_3D ( 'NONE', #13, #193, #317 ) ;
#249 =( LENGTH_UNIT ( ) NAMED_UNIT ( * ) SI_UNIT ( $, .METRE. ) );
#250 = EDGE_CURVE ( 'NONE', #131, #267, #182, .T. ) ;
#251 = CARTESIAN_POINT ( 'NONE',  ( 0.0000000000000000000, 0.0000000000000000000, 2.484999999999999432 ) ) ;
#252 = DIRECTION ( 'NONE',  ( -0.0000000000000000000, -0.0000000000000000000, -1.000000000000000000 ) ) ;
#253 = DIRECTION ( 'NONE',  ( -1.000000000000000000, 0.0000000000000000000, 0.0000000000000000000 ) ) ;
#254 = CARTESIAN_POINT ( 'NONE',  ( -0.1562000000000000888, 0.0000000000000000000, 0.8129999999999999449 ) ) ;
#255 = LINE ( 'NONE', #325, #9 ) ;
#256 = AXIS2_PLACEMENT_3D ( 'NONE', #316, #89, #46 ) ;
#257 =( NAMED_UNIT ( * ) PLANE_ANGLE_UNIT ( ) SI_UNIT ( $, .RADIAN. ) );
#258 = ORIENTED_EDGE ( 'NONE', *, *, #225, .T. ) ;
#259 = EDGE_LOOP ( 'NONE', ( #62, #6, #45, #239 ) ) ;
#260 = VECTOR ( 'NONE', #298, 39.37007874015748854 ) ;
#261 = PRODUCT ( 'Micro_DM-312-4120', 'Micro_DM-312-4120', '', ( #18 ) ) ;
#262 = ORIENTED_EDGE ( 'NONE', *, *, #216, .T. ) ;
#263 = ORIENTED_EDGE ( 'NONE', *, *, #250, .T. ) ;
#264 = FILL_AREA_STYLE_COLOUR ( '', #242 ) ;
#265 = DIRECTION ( 'NONE',  ( -1.000000000000000000, 0.0000000000000000000, 0.0000000000000000000 ) ) ;
#266 =( GEOMETRIC_REPRESENTATION_CONTEXT ( 3 ) GLOBAL_UNCERTAINTY_ASSIGNED_CONTEXT ( ( #199 ) ) GLOBAL_UNIT_ASSIGNED_CONTEXT ( ( #168, #87, #47 ) ) REPRESENTATION_CONTEXT ( 'NONE', 'WORKASPACE' ) );
#267 = VERTEX_POINT ( 'NONE', #176 ) ;
#268 = EDGE_LOOP ( 'NONE', ( #189, #307, #290, #37 ) ) ;
#269 = EDGE_CURVE ( 'NONE', #38, #285, #163, .T. ) ;
#270 =( GEOMETRIC_REPRESENTATION_CONTEXT ( 3 ) GLOBAL_UNCERTAINTY_ASSIGNED_CONTEXT ( ( #2 ) ) GLOBAL_UNIT_ASSIGNED_CONTEXT ( ( #302, #257, #32 ) ) REPRESENTATION_CONTEXT ( 'NONE', 'WORKASPACE' ) );
#271 = DIRECTION ( 'NONE',  ( -0.0000000000000000000, -0.0000000000000000000, -1.000000000000000000 ) ) ;
#272 = PLANE ( 'NONE',  #166 ) ;
#273 = LINE ( 'NONE', #277, #207 ) ;
#274 = ADVANCED_FACE ( 'NONE', ( #289 ), #135, .T. ) ;
#275 = PRODUCT_DEFINITION_CONTEXT ( 'detailed design', #328, 'design' ) ;
#276 = AXIS2_PLACEMENT_3D ( 'NONE', #251, #97, #198 ) ;
#277 = CARTESIAN_POINT ( 'NONE',  ( -0.007499999999999999722, 9.184850993605147975E-19, 1.707404996040164512E-17 ) ) ;
#278 = CARTESIAN_POINT ( 'NONE',  ( 0.1562500000000000000, 1.913510623667739463E-17, 0.8129999999999997229 ) ) ;
#279 = DIRECTION ( 'NONE',  ( -1.000000000000000000, 0.0000000000000000000, 0.0000000000000000000 ) ) ;
#280 = AXIS2_PLACEMENT_3D ( 'NONE', #150, #252, #200 ) ;
#281 = LINE ( 'NONE', #233, #170 ) ;
#282 = ORIENTED_EDGE ( 'NONE', *, *, #137, .F. ) ;
#283 = LINE ( 'NONE', #156, #91 ) ;
#284 = ADVANCED_FACE ( 'NONE', ( #83 ), #178, .F. ) ;
#285 = VERTEX_POINT ( 'NONE', #186 ) ;
#286 = CIRCLE ( 'NONE', #78, 0.1412499999999994871 ) ;
#287 = ORIENTED_EDGE ( 'NONE', *, *, #65, .T. ) ;
#288 = ORIENTED_EDGE ( 'NONE', *, *, #151, .F. ) ;
#289 = FACE_OUTER_BOUND ( 'NONE', #313, .T. ) ;
#290 = ORIENTED_EDGE ( 'NONE', *, *, #48, .F. ) ;
#291 = DIRECTION ( 'NONE',  ( -1.000000000000000000, 0.0000000000000000000, 0.0000000000000000000 ) ) ;
#292 = FACE_OUTER_BOUND ( 'NONE', #10, .T. ) ;
#293 = CARTESIAN_POINT ( 'NONE',  ( 0.0000000000000000000, 0.0000000000000000000, 1.707404996040164512E-17 ) ) ;
#294 = EDGE_CURVE ( 'NONE', #211, #14, #283, .T. ) ;
#295 = DIRECTION ( 'NONE',  ( -0.0000000000000000000, -0.0000000000000000000, -1.000000000000000000 ) ) ;
#296 = DIMENSIONAL_EXPONENTS ( 1.000000000000000000, 0.0000000000000000000, 0.0000000000000000000, 0.0000000000000000000, 0.0000000000000000000, 0.0000000000000000000, 0.0000000000000000000 ) ;
#297 = CARTESIAN_POINT ( 'NONE',  ( -0.1562500000000000000, 0.0000000000000000000, 2.500000000000000000 ) ) ;
#298 = DIRECTION ( 'NONE',  ( -0.7071067811865410224, 0.0000000000000000000, -0.7071067811865539010 ) ) ;
#299 = DIRECTION ( 'NONE',  ( -0.0000000000000000000, -0.0000000000000000000, -1.000000000000000000 ) ) ;
#300 = AXIS2_PLACEMENT_3D ( 'NONE', #321, #164, #265 ) ;
#301 = DIRECTION ( 'NONE',  ( -1.000000000000000000, 0.0000000000000000000, 0.0000000000000000000 ) ) ;
#302 =( CONVERSION_BASED_UNIT ( 'INCH', #240 ) LENGTH_UNIT ( ) NAMED_UNIT ( #296 ) );
#303 = CARTESIAN_POINT ( 'NONE',  ( 0.1562000000000000888, 1.912898300268166897E-17, 0.8129999999999999449 ) ) ;
#304 = EDGE_CURVE ( 'NONE', #41, #14, #281, .T. ) ;
#305 = PRESENTATION_STYLE_ASSIGNMENT (( #126 ) ) ;
#306 = DIRECTION ( 'NONE',  ( 1.000000000000000000, 0.0000000000000000000, 0.0000000000000000000 ) ) ;
#307 = ORIENTED_EDGE ( 'NONE', *, *, #294, .T. ) ;
#308 = CONICAL_SURFACE ( 'NONE', #25, 0.1412499999999994871, 0.7853981633974391752 ) ;
#309 = SURFACE_SIDE_STYLE ('',( #36 ) ) ;
#310 = ADVANCED_FACE ( 'NONE', ( #212 ), #188, .T. ) ;
#311 = ORIENTED_EDGE ( 'NONE', *, *, #73, .T. ) ;
#312 = EDGE_LOOP ( 'NONE', ( #185, #57, #258, #230 ) ) ;
#313 = EDGE_LOOP ( 'NONE', ( #282, #187, #85, #61 ) ) ;
#314 = DIRECTION ( 'NONE',  ( -0.0000000000000000000, 0.0000000000000000000, -1.000000000000000000 ) ) ;
#315 = EDGE_LOOP ( 'NONE', ( #206, #140 ) ) ;
#316 = CARTESIAN_POINT ( 'NONE',  ( 0.0000000000000000000, 0.0000000000000000000, 0.0000000000000000000 ) ) ;
#317 = DIRECTION ( 'NONE',  ( -1.000000000000000000, 0.0000000000000000000, 0.0000000000000000000 ) ) ;
#318 = DIRECTION ( 'NONE',  ( 1.000000000000000000, 0.0000000000000000000, 0.0000000000000000000 ) ) ;
#319 = DIMENSIONAL_EXPONENTS ( 1.000000000000000000, 0.0000000000000000000, 0.0000000000000000000, 0.0000000000000000000, 0.0000000000000000000, 0.0000000000000000000, 0.0000000000000000000 ) ;
#320 = PRODUCT_RELATED_PRODUCT_CATEGORY ( 'part', '', ( #261 ) ) ;
#321 = CARTESIAN_POINT ( 'NONE',  ( 0.0000000000000000000, 0.0000000000000000000, 1.707404996040164512E-17 ) ) ;
#322 = VECTOR ( 'NONE', #172, 39.37007874015748143 ) ;
#323 = CARTESIAN_POINT ( 'NONE',  ( 0.1561999999999999500, 0.0000000000000000000, 0.08585198502849683555 ) ) ;
#324 = AXIS2_PLACEMENT_3D ( 'NONE', #7, #39, #279 ) ;
#325 = CARTESIAN_POINT ( 'NONE',  ( -0.1562000000000000333, 0.0000000000000000000, 0.0000000000000000000 ) ) ;
#326 = ADVANCED_FACE ( 'NONE', ( #12 ), #103, .T. ) ;
#327 = COLOUR_RGB ( '',0.7921568627450980005, 0.8196078431372548767, 0.9333333333333333481 ) ;
#328 = APPLICATION_CONTEXT ( 'automotive_design' ) ;
#329 = LINE ( 'NONE', #297, #322 ) ;
ENDSEC;
END-ISO-10303-21;
