ISO-10303-21;
HEADER;
FILE_DESCRIPTION (( 'STEP AP214' ),
    '1' );
FILE_NAME ('Micro_SPD-625-100.STEP',
    '2021-09-03T21:21:59',
    ( '' ),
    ( '' ),
    'SwSTEP 2.0',
    'SolidWorks 2020',
    '' );
FILE_SCHEMA (( 'AUTOMOTIVE_DESIGN' ));
ENDSEC;

DATA;
#1 = CARTESIAN_POINT ( 'NONE',  ( 0.0000000000000000000, 0.0000000000000000000, 2.500000000000000000 ) ) ;
#2 = PRESENTATION_LAYER_ASSIGNMENT (  '', '', ( #301 ) ) ;
#3 = CARTESIAN_POINT ( 'NONE',  ( 0.0000000000000000000, 0.0000000000000000000, 0.0000000000000000000 ) ) ;
#4 = ORIENTED_EDGE ( 'NONE', *, *, #312, .T. ) ;
#5 = ORIENTED_EDGE ( 'NONE', *, *, #260, .T. ) ;
#6 = EDGE_CURVE ( 'NONE', #302, #240, #167, .T. ) ;
#7 = DIRECTION ( 'NONE',  ( -1.000000000000000000, 0.0000000000000000000, 0.0000000000000000000 ) ) ;
#8 = VECTOR ( 'NONE', #282, 39.37007874015748143 ) ;
#9 = CIRCLE ( 'NONE', #333, 0.3124500000000000610 ) ;
#10 = CARTESIAN_POINT ( 'NONE',  ( 0.0000000000000000000, 0.0000000000000000000, 0.2227389970960080845 ) ) ;
#11 = EDGE_LOOP ( 'NONE', ( #185, #140, #74, #207 ) ) ;
#12 = CARTESIAN_POINT ( 'NONE',  ( -0.2975000000000000422, 0.0000000000000000000, 2.500000000000000000 ) ) ;
#13 = PRODUCT_DEFINITION_SHAPE ( 'NONE', 'NONE',  #277 ) ;
#14 = VERTEX_POINT ( 'NONE', #70 ) ;
#15 = PRODUCT_DEFINITION_FORMATION_WITH_SPECIFIED_SOURCE ( 'ANY', '', #38, .NOT_KNOWN. ) ;
#16 = EDGE_LOOP ( 'NONE', ( #135, #169, #142, #267 ) ) ;
#17 = CARTESIAN_POINT ( 'NONE',  ( 0.3125000000000000000, 3.827021247335478926E-17, 2.500000000000000000 ) ) ;
#18 = ADVANCED_FACE ( 'NONE', ( #276 ), #123, .T. ) ;
#19 = DIRECTION ( 'NONE',  ( 1.000000000000000000, 0.0000000000000000000, 0.0000000000000000000 ) ) ;
#20 = AXIS2_PLACEMENT_3D ( 'NONE', #222, #45, #165 ) ;
#21 = AXIS2_PLACEMENT_3D ( 'NONE', #44, #336, #196 ) ;
#22 = DIRECTION ( 'NONE',  ( 1.000000000000000000, 0.0000000000000000000, 0.0000000000000000000 ) ) ;
#23 = LINE ( 'NONE', #51, #295 ) ;
#24 = PLANE ( 'NONE',  #62 ) ;
#25 = VECTOR ( 'NONE', #342, 39.37007874015748854 ) ;
#26 = FACE_OUTER_BOUND ( 'NONE', #102, .T. ) ;
#27 = AXIS2_PLACEMENT_3D ( 'NONE', #114, #214, #28 ) ;
#28 = DIRECTION ( 'NONE',  ( -1.000000000000000000, 0.0000000000000000000, 0.0000000000000000000 ) ) ;
#29 = EDGE_CURVE ( 'NONE', #14, #252, #46, .T. ) ;
#30 = ORIENTED_EDGE ( 'NONE', *, *, #29, .T. ) ;
#31 =( CONVERSION_BASED_UNIT ( 'INCH', #297 ) LENGTH_UNIT ( ) NAMED_UNIT ( #168 ) );
#32 = EDGE_LOOP ( 'NONE', ( #4, #193 ) ) ;
#33 = AXIS2_PLACEMENT_3D ( 'NONE', #250, #43, #199 ) ;
#34 = LINE ( 'NONE', #265, #48 ) ;
#35 = ORIENTED_EDGE ( 'NONE', *, *, #324, .F. ) ;
#36 = ADVANCED_FACE ( 'NONE', ( #78 ), #161, .T. ) ;
#37 = DIRECTION ( 'NONE',  ( -0.0000000000000000000, -0.0000000000000000000, -1.000000000000000000 ) ) ;
#38 = PRODUCT ( 'Micro_SPD-625-100', 'Micro_SPD-625-100', '', ( #272 ) ) ;
#39 = FILL_AREA_STYLE_COLOUR ( '', #177 ) ;
#40 = EDGE_LOOP ( 'NONE', ( #298, #211, #326, #329 ) ) ;
#41 = AXIS2_PLACEMENT_3D ( 'NONE', #59, #113, #230 ) ;
#42 = PRESENTATION_STYLE_ASSIGNMENT (( #274 ) ) ;
#43 = DIRECTION ( 'NONE',  ( 0.0000000000000000000, 0.0000000000000000000, -1.000000000000000000 ) ) ;
#44 = CARTESIAN_POINT ( 'NONE',  ( 0.0000000000000000000, 0.0000000000000000000, 0.0000000000000000000 ) ) ;
#45 = DIRECTION ( 'NONE',  ( -0.0000000000000000000, -0.0000000000000000000, -1.000000000000000000 ) ) ;
#46 = LINE ( 'NONE', #117, #156 ) ;
#47 = AXIS2_PLACEMENT_3D ( 'NONE', #343, #79, #22 ) ;
#48 = VECTOR ( 'NONE', #190, 39.37007874015748143 ) ;
#49 = ORIENTED_EDGE ( 'NONE', *, *, #320, .F. ) ;
#50 = VERTEX_POINT ( 'NONE', #145 ) ;
#51 = CARTESIAN_POINT ( 'NONE',  ( -0.3124500000000001165, 0.0000000000000000000, 0.0000000000000000000 ) ) ;
#52 = EDGE_CURVE ( 'NONE', #253, #302, #81, .T. ) ;
#53 = AXIS2_PLACEMENT_3D ( 'NONE', #278, #101, #195 ) ;
#54 = CYLINDRICAL_SURFACE ( 'NONE', #279, 0.3125000000000000000 ) ;
#55 = CARTESIAN_POINT ( 'NONE',  ( 0.04700000000000000705, 0.0000000000000000000, 0.0000000000000000000 ) ) ;
#56 = PLANE ( 'NONE',  #118 ) ;
#57 = EDGE_CURVE ( 'NONE', #302, #253, #203, .T. ) ;
#58 = CARTESIAN_POINT ( 'NONE',  ( 0.2975000000000000422, 3.643324227463375736E-17, 2.500000000000000000 ) ) ;
#59 = CARTESIAN_POINT ( 'NONE',  ( 0.0000000000000000000, 0.0000000000000000000, 1.125000000000000000 ) ) ;
#60 = SURFACE_SIDE_STYLE ('',( #349 ) ) ;
#61 = SURFACE_STYLE_USAGE ( .BOTH. , #60 ) ;
#62 = AXIS2_PLACEMENT_3D ( 'NONE', #180, #128, #109 ) ;
#63 = ORIENTED_EDGE ( 'NONE', *, *, #331, .T. ) ;
#64 = ADVANCED_BREP_SHAPE_REPRESENTATION ( 'Micro_SPD-625-100', ( #237, #21 ), #315 ) ;
#65 = CARTESIAN_POINT ( 'NONE',  ( -0.3125000000000000000, 0.0000000000000000000, 1.125049999999999883 ) ) ;
#66 = EDGE_LOOP ( 'NONE', ( #191, #187, #197, #232 ) ) ;
#67 = DIRECTION ( 'NONE',  ( -0.0000000000000000000, -0.0000000000000000000, -1.000000000000000000 ) ) ;
#68 = ORIENTED_EDGE ( 'NONE', *, *, #148, .F. ) ;
#69 = ADVANCED_FACE ( 'NONE', ( #284 ), #340, .T. ) ;
#70 = CARTESIAN_POINT ( 'NONE',  ( -0.3124500000000002276, 3.826715085635693414E-17, 1.125000000000000000 ) ) ;
#71 = AXIS2_PLACEMENT_3D ( 'NONE', #318, #87, #296 ) ;
#72 = CARTESIAN_POINT ( 'NONE',  ( -0.3125000000000000000, 0.0000000000000000000, 2.500000000000000000 ) ) ;
#73 = VERTEX_POINT ( 'NONE', #103 ) ;
#74 = ORIENTED_EDGE ( 'NONE', *, *, #345, .T. ) ;
#75 = APPLICATION_PROTOCOL_DEFINITION ( 'draft international standard', 'automotive_design', 1998, #194 ) ;
#76 = ADVANCED_FACE ( 'NONE', ( #26 ), #56, .F. ) ;
#77 = ORIENTED_EDGE ( 'NONE', *, *, #320, .T. ) ;
#78 = FACE_OUTER_BOUND ( 'NONE', #294, .T. ) ;
#79 = DIRECTION ( 'NONE',  ( 0.0000000000000000000, 0.0000000000000000000, 1.000000000000000000 ) ) ;
#80 = CARTESIAN_POINT ( 'NONE',  ( 0.0000000000000000000, 0.0000000000000000000, 2.500000000000000000 ) ) ;
#81 = CIRCLE ( 'NONE', #33, 0.3125000000000000000 ) ;
#82 = CONICAL_SURFACE ( 'NONE', #41, 0.3124500000000002276, 0.7853981633974482790 ) ;
#83 = DIRECTION ( 'NONE',  ( 0.0000000000000000000, 0.0000000000000000000, 1.000000000000000000 ) ) ;
#84 = DIRECTION ( 'NONE',  ( -0.0000000000000000000, -0.0000000000000000000, -1.000000000000000000 ) ) ;
#85 = DIRECTION ( 'NONE',  ( 1.000000000000000000, 0.0000000000000000000, 0.0000000000000000000 ) ) ;
#86 = EDGE_CURVE ( 'NONE', #339, #253, #317, .T. ) ;
#87 = DIRECTION ( 'NONE',  ( -0.0000000000000000000, -0.0000000000000000000, -1.000000000000000000 ) ) ;
#88 = FILL_AREA_STYLE ('',( #235 ) ) ;
#89 = ADVANCED_FACE ( 'NONE', ( #175 ), #54, .T. ) ;
#90 =( NAMED_UNIT ( * ) SI_UNIT ( $, .STERADIAN. ) SOLID_ANGLE_UNIT ( ) );
#91 = CARTESIAN_POINT ( 'NONE',  ( 0.3125000000000000000, 3.827021247335478926E-17, 2.484999999999999876 ) ) ;
#92 = VERTEX_POINT ( 'NONE', #255 ) ;
#93 =( GEOMETRIC_REPRESENTATION_CONTEXT ( 3 ) GLOBAL_UNCERTAINTY_ASSIGNED_CONTEXT ( ( #262 ) ) GLOBAL_UNIT_ASSIGNED_CONTEXT ( ( #31, #132, #90 ) ) REPRESENTATION_CONTEXT ( 'NONE', 'WORKASPACE' ) );
#94 = DIRECTION ( 'NONE',  ( -0.0000000000000000000, -0.0000000000000000000, -1.000000000000000000 ) ) ;
#95 = ORIENTED_EDGE ( 'NONE', *, *, #324, .T. ) ;
#96 =( CONVERSION_BASED_UNIT ( 'INCH', #166 ) LENGTH_UNIT ( ) NAMED_UNIT ( #254 ) );
#97 = ORIENTED_EDGE ( 'NONE', *, *, #172, .F. ) ;
#98 =( NAMED_UNIT ( * ) PLANE_ANGLE_UNIT ( ) SI_UNIT ( $, .RADIAN. ) );
#99 = EDGE_LOOP ( 'NONE', ( #192, #221, #215, #247 ) ) ;
#100 = DIRECTION ( 'NONE',  ( -0.0000000000000000000, -0.0000000000000000000, -1.000000000000000000 ) ) ;
#101 = DIRECTION ( 'NONE',  ( 0.0000000000000000000, 0.0000000000000000000, -1.000000000000000000 ) ) ;
#102 = EDGE_LOOP ( 'NONE', ( #95, #304 ) ) ;
#103 = CARTESIAN_POINT ( 'NONE',  ( -0.3124500000000000610, 0.0000000000000000000, 0.2227389970960080845 ) ) ;
#104 = LINE ( 'NONE', #55, #188 ) ;
#105 = DIRECTION ( 'NONE',  ( -1.000000000000000000, 0.0000000000000000000, 0.0000000000000000000 ) ) ;
#106 = CLOSED_SHELL ( 'NONE', ( #231, #18, #189, #36, #89, #198, #218, #178, #283, #263, #69, #76 ) ) ;
#107 = CIRCLE ( 'NONE', #323, 0.04700000000000000705 ) ;
#108 = CARTESIAN_POINT ( 'NONE',  ( 0.0000000000000000000, 0.0000000000000000000, 2.500000000000000000 ) ) ;
#109 = DIRECTION ( 'NONE',  ( 1.000000000000000000, 0.0000000000000000000, -0.0000000000000000000 ) ) ;
#110 = DIRECTION ( 'NONE',  ( 0.0000000000000000000, 0.0000000000000000000, 1.000000000000000000 ) ) ;
#111 = DIRECTION ( 'NONE',  ( -1.000000000000000000, 0.0000000000000000000, 0.0000000000000000000 ) ) ;
#112 = CIRCLE ( 'NONE', #133, 0.2975000000000000422 ) ;
#113 = DIRECTION ( 'NONE',  ( 0.0000000000000000000, 0.0000000000000000000, 1.000000000000000000 ) ) ;
#114 = CARTESIAN_POINT ( 'NONE',  ( 0.0000000000000000000, 0.0000000000000000000, 0.0000000000000000000 ) ) ;
#115 = AXIS2_PLACEMENT_3D ( 'NONE', #162, #37, #184 ) ;
#116 =( NAMED_UNIT ( * ) SI_UNIT ( $, .STERADIAN. ) SOLID_ANGLE_UNIT ( ) );
#117 = CARTESIAN_POINT ( 'NONE',  ( -0.3124500000000002276, 3.826408923935907901E-17, 1.125000000000000000 ) ) ;
#118 = AXIS2_PLACEMENT_3D ( 'NONE', #201, #200, #258 ) ;
#119 = EDGE_CURVE ( 'NONE', #270, #240, #179, .T. ) ;
#120 = CIRCLE ( 'NONE', #319, 0.3124500000000002276 ) ;
#121 = CARTESIAN_POINT ( 'NONE',  ( 0.0000000000000000000, 0.0000000000000000000, 2.484999999999999876 ) ) ;
#122 = FILL_AREA_STYLE ('',( #39 ) ) ;
#123 = CYLINDRICAL_SURFACE ( 'NONE', #20, 0.3124500000000001165 ) ;
#124 = CONICAL_SURFACE ( 'NONE', #228, 0.2975000000000000422, 0.7853981633974391752 ) ;
#125 = CIRCLE ( 'NONE', #115, 0.3124500000000000610 ) ;
#126 = FACE_OUTER_BOUND ( 'NONE', #328, .T. ) ;
#127 = CARTESIAN_POINT ( 'NONE',  ( 0.0000000000000000000, 0.0000000000000000000, 2.500000000000000000 ) ) ;
#128 = DIRECTION ( 'NONE',  ( 0.0000000000000000000, 0.0000000000000000000, 1.000000000000000000 ) ) ;
#129 = VECTOR ( 'NONE', #316, 39.37007874015748143 ) ;
#130 = FACE_OUTER_BOUND ( 'NONE', #40, .T. ) ;
#131 = PRESENTATION_LAYER_ASSIGNMENT (  '', '', ( #285 ) ) ;
#132 =( NAMED_UNIT ( * ) PLANE_ANGLE_UNIT ( ) SI_UNIT ( $, .RADIAN. ) );
#133 = AXIS2_PLACEMENT_3D ( 'NONE', #1, #110, #290 ) ;
#134 = DIRECTION ( 'NONE',  ( -0.0000000000000000000, -0.0000000000000000000, -1.000000000000000000 ) ) ;
#135 = ORIENTED_EDGE ( 'NONE', *, *, #236, .F. ) ;
#136 = CARTESIAN_POINT ( 'NONE',  ( 0.0000000000000000000, 0.0000000000000000000, 1.125000000000000000 ) ) ;
#137 = LINE ( 'NONE', #72, #151 ) ;
#138 = AXIS2_PLACEMENT_3D ( 'NONE', #121, #149, #19 ) ;
#139 = VERTEX_POINT ( 'NONE', #229 ) ;
#140 = ORIENTED_EDGE ( 'NONE', *, *, #57, .T. ) ;
#141 = SURFACE_SIDE_STYLE ('',( #146 ) ) ;
#142 = ORIENTED_EDGE ( 'NONE', *, *, #86, .T. ) ;
#143 = PRODUCT_DEFINITION_CONTEXT ( 'detailed design', #194, 'design' ) ;
#144 =( NAMED_UNIT ( * ) SI_UNIT ( $, .STERADIAN. ) SOLID_ANGLE_UNIT ( ) );
#145 = CARTESIAN_POINT ( 'NONE',  ( 0.04700000000000000705, 0.0000000000000000000, 0.0000000000000000000 ) ) ;
#146 = SURFACE_STYLE_FILL_AREA ( #122 ) ;
#147 = ORIENTED_EDGE ( 'NONE', *, *, #226, .F. ) ;
#148 = EDGE_CURVE ( 'NONE', #14, #73, #23, .T. ) ;
#149 = DIRECTION ( 'NONE',  ( 0.0000000000000000000, 0.0000000000000000000, -1.000000000000000000 ) ) ;
#150 = DIRECTION ( 'NONE',  ( 0.7660444431189793457, 0.0000000000000000000, 0.6427876096865378086 ) ) ;
#151 = VECTOR ( 'NONE', #327, 39.37007874015748143 ) ;
#152 = DIRECTION ( 'NONE',  ( -0.0000000000000000000, -0.0000000000000000000, -1.000000000000000000 ) ) ;
#153 = CARTESIAN_POINT ( 'NONE',  ( 0.2975000000000000422, 3.735172737399427023E-17, 2.500000000000000000 ) ) ;
#154 = EDGE_CURVE ( 'NONE', #50, #92, #104, .T. ) ;
#155 = CARTESIAN_POINT ( 'NONE',  ( 0.0000000000000000000, 0.0000000000000000000, 0.0000000000000000000 ) ) ;
#156 = VECTOR ( 'NONE', #335, 39.37007874015748854 ) ;
#157 = CIRCLE ( 'NONE', #286, 0.3124500000000002276 ) ;
#158 = DIRECTION ( 'NONE',  ( 0.7071067811865411334, 8.659560562354852739E-17, -0.7071067811865539010 ) ) ;
#159 =( LENGTH_UNIT ( ) NAMED_UNIT ( * ) SI_UNIT ( $, .METRE. ) );
#160 = EDGE_LOOP ( 'NONE', ( #77, #292, #163, #68 ) ) ;
#161 = CONICAL_SURFACE ( 'NONE', #53, 0.2975000000000000422, 0.7853981633974391752 ) ;
#162 = CARTESIAN_POINT ( 'NONE',  ( 0.0000000000000000000, 0.0000000000000000000, 0.2227389970960080845 ) ) ;
#163 = ORIENTED_EDGE ( 'NONE', *, *, #310, .F. ) ;
#164 = AXIS2_PLACEMENT_3D ( 'NONE', #80, #227, #105 ) ;
#165 = DIRECTION ( 'NONE',  ( -1.000000000000000000, 0.0000000000000000000, 0.0000000000000000000 ) ) ;
#166 = LENGTH_MEASURE_WITH_UNIT ( LENGTH_MEASURE( 0.02539999999999999897 ), #219 );
#167 = LINE ( 'NONE', #17, #242 ) ;
#168 = DIMENSIONAL_EXPONENTS ( 1.000000000000000000, 0.0000000000000000000, 0.0000000000000000000, 0.0000000000000000000, 0.0000000000000000000, 0.0000000000000000000, 0.0000000000000000000 ) ;
#169 = ORIENTED_EDGE ( 'NONE', *, *, #312, .F. ) ;
#170 = SHAPE_DEFINITION_REPRESENTATION ( #13, #64 ) ;
#171 = ORIENTED_EDGE ( 'NONE', *, *, #236, .T. ) ;
#172 = EDGE_CURVE ( 'NONE', #217, #339, #212, .T. ) ;
#173 = CIRCLE ( 'NONE', #71, 0.3125000000000000000 ) ;
#174 = EDGE_LOOP ( 'NONE', ( #322, #63, #266, #300 ) ) ;
#175 = FACE_OUTER_BOUND ( 'NONE', #66, .T. ) ;
#176 = DIRECTION ( 'NONE',  ( 1.000000000000000000, 0.0000000000000000000, 0.0000000000000000000 ) ) ;
#177 = COLOUR_RGB ( '',0.7921568627450980005, 0.8196078431372548767, 0.9333333333333333481 ) ;
#178 = ADVANCED_FACE ( 'NONE', ( #259 ), #124, .T. ) ;
#179 = LINE ( 'NONE', #309, #25 ) ;
#180 = CARTESIAN_POINT ( 'NONE',  ( 0.0000000000000000000, 0.0000000000000000000, 2.500000000000000000 ) ) ;
#181 = DIRECTION ( 'NONE',  ( 1.000000000000000000, 0.0000000000000000000, 0.0000000000000000000 ) ) ;
#182 = AXIS2_PLACEMENT_3D ( 'NONE', #223, #341, #176 ) ;
#183 = AXIS2_PLACEMENT_3D ( 'NONE', #269, #134, #321 ) ;
#184 = DIRECTION ( 'NONE',  ( -1.000000000000000000, 0.0000000000000000000, 0.0000000000000000000 ) ) ;
#185 = ORIENTED_EDGE ( 'NONE', *, *, #6, .F. ) ;
#186 = CARTESIAN_POINT ( 'NONE',  ( 0.0000000000000000000, 0.0000000000000000000, 1.125049999999999883 ) ) ;
#187 = ORIENTED_EDGE ( 'NONE', *, *, #6, .T. ) ;
#188 = VECTOR ( 'NONE', #150, 39.37007874015748143 ) ;
#189 = ADVANCED_FACE ( 'NONE', ( #126 ), #268, .T. ) ;
#190 = DIRECTION ( 'NONE',  ( -0.0000000000000000000, -0.0000000000000000000, -1.000000000000000000 ) ) ;
#191 = ORIENTED_EDGE ( 'NONE', *, *, #52, .T. ) ;
#192 = ORIENTED_EDGE ( 'NONE', *, *, #245, .F. ) ;
#193 = ORIENTED_EDGE ( 'NONE', *, *, #172, .T. ) ;
#194 = APPLICATION_CONTEXT ( 'automotive_design' ) ;
#195 = DIRECTION ( 'NONE',  ( -1.000000000000000000, 0.0000000000000000000, 0.0000000000000000000 ) ) ;
#196 = DIRECTION ( 'NONE',  ( 1.000000000000000000, 0.0000000000000000000, 0.0000000000000000000 ) ) ;
#197 = ORIENTED_EDGE ( 'NONE', *, *, #260, .F. ) ;
#198 = ADVANCED_FACE ( 'NONE', ( #311 ), #348, .T. ) ;
#199 = DIRECTION ( 'NONE',  ( 1.000000000000000000, 0.0000000000000000000, 0.0000000000000000000 ) ) ;
#200 = DIRECTION ( 'NONE',  ( 0.0000000000000000000, 0.0000000000000000000, 1.000000000000000000 ) ) ;
#201 = CARTESIAN_POINT ( 'NONE',  ( 0.0000000000000000000, 0.0000000000000000000, 0.0000000000000000000 ) ) ;
#202 = CARTESIAN_POINT ( 'NONE',  ( -0.2975000000000000422, 0.0000000000000000000, 2.500000000000000000 ) ) ;
#203 = CIRCLE ( 'NONE', #138, 0.3125000000000000000 ) ;
#204 = CARTESIAN_POINT ( 'NONE',  ( -0.04700000000000000705, 5.755839955992561195E-18, 0.0000000000000000000 ) ) ;
#205 = DIRECTION ( 'NONE',  ( 0.0000000000000000000, 0.0000000000000000000, 1.000000000000000000 ) ) ;
#206 = DIRECTION ( 'NONE',  ( -0.0000000000000000000, -0.0000000000000000000, -1.000000000000000000 ) ) ;
#207 = ORIENTED_EDGE ( 'NONE', *, *, #303, .F. ) ;
#208 = CARTESIAN_POINT ( 'NONE',  ( -0.3125000000000000000, 0.0000000000000000000, 2.484999999999999876 ) ) ;
#209 = PRODUCT_RELATED_PRODUCT_CATEGORY ( 'part', '', ( #38 ) ) ;
#210 = PRESENTATION_STYLE_ASSIGNMENT (( #61 ) ) ;
#211 = ORIENTED_EDGE ( 'NONE', *, *, #331, .F. ) ;
#212 = CIRCLE ( 'NONE', #273, 0.2975000000000000422 ) ;
#213 =( GEOMETRIC_REPRESENTATION_CONTEXT ( 3 ) GLOBAL_UNCERTAINTY_ASSIGNED_CONTEXT ( ( #344 ) ) GLOBAL_UNIT_ASSIGNED_CONTEXT ( ( #216, #98, #144 ) ) REPRESENTATION_CONTEXT ( 'NONE', 'WORKASPACE' ) );
#214 = DIRECTION ( 'NONE',  ( -0.0000000000000000000, -0.0000000000000000000, -1.000000000000000000 ) ) ;
#215 = ORIENTED_EDGE ( 'NONE', *, *, #310, .T. ) ;
#216 =( CONVERSION_BASED_UNIT ( 'INCH', #246 ) LENGTH_UNIT ( ) NAMED_UNIT ( #251 ) );
#217 = VERTEX_POINT ( 'NONE', #153 ) ;
#218 = ADVANCED_FACE ( 'NONE', ( #287 ), #24, .T. ) ;
#219 =( LENGTH_UNIT ( ) NAMED_UNIT ( * ) SI_UNIT ( $, .METRE. ) );
#220 = ORIENTED_EDGE ( 'NONE', *, *, #86, .F. ) ;
#221 = ORIENTED_EDGE ( 'NONE', *, *, #226, .T. ) ;
#222 = CARTESIAN_POINT ( 'NONE',  ( 0.0000000000000000000, 0.0000000000000000000, 0.0000000000000000000 ) ) ;
#223 = CARTESIAN_POINT ( 'NONE',  ( 0.0000000000000000000, 0.0000000000000000000, 0.0000000000000000000 ) ) ;
#224 = CARTESIAN_POINT ( 'NONE',  ( 0.0000000000000000000, 0.0000000000000000000, 2.500000000000000000 ) ) ;
#225 = DIRECTION ( 'NONE',  ( -1.000000000000000000, 0.0000000000000000000, 0.0000000000000000000 ) ) ;
#226 = EDGE_CURVE ( 'NONE', #139, #73, #347, .T. ) ;
#227 = DIRECTION ( 'NONE',  ( -0.0000000000000000000, -0.0000000000000000000, -1.000000000000000000 ) ) ;
#228 = AXIS2_PLACEMENT_3D ( 'NONE', #108, #261, #225 ) ;
#229 = CARTESIAN_POINT ( 'NONE',  ( -0.04700000000000000705, 2.200996459767581009E-17, 0.0000000000000000000 ) ) ;
#230 = DIRECTION ( 'NONE',  ( 1.000000000000000000, 0.0000000000000000000, 0.0000000000000000000 ) ) ;
#231 = ADVANCED_FACE ( 'NONE', ( #288 ), #256, .T. ) ;
#232 = ORIENTED_EDGE ( 'NONE', *, *, #345, .F. ) ;
#233 = COLOUR_RGB ( '',0.7921568627450980005, 0.8196078431372548767, 0.9333333333333333481 ) ;
#234 = CIRCLE ( 'NONE', #280, 0.3125000000000000000 ) ;
#235 = FILL_AREA_STYLE_COLOUR ( '', #233 ) ;
#236 = EDGE_CURVE ( 'NONE', #217, #302, #289, .T. ) ;
#237 = MANIFOLD_SOLID_BREP ( 'Cut-Revolve2', #106 ) ;
#238 = EDGE_CURVE ( 'NONE', #270, #92, #34, .T. ) ;
#239 = CARTESIAN_POINT ( 'NONE',  ( 0.3124500000000002276, 0.0000000000000000000, 1.125000000000000000 ) ) ;
#240 = VERTEX_POINT ( 'NONE', #264 ) ;
#241 = DIRECTION ( 'NONE',  ( -0.0000000000000000000, -0.0000000000000000000, -1.000000000000000000 ) ) ;
#242 = VECTOR ( 'NONE', #249, 39.37007874015748143 ) ;
#243 =( NAMED_UNIT ( * ) PLANE_ANGLE_UNIT ( ) SI_UNIT ( $, .RADIAN. ) );
#244 = ORIENTED_EDGE ( 'NONE', *, *, #52, .F. ) ;
#245 = EDGE_CURVE ( 'NONE', #139, #50, #107, .T. ) ;
#246 = LENGTH_MEASURE_WITH_UNIT ( LENGTH_MEASURE( 0.02539999999999999897 ), #338 );
#247 = ORIENTED_EDGE ( 'NONE', *, *, #154, .F. ) ;
#248 = APPLICATION_CONTEXT ( 'automotive_design' ) ;
#249 = DIRECTION ( 'NONE',  ( -0.0000000000000000000, -0.0000000000000000000, -1.000000000000000000 ) ) ;
#250 = CARTESIAN_POINT ( 'NONE',  ( 0.0000000000000000000, 0.0000000000000000000, 2.484999999999999876 ) ) ;
#251 = DIMENSIONAL_EXPONENTS ( 1.000000000000000000, 0.0000000000000000000, 0.0000000000000000000, 0.0000000000000000000, 0.0000000000000000000, 0.0000000000000000000, 0.0000000000000000000 ) ;
#252 = VERTEX_POINT ( 'NONE', #65 ) ;
#253 = VERTEX_POINT ( 'NONE', #208 ) ;
#254 = DIMENSIONAL_EXPONENTS ( 1.000000000000000000, 0.0000000000000000000, 0.0000000000000000000, 0.0000000000000000000, 0.0000000000000000000, 0.0000000000000000000, 0.0000000000000000000 ) ;
#255 = CARTESIAN_POINT ( 'NONE',  ( 0.3124500000000000610, 3.826408923935905436E-17, 0.2227389970960080845 ) ) ;
#256 = CONICAL_SURFACE ( 'NONE', #306, 0.04700000000000000705, 0.8726646259971667652 ) ;
#257 = CIRCLE ( 'NONE', #27, 0.04700000000000000705 ) ;
#258 = DIRECTION ( 'NONE',  ( 1.000000000000000000, 0.0000000000000000000, -0.0000000000000000000 ) ) ;
#259 = FACE_OUTER_BOUND ( 'NONE', #16, .T. ) ;
#260 = EDGE_CURVE ( 'NONE', #252, #240, #234, .T. ) ;
#261 = DIRECTION ( 'NONE',  ( 0.0000000000000000000, 0.0000000000000000000, -1.000000000000000000 ) ) ;
#262 = UNCERTAINTY_MEASURE_WITH_UNIT (LENGTH_MEASURE( 1.000000000000000082E-05 ), #31, 'distance_accuracy_value', 'NONE');
#263 = ADVANCED_FACE ( 'NONE', ( #291 ), #271, .T. ) ;
#264 = CARTESIAN_POINT ( 'NONE',  ( 0.3125000000000000000, 3.827021247335478926E-17, 1.125049999999999883 ) ) ;
#265 = CARTESIAN_POINT ( 'NONE',  ( 0.3124500000000001165, 3.826408923935906052E-17, 0.0000000000000000000 ) ) ;
#266 = ORIENTED_EDGE ( 'NONE', *, *, #148, .T. ) ;
#267 = ORIENTED_EDGE ( 'NONE', *, *, #57, .F. ) ;
#268 = CONICAL_SURFACE ( 'NONE', #47, 0.3124500000000002276, 0.7853981633974482790 ) ;
#269 = CARTESIAN_POINT ( 'NONE',  ( 0.0000000000000000000, 0.0000000000000000000, 0.0000000000000000000 ) ) ;
#270 = VERTEX_POINT ( 'NONE', #239 ) ;
#271 = CYLINDRICAL_SURFACE ( 'NONE', #183, 0.3124500000000001165 ) ;
#272 = PRODUCT_CONTEXT ( 'NONE', #248, 'mechanical' ) ;
#273 = AXIS2_PLACEMENT_3D ( 'NONE', #127, #83, #85 ) ;
#274 = SURFACE_STYLE_USAGE ( .BOTH. , #141 ) ;
#275 = ORIENTED_EDGE ( 'NONE', *, *, #154, .T. ) ;
#276 = FACE_OUTER_BOUND ( 'NONE', #160, .T. ) ;
#277 = PRODUCT_DEFINITION ( 'UNKNOWN', '', #15, #143 ) ;
#278 = CARTESIAN_POINT ( 'NONE',  ( 0.0000000000000000000, 0.0000000000000000000, 2.500000000000000000 ) ) ;
#279 = AXIS2_PLACEMENT_3D ( 'NONE', #224, #152, #313 ) ;
#280 = AXIS2_PLACEMENT_3D ( 'NONE', #186, #67, #293 ) ;
#281 = EDGE_LOOP ( 'NONE', ( #147, #35, #275, #308 ) ) ;
#282 = DIRECTION ( 'NONE',  ( -0.7071067811865411334, 0.0000000000000000000, -0.7071067811865539010 ) ) ;
#283 = ADVANCED_FACE ( 'NONE', ( #130 ), #82, .T. ) ;
#284 = FACE_OUTER_BOUND ( 'NONE', #281, .T. ) ;
#285 = STYLED_ITEM ( 'NONE', ( #210 ), #237 ) ;
#286 = AXIS2_PLACEMENT_3D ( 'NONE', #136, #241, #7 ) ;
#287 = FACE_OUTER_BOUND ( 'NONE', #32, .T. ) ;
#288 = FACE_OUTER_BOUND ( 'NONE', #99, .T. ) ;
#289 = LINE ( 'NONE', #58, #314 ) ;
#290 = DIRECTION ( 'NONE',  ( 1.000000000000000000, 0.0000000000000000000, 0.0000000000000000000 ) ) ;
#291 = FACE_OUTER_BOUND ( 'NONE', #174, .T. ) ;
#292 = ORIENTED_EDGE ( 'NONE', *, *, #238, .T. ) ;
#293 = DIRECTION ( 'NONE',  ( 1.000000000000000000, 0.0000000000000000000, 0.0000000000000000000 ) ) ;
#294 = EDGE_LOOP ( 'NONE', ( #97, #171, #244, #220 ) ) ;
#295 = VECTOR ( 'NONE', #84, 39.37007874015748143 ) ;
#296 = DIRECTION ( 'NONE',  ( 1.000000000000000000, 0.0000000000000000000, 0.0000000000000000000 ) ) ;
#297 = LENGTH_MEASURE_WITH_UNIT ( LENGTH_MEASURE( 0.02539999999999999897 ), #159 );
#298 = ORIENTED_EDGE ( 'NONE', *, *, #29, .F. ) ;
#299 = DIRECTION ( 'NONE',  ( -1.000000000000000000, 0.0000000000000000000, 0.0000000000000000000 ) ) ;
#300 = ORIENTED_EDGE ( 'NONE', *, *, #346, .F. ) ;
#301 = STYLED_ITEM ( 'NONE', ( #42 ), #64 ) ;
#302 = VERTEX_POINT ( 'NONE', #91 ) ;
#303 = EDGE_CURVE ( 'NONE', #240, #252, #173, .T. ) ;
#304 = ORIENTED_EDGE ( 'NONE', *, *, #245, .T. ) ;
#305 = APPLICATION_PROTOCOL_DEFINITION ( 'draft international standard', 'automotive_design', 1998, #248 ) ;
#306 = AXIS2_PLACEMENT_3D ( 'NONE', #155, #205, #181 ) ;
#307 = MECHANICAL_DESIGN_GEOMETRIC_PRESENTATION_REPRESENTATION (  '', ( #301 ), #213 ) ;
#308 = ORIENTED_EDGE ( 'NONE', *, *, #346, .T. ) ;
#309 = CARTESIAN_POINT ( 'NONE',  ( 0.3124500000000002276, 0.0000000000000000000, 1.125000000000000000 ) ) ;
#310 = EDGE_CURVE ( 'NONE', #73, #92, #125, .T. ) ;
#311 = FACE_OUTER_BOUND ( 'NONE', #11, .T. ) ;
#312 = EDGE_CURVE ( 'NONE', #339, #217, #112, .T. ) ;
#313 = DIRECTION ( 'NONE',  ( -1.000000000000000000, 0.0000000000000000000, 0.0000000000000000000 ) ) ;
#314 = VECTOR ( 'NONE', #158, 39.37007874015748143 ) ;
#315 =( GEOMETRIC_REPRESENTATION_CONTEXT ( 3 ) GLOBAL_UNCERTAINTY_ASSIGNED_CONTEXT ( ( #330 ) ) GLOBAL_UNIT_ASSIGNED_CONTEXT ( ( #96, #243, #116 ) ) REPRESENTATION_CONTEXT ( 'NONE', 'WORKASPACE' ) );
#316 = DIRECTION ( 'NONE',  ( -0.7660444431189793457, 9.381338752702748037E-17, 0.6427876096865378086 ) ) ;
#317 = LINE ( 'NONE', #202, #8 ) ;
#318 = CARTESIAN_POINT ( 'NONE',  ( 0.0000000000000000000, 0.0000000000000000000, 1.125049999999999883 ) ) ;
#319 = AXIS2_PLACEMENT_3D ( 'NONE', #325, #94, #334 ) ;
#320 = EDGE_CURVE ( 'NONE', #14, #270, #157, .T. ) ;
#321 = DIRECTION ( 'NONE',  ( -1.000000000000000000, 0.0000000000000000000, 0.0000000000000000000 ) ) ;
#322 = ORIENTED_EDGE ( 'NONE', *, *, #238, .F. ) ;
#323 = AXIS2_PLACEMENT_3D ( 'NONE', #3, #206, #111 ) ;
#324 = EDGE_CURVE ( 'NONE', #50, #139, #257, .T. ) ;
#325 = CARTESIAN_POINT ( 'NONE',  ( 0.0000000000000000000, 0.0000000000000000000, 1.125000000000000000 ) ) ;
#326 = ORIENTED_EDGE ( 'NONE', *, *, #119, .T. ) ;
#327 = DIRECTION ( 'NONE',  ( -0.0000000000000000000, -0.0000000000000000000, -1.000000000000000000 ) ) ;
#328 = EDGE_LOOP ( 'NONE', ( #49, #30, #5, #337 ) ) ;
#329 = ORIENTED_EDGE ( 'NONE', *, *, #303, .T. ) ;
#330 = UNCERTAINTY_MEASURE_WITH_UNIT (LENGTH_MEASURE( 1.000000000000000082E-05 ), #96, 'distance_accuracy_value', 'NONE');
#331 = EDGE_CURVE ( 'NONE', #270, #14, #120, .T. ) ;
#332 = MECHANICAL_DESIGN_GEOMETRIC_PRESENTATION_REPRESENTATION (  '', ( #285 ), #93 ) ;
#333 = AXIS2_PLACEMENT_3D ( 'NONE', #10, #100, #299 ) ;
#334 = DIRECTION ( 'NONE',  ( -1.000000000000000000, 0.0000000000000000000, 0.0000000000000000000 ) ) ;
#335 = DIRECTION ( 'NONE',  ( -0.7071067811865474617, 8.659560562354932858E-17, 0.7071067811865474617 ) ) ;
#336 = DIRECTION ( 'NONE',  ( 0.0000000000000000000, 0.0000000000000000000, 1.000000000000000000 ) ) ;
#337 = ORIENTED_EDGE ( 'NONE', *, *, #119, .F. ) ;
#338 =( LENGTH_UNIT ( ) NAMED_UNIT ( * ) SI_UNIT ( $, .METRE. ) );
#339 = VERTEX_POINT ( 'NONE', #12 ) ;
#340 = CONICAL_SURFACE ( 'NONE', #182, 0.04700000000000000705, 0.8726646259971667652 ) ;
#341 = DIRECTION ( 'NONE',  ( 0.0000000000000000000, 0.0000000000000000000, 1.000000000000000000 ) ) ;
#342 = DIRECTION ( 'NONE',  ( 0.7071067811865474617, 0.0000000000000000000, 0.7071067811865474617 ) ) ;
#343 = CARTESIAN_POINT ( 'NONE',  ( 0.0000000000000000000, 0.0000000000000000000, 1.125000000000000000 ) ) ;
#344 = UNCERTAINTY_MEASURE_WITH_UNIT (LENGTH_MEASURE( 1.000000000000000082E-05 ), #216, 'distance_accuracy_value', 'NONE');
#345 = EDGE_CURVE ( 'NONE', #253, #252, #137, .T. ) ;
#346 = EDGE_CURVE ( 'NONE', #92, #73, #9, .T. ) ;
#347 = LINE ( 'NONE', #204, #129 ) ;
#348 = CYLINDRICAL_SURFACE ( 'NONE', #164, 0.3125000000000000000 ) ;
#349 = SURFACE_STYLE_FILL_AREA ( #88 ) ;
ENDSEC;
END-ISO-10303-21;
