ISO-10303-21;
HEADER;
FILE_DESCRIPTION (( 'STEP AP214' ),
    '1' );
FILE_NAME ('59767.STEP',
    '2023-07-24T15:57:01',
    ( '' ),
    ( '' ),
    'SwSTEP 2.0',
    'SolidWorks 2023',
    '' );
FILE_SCHEMA (( 'AUTOMOTIVE_DESIGN' ));
ENDSEC;

DATA;
#1 = PRESENTATION_STYLE_ASSIGNMENT (( #222 ) ) ;
#2 = SURFACE_STYLE_FILL_AREA ( #205 ) ;
#3 = AXIS2_PLACEMENT_3D ( 'NONE', #64, #214, #16 ) ;
#4 = EDGE_CURVE ( 'NONE', #119, #257, #268, .T. ) ;
#5 = FILL_AREA_STYLE_COLOUR ( '', #79 ) ;
#6 = ORIENTED_EDGE ( 'NONE', *, *, #252, .F. ) ;
#7 = MANIFOLD_SOLID_BREP ( 'Revolve - Cutting Edge', #245 ) ;
#8 = ORIENTED_EDGE ( 'NONE', *, *, #85, .F. ) ;
#9 = CYLINDRICAL_SURFACE ( 'NONE', #3, 4.999999999999997335 ) ;
#10 = CARTESIAN_POINT ( 'NONE',  ( -4.999999999999991118, 75.00000000000000000, 0.000000000000000000 ) ) ;
#11 = PRODUCT_DEFINITION_FORMATION_WITH_SPECIFIED_SOURCE ( 'ANY', '', #49, .NOT_KNOWN. ) ;
#12 = CIRCLE ( 'NONE', #122, 5.000000000000000000 ) ;
#13 =( NAMED_UNIT ( * ) PLANE_ANGLE_UNIT ( ) SI_UNIT ( $, .RADIAN. ) );
#14 = ORIENTED_EDGE ( 'NONE', *, *, #15, .F. ) ;
#15 = EDGE_CURVE ( 'NONE', #257, #119, #12, .T. ) ;
#16 = DIRECTION ( 'NONE',  ( -1.000000000000000000, 0.000000000000000000, 0.000000000000000000 ) ) ;
#17 = SURFACE_SIDE_STYLE ('',( #45 ) ) ;
#18 = EDGE_LOOP ( 'NONE', ( #75, #51, #96, #6 ) ) ;
#19 =( NAMED_UNIT ( * ) PLANE_ANGLE_UNIT ( ) SI_UNIT ( $, .RADIAN. ) );
#20 = CARTESIAN_POINT ( 'NONE',  ( 5.000000000000000000, 75.00000000000000000, 6.123233995736764310E-16 ) ) ;
#21 = FACE_OUTER_BOUND ( 'NONE', #102, .T. ) ;
#22 = SURFACE_SIDE_STYLE ('',( #224 ) ) ;
#23 = SURFACE_STYLE_USAGE ( .BOTH. , #30 ) ;
#24 = VERTEX_POINT ( 'NONE', #20 ) ;
#25 = AXIS2_PLACEMENT_3D ( 'NONE', #130, #218, #221 ) ;
#26 = EDGE_CURVE ( 'NONE', #216, #24, #172, .T. ) ;
#27 = LINE ( 'NONE', #135, #236 ) ;
#28 = ORIENTED_EDGE ( 'NONE', *, *, #94, .T. ) ;
#29 = DIRECTION ( 'NONE',  ( -1.000000000000000000, 0.000000000000000000, 0.000000000000000000 ) ) ;
#30 = SURFACE_SIDE_STYLE ('',( #165 ) ) ;
#31 = ORIENTED_EDGE ( 'NONE', *, *, #47, .F. ) ;
#32 = APPLICATION_CONTEXT ( 'automotive_design' ) ;
#33 =( NAMED_UNIT ( * ) PLANE_ANGLE_UNIT ( ) SI_UNIT ( $, .RADIAN. ) );
#34 = PRESENTATION_STYLE_ASSIGNMENT (( #283 ) ) ;
#35 = EDGE_LOOP ( 'NONE', ( #249, #206 ) ) ;
#36 = FACE_OUTER_BOUND ( 'NONE', #35, .T. ) ;
#37 = CIRCLE ( 'NONE', #198, 5.000000000000000000 ) ;
#38 = COLOUR_RGB ( '',1.000000000000000000, 0.000000000000000000, 0.000000000000000000 ) ;
#39 = CARTESIAN_POINT ( 'NONE',  ( 0.000000000000000000, 0.000000000000000000, 0.000000000000000000 ) ) ;
#40 = UNCERTAINTY_MEASURE_WITH_UNIT (LENGTH_MEASURE( 1.000000000000000082E-05 ), #286, 'distance_accuracy_value', 'NONE');
#41 = LINE ( 'NONE', #176, #173 ) ;
#42 = VECTOR ( 'NONE', #142, 1000.000000000000000 ) ;
#43 = AXIS2_PLACEMENT_3D ( 'NONE', #240, #158, #243 ) ;
#44 = SURFACE_STYLE_USAGE ( .BOTH. , #17 ) ;
#45 = SURFACE_STYLE_FILL_AREA ( #91 ) ;
#46 = CARTESIAN_POINT ( 'NONE',  ( 0.000000000000000000, 0.000000000000000000, 0.000000000000000000 ) ) ;
#47 = EDGE_CURVE ( 'NONE', #273, #24, #27, .T. ) ;
#48 = COLOUR_RGB ( '',0.7921568627450980005, 0.8196078431372548767, 0.9333333333333333481 ) ;
#49 = PRODUCT ( '59767', '59767', '', ( #195 ) ) ;
#50 = CARTESIAN_POINT ( 'NONE',  ( 0.000000000000000000, 0.000000000000000000, 0.000000000000000000 ) ) ;
#51 = ORIENTED_EDGE ( 'NONE', *, *, #99, .T. ) ;
#52 =( NAMED_UNIT ( * ) SI_UNIT ( $, .STERADIAN. ) SOLID_ANGLE_UNIT ( ) );
#53 = AXIS2_PLACEMENT_3D ( 'NONE', #124, #234, #187 ) ;
#54 = CARTESIAN_POINT ( 'NONE',  ( -7.703719777548943412E-31, 25.00000000000000000, 0.000000000000000000 ) ) ;
#55 = STYLED_ITEM ( 'NONE', ( #285 ), #217 ) ;
#56 = DIRECTION ( 'NONE',  ( -1.000000000000000000, 0.000000000000000000, 0.000000000000000000 ) ) ;
#57 = VERTEX_POINT ( 'NONE', #120 ) ;
#58 = ORIENTED_EDGE ( 'NONE', *, *, #241, .F. ) ;
#59 = AXIS2_PLACEMENT_3D ( 'NONE', #193, #67, #201 ) ;
#60 =( NAMED_UNIT ( * ) SI_UNIT ( $, .STERADIAN. ) SOLID_ANGLE_UNIT ( ) );
#61 = PRODUCT_DEFINITION_CONTEXT ( 'detailed design', #278, 'design' ) ;
#62 = SURFACE_STYLE_USAGE ( .BOTH. , #256 ) ;
#63 = CIRCLE ( 'NONE', #178, 5.000000000000000000 ) ;
#64 = CARTESIAN_POINT ( 'NONE',  ( 6.123233995736762930E-15, 75.00000000000000000, 0.000000000000000000 ) ) ;
#65 = EDGE_LOOP ( 'NONE', ( #163, #170, #71, #141 ) ) ;
#66 = FILL_AREA_STYLE_COLOUR ( '', #84 ) ;
#67 = DIRECTION ( 'NONE',  ( -0.000000000000000000, -1.000000000000000000, -0.000000000000000000 ) ) ;
#68 = CARTESIAN_POINT ( 'NONE',  ( 0.000000000000000000, 0.000000000000000000, 0.000000000000000000 ) ) ;
#69 = CARTESIAN_POINT ( 'NONE',  ( 6.123233995736766282E-16, 0.000000000000000000, 5.000000000000000000 ) ) ;
#70 =( NAMED_UNIT ( * ) PLANE_ANGLE_UNIT ( ) SI_UNIT ( $, .RADIAN. ) );
#71 = ORIENTED_EDGE ( 'NONE', *, *, #26, .F. ) ;
#72 = COLOUR_RGB ( '',1.000000000000000000, 0.000000000000000000, 0.000000000000000000 ) ;
#73 = AXIS2_PLACEMENT_3D ( 'NONE', #54, #203, #29 ) ;
#74 = FACE_OUTER_BOUND ( 'NONE', #18, .T. ) ;
#75 = ORIENTED_EDGE ( 'NONE', *, *, #241, .T. ) ;
#76 = CARTESIAN_POINT ( 'NONE',  ( 6.123233995736766282E-16, 0.000000000000000000, 5.000000000000000000 ) ) ;
#77 = PRODUCT_DEFINITION_SHAPE ( 'NONE', 'NONE',  #262 ) ;
#78 = MECHANICAL_DESIGN_GEOMETRIC_PRESENTATION_REPRESENTATION (  '', ( #272 ), #211 ) ;
#79 = COLOUR_RGB ( '',0.7921568627450980005, 0.8196078431372548767, 0.9333333333333333481 ) ;
#80 = AXIS2_PLACEMENT_3D ( 'NONE', #213, #171, #147 ) ;
#81 = FILL_AREA_STYLE_COLOUR ( '', #72 ) ;
#82 = SURFACE_STYLE_FILL_AREA ( #149 ) ;
#83 = FACE_OUTER_BOUND ( 'NONE', #65, .T. ) ;
#84 = COLOUR_RGB ( '',1.000000000000000000, 0.000000000000000000, 0.000000000000000000 ) ;
#85 = EDGE_CURVE ( 'NONE', #184, #57, #63, .T. ) ;
#86 = PLANE ( 'NONE',  #53 ) ;
#87 = CARTESIAN_POINT ( 'NONE',  ( -5.000000000000000000, 25.00000000000000000, 0.000000000000000000 ) ) ;
#88 =( LENGTH_UNIT ( ) NAMED_UNIT ( * ) SI_UNIT ( .MILLI., .METRE. ) );
#89 = CYLINDRICAL_SURFACE ( 'NONE', #25, 4.999999999999997335 ) ;
#90 = DIRECTION ( 'NONE',  ( 1.224646799147352961E-16, 1.000000000000000000, -0.000000000000000000 ) ) ;
#91 = FILL_AREA_STYLE ('',( #66 ) ) ;
#92 = ORIENTED_EDGE ( 'NONE', *, *, #4, .T. ) ;
#93 = MECHANICAL_DESIGN_GEOMETRIC_PRESENTATION_REPRESENTATION (  '', ( #254 ), #250 ) ;
#94 = EDGE_CURVE ( 'NONE', #273, #136, #37, .T. ) ;
#95 = CARTESIAN_POINT ( 'NONE',  ( 5.000000000000000000, 25.00000000000000000, 6.123233995736764310E-16 ) ) ;
#96 = ORIENTED_EDGE ( 'NONE', *, *, #4, .F. ) ;
#97 = PRESENTATION_LAYER_ASSIGNMENT (  '', '', ( #55 ) ) ;
#98 = PLANE ( 'NONE',  #199 ) ;
#99 = EDGE_CURVE ( 'NONE', #184, #257, #202, .T. ) ;
#100 = SURFACE_STYLE_USAGE ( .BOTH. , #162 ) ;
#101 = FILL_AREA_STYLE ('',( #5 ) ) ;
#102 = EDGE_LOOP ( 'NONE', ( #226, #265, #168, #14 ) ) ;
#103 =( LENGTH_UNIT ( ) NAMED_UNIT ( * ) SI_UNIT ( .MILLI., .METRE. ) );
#104 = PLANE ( 'NONE',  #114 ) ;
#105 = COLOUR_RGB ( '',1.000000000000000000, 0.000000000000000000, 0.000000000000000000 ) ;
#106 = MANIFOLD_SOLID_BREP ( 'Revolve - Tool Body (Straight Shanked)', #239 ) ;
#107 = DIRECTION ( 'NONE',  ( 1.224646799147352961E-16, 1.000000000000000000, -0.000000000000000000 ) ) ;
#108 = SHAPE_DEFINITION_REPRESENTATION ( #77, #282 ) ;
#109 = PRESENTATION_LAYER_ASSIGNMENT (  '', '', ( #231 ) ) ;
#110 = AXIS2_PLACEMENT_3D ( 'NONE', #111, #197, #288 ) ;
#111 = CARTESIAN_POINT ( 'NONE',  ( 0.000000000000000000, 25.00000000000000000, 0.000000000000000000 ) ) ;
#112 = PRESENTATION_LAYER_ASSIGNMENT (  '', '', ( #254 ) ) ;
#113 =( GEOMETRIC_REPRESENTATION_CONTEXT ( 3 ) GLOBAL_UNCERTAINTY_ASSIGNED_CONTEXT ( ( #40 ) ) GLOBAL_UNIT_ASSIGNED_CONTEXT ( ( #286, #260, #154 ) ) REPRESENTATION_CONTEXT ( 'NONE', 'WORKASPACE' ) );
#114 = AXIS2_PLACEMENT_3D ( 'NONE', #146, #107, #233 ) ;
#115 =( NAMED_UNIT ( * ) SI_UNIT ( $, .STERADIAN. ) SOLID_ANGLE_UNIT ( ) );
#116 = EDGE_CURVE ( 'NONE', #136, #273, #223, .T. ) ;
#117 = PRESENTATION_STYLE_ASSIGNMENT (( #23 ) ) ;
#118 =( GEOMETRIC_REPRESENTATION_CONTEXT ( 3 ) GLOBAL_UNCERTAINTY_ASSIGNED_CONTEXT ( ( #215 ) ) GLOBAL_UNIT_ASSIGNED_CONTEXT ( ( #186, #164, #246 ) ) REPRESENTATION_CONTEXT ( 'NONE', 'WORKASPACE' ) );
#119 = VERTEX_POINT ( 'NONE', #271 ) ;
#120 = CARTESIAN_POINT ( 'NONE',  ( 0.000000000000000000, 25.00000000000000000, -5.000000000000000000 ) ) ;
#121 = ADVANCED_FACE ( 'NONE', ( #230 ), #98, .T. ) ;
#122 = AXIS2_PLACEMENT_3D ( 'NONE', #68, #132, #129 ) ;
#123 = SURFACE_STYLE_FILL_AREA ( #190 ) ;
#124 = CARTESIAN_POINT ( 'NONE',  ( 5.000000000000000000, 75.00000000000000000, 0.000000000000000000 ) ) ;
#125 = ADVANCED_FACE ( 'NONE', ( #74 ), #248, .T. ) ;
#126 =( GEOMETRIC_REPRESENTATION_CONTEXT ( 3 ) GLOBAL_UNCERTAINTY_ASSIGNED_CONTEXT ( ( #148 ) ) GLOBAL_UNIT_ASSIGNED_CONTEXT ( ( #88, #70, #261 ) ) REPRESENTATION_CONTEXT ( 'NONE', 'WORKASPACE' ) );
#127 = FACE_OUTER_BOUND ( 'NONE', #247, .T. ) ;
#128 = LINE ( 'NONE', #10, #227 ) ;
#129 = DIRECTION ( 'NONE',  ( 0.000000000000000000, 0.000000000000000000, -1.000000000000000000 ) ) ;
#130 = CARTESIAN_POINT ( 'NONE',  ( 6.123233995736762930E-15, 75.00000000000000000, 0.000000000000000000 ) ) ;
#131 = CARTESIAN_POINT ( 'NONE',  ( 0.000000000000000000, 0.000000000000000000, 0.000000000000000000 ) ) ;
#132 = DIRECTION ( 'NONE',  ( -0.000000000000000000, -1.000000000000000000, -0.000000000000000000 ) ) ;
#133 = ORIENTED_EDGE ( 'NONE', *, *, #94, .F. ) ;
#134 = EDGE_CURVE ( 'NONE', #24, #216, #237, .T. ) ;
#135 = CARTESIAN_POINT ( 'NONE',  ( 5.000000000000003553, 75.00000000000000000, 6.123233995736763324E-16 ) ) ;
#136 = VERTEX_POINT ( 'NONE', #87 ) ;
#137 = FILL_AREA_STYLE_COLOUR ( '', #105 ) ;
#138 = ORIENTED_EDGE ( 'NONE', *, *, #182, .T. ) ;
#139 = PRODUCT_RELATED_PRODUCT_CATEGORY ( 'part', '', ( #49 ) ) ;
#140 = PRESENTATION_STYLE_ASSIGNMENT (( #100 ) ) ;
#141 = ORIENTED_EDGE ( 'NONE', *, *, #182, .F. ) ;
#142 = DIRECTION ( 'NONE',  ( -0.000000000000000000, -1.000000000000000000, -0.000000000000000000 ) ) ;
#143 = ORIENTED_EDGE ( 'NONE', *, *, #15, .T. ) ;
#144 =( NAMED_UNIT ( * ) PLANE_ANGLE_UNIT ( ) SI_UNIT ( $, .RADIAN. ) );
#145 = MECHANICAL_DESIGN_GEOMETRIC_PRESENTATION_REPRESENTATION (  '', ( #231 ), #235 ) ;
#146 = CARTESIAN_POINT ( 'NONE',  ( 3.749399456654642377E-32, 25.00000000000000000, 0.000000000000000000 ) ) ;
#147 = DIRECTION ( 'NONE',  ( -1.000000000000000000, 0.000000000000000000, 0.000000000000000000 ) ) ;
#148 = UNCERTAINTY_MEASURE_WITH_UNIT (LENGTH_MEASURE( 1.000000000000000082E-05 ), #88, 'distance_accuracy_value', 'NONE');
#149 = FILL_AREA_STYLE ('',( #137 ) ) ;
#150 = DIRECTION ( 'NONE',  ( -0.000000000000000000, -1.000000000000000000, -0.000000000000000000 ) ) ;
#151 = AXIS2_PLACEMENT_3D ( 'NONE', #46, #244, #180 ) ;
#152 = DIRECTION ( 'NONE',  ( 0.000000000000000000, 0.000000000000000000, -1.000000000000000000 ) ) ;
#153 = CYLINDRICAL_SURFACE ( 'NONE', #219, 5.000000000000000000 ) ;
#154 =( NAMED_UNIT ( * ) SI_UNIT ( $, .STERADIAN. ) SOLID_ANGLE_UNIT ( ) );
#155 = APPLICATION_PROTOCOL_DEFINITION ( 'draft international standard', 'automotive_design', 1998, #32 ) ;
#156 = DIRECTION ( 'NONE',  ( -1.000000000000000000, 0.000000000000000000, 0.000000000000000000 ) ) ;
#157 = ADVANCED_FACE ( 'NONE', ( #83 ), #9, .T. ) ;
#158 = DIRECTION ( 'NONE',  ( 0.000000000000000000, 0.000000000000000000, 1.000000000000000000 ) ) ;
#159 = EDGE_LOOP ( 'NONE', ( #92, #143 ) ) ;
#160 = DIRECTION ( 'NONE',  ( -0.000000000000000000, -1.000000000000000000, -0.000000000000000000 ) ) ;
#161 = MECHANICAL_DESIGN_GEOMETRIC_PRESENTATION_REPRESENTATION (  '', ( #232 ), #113 ) ;
#162 = SURFACE_SIDE_STYLE ('',( #2 ) ) ;
#163 = ORIENTED_EDGE ( 'NONE', *, *, #116, .T. ) ;
#164 =( NAMED_UNIT ( * ) PLANE_ANGLE_UNIT ( ) SI_UNIT ( $, .RADIAN. ) );
#165 = SURFACE_STYLE_FILL_AREA ( #101 ) ;
#166 = EDGE_LOOP ( 'NONE', ( #58, #8 ) ) ;
#167 =( GEOMETRIC_REPRESENTATION_CONTEXT ( 3 ) GLOBAL_UNCERTAINTY_ASSIGNED_CONTEXT ( ( #279 ) ) GLOBAL_UNIT_ASSIGNED_CONTEXT ( ( #264, #19, #115 ) ) REPRESENTATION_CONTEXT ( 'NONE', 'WORKASPACE' ) );
#168 = ORIENTED_EDGE ( 'NONE', *, *, #252, .T. ) ;
#169 = DIRECTION ( 'NONE',  ( -0.000000000000000000, -1.000000000000000000, -0.000000000000000000 ) ) ;
#170 = ORIENTED_EDGE ( 'NONE', *, *, #47, .T. ) ;
#171 = DIRECTION ( 'NONE',  ( 1.224646799147352961E-16, 1.000000000000000000, -0.000000000000000000 ) ) ;
#172 = CIRCLE ( 'NONE', #263, 4.999999999999993783 ) ;
#173 = VECTOR ( 'NONE', #160, 1000.000000000000000 ) ;
#174 = DIRECTION ( 'NONE',  ( 1.224646799147352961E-16, 1.000000000000000000, -0.000000000000000000 ) ) ;
#175 = CARTESIAN_POINT ( 'NONE',  ( 6.123233995736766282E-16, 25.00000000000000000, 5.000000000000000000 ) ) ;
#176 = CARTESIAN_POINT ( 'NONE',  ( 0.000000000000000000, 0.000000000000000000, -5.000000000000000000 ) ) ;
#177 = FILL_AREA_STYLE ('',( #267 ) ) ;
#178 = AXIS2_PLACEMENT_3D ( 'NONE', #207, #169, #228 ) ;
#179 = ADVANCED_FACE ( 'NONE', ( #36 ), #86, .F. ) ;
#180 = DIRECTION ( 'NONE',  ( 0.000000000000000000, 0.000000000000000000, -1.000000000000000000 ) ) ;
#181 = DIRECTION ( 'NONE',  ( 0.000000000000000000, -1.000000000000000000, -0.000000000000000000 ) ) ;
#182 = EDGE_CURVE ( 'NONE', #136, #216, #128, .T. ) ;
#183 = DIRECTION ( 'NONE',  ( 1.224646799147352961E-16, 1.000000000000000000, -0.000000000000000000 ) ) ;
#184 = VERTEX_POINT ( 'NONE', #175 ) ;
#185 = PRESENTATION_LAYER_ASSIGNMENT (  '', '', ( #232 ) ) ;
#186 =( LENGTH_UNIT ( ) NAMED_UNIT ( * ) SI_UNIT ( .MILLI., .METRE. ) );
#187 = DIRECTION ( 'NONE',  ( 1.000000000000000000, -1.224646799147352961E-16, 0.000000000000000000 ) ) ;
#188 = FACE_OUTER_BOUND ( 'NONE', #166, .T. ) ;
#189 = CIRCLE ( 'NONE', #59, 5.000000000000000000 ) ;
#190 = FILL_AREA_STYLE ('',( #277 ) ) ;
#191 = ADVANCED_FACE ( 'NONE', ( #127 ), #104, .F. ) ;
#192 = SURFACE_SIDE_STYLE ('',( #123 ) ) ;
#193 = CARTESIAN_POINT ( 'NONE',  ( 0.000000000000000000, 25.00000000000000000, 0.000000000000000000 ) ) ;
#194 = STYLED_ITEM ( 'NONE', ( #117 ), #106 ) ;
#195 = PRODUCT_CONTEXT ( 'NONE', #32, 'mechanical' ) ;
#196 = CARTESIAN_POINT ( 'NONE',  ( 6.123233995736762930E-15, 75.00000000000000000, 0.000000000000000000 ) ) ;
#197 = DIRECTION ( 'NONE',  ( 0.000000000000000000, 1.000000000000000000, 0.000000000000000000 ) ) ;
#198 = AXIS2_PLACEMENT_3D ( 'NONE', #225, #229, #56 ) ;
#199 = AXIS2_PLACEMENT_3D ( 'NONE', #50, #181, #270 ) ;
#200 = ADVANCED_FACE ( 'NONE', ( #188 ), #209, .T. ) ;
#201 = DIRECTION ( 'NONE',  ( 0.000000000000000000, 0.000000000000000000, -1.000000000000000000 ) ) ;
#202 = LINE ( 'NONE', #76, #42 ) ;
#203 = DIRECTION ( 'NONE',  ( 1.224646799147352961E-16, 1.000000000000000000, -0.000000000000000000 ) ) ;
#204 = MECHANICAL_DESIGN_GEOMETRIC_PRESENTATION_REPRESENTATION (  '', ( #194 ), #118 ) ;
#205 = FILL_AREA_STYLE ('',( #81 ) ) ;
#206 = ORIENTED_EDGE ( 'NONE', *, *, #134, .T. ) ;
#207 = CARTESIAN_POINT ( 'NONE',  ( 0.000000000000000000, 25.00000000000000000, 0.000000000000000000 ) ) ;
#208 = PRESENTATION_STYLE_ASSIGNMENT (( #62 ) ) ;
#209 = PLANE ( 'NONE',  #110 ) ;
#210 = ADVANCED_FACE ( 'NONE', ( #259 ), #89, .T. ) ;
#211 =( GEOMETRIC_REPRESENTATION_CONTEXT ( 3 ) GLOBAL_UNCERTAINTY_ASSIGNED_CONTEXT ( ( #255 ) ) GLOBAL_UNIT_ASSIGNED_CONTEXT ( ( #258, #13, #280 ) ) REPRESENTATION_CONTEXT ( 'NONE', 'WORKASPACE' ) );
#212 = UNCERTAINTY_MEASURE_WITH_UNIT (LENGTH_MEASURE( 1.000000000000000082E-05 ), #103, 'distance_accuracy_value', 'NONE');
#213 = CARTESIAN_POINT ( 'NONE',  ( 6.123233995736762930E-15, 75.00000000000000000, 0.000000000000000000 ) ) ;
#214 = DIRECTION ( 'NONE',  ( 1.224646799147352961E-16, 1.000000000000000000, -0.000000000000000000 ) ) ;
#215 = UNCERTAINTY_MEASURE_WITH_UNIT (LENGTH_MEASURE( 1.000000000000000082E-05 ), #186, 'distance_accuracy_value', 'NONE');
#216 = VERTEX_POINT ( 'NONE', #287 ) ;
#217 = ADVANCED_FACE ( 'NONE', ( #21 ), #153, .T. ) ;
#218 = DIRECTION ( 'NONE',  ( 1.224646799147352961E-16, 1.000000000000000000, -0.000000000000000000 ) ) ;
#219 = AXIS2_PLACEMENT_3D ( 'NONE', #131, #238, #242 ) ;
#220 = ORIENTED_EDGE ( 'NONE', *, *, #134, .F. ) ;
#221 = DIRECTION ( 'NONE',  ( -1.000000000000000000, 0.000000000000000000, 0.000000000000000000 ) ) ;
#222 = SURFACE_STYLE_USAGE ( .BOTH. , #22 ) ;
#223 = CIRCLE ( 'NONE', #73, 5.000000000000000000 ) ;
#224 = SURFACE_STYLE_FILL_AREA ( #177 ) ;
#225 = CARTESIAN_POINT ( 'NONE',  ( -7.703719777548943412E-31, 25.00000000000000000, 0.000000000000000000 ) ) ;
#226 = ORIENTED_EDGE ( 'NONE', *, *, #99, .F. ) ;
#227 = VECTOR ( 'NONE', #174, 1000.000000000000000 ) ;
#228 = DIRECTION ( 'NONE',  ( 0.000000000000000000, 0.000000000000000000, -1.000000000000000000 ) ) ;
#229 = DIRECTION ( 'NONE',  ( 1.224646799147352961E-16, 1.000000000000000000, -0.000000000000000000 ) ) ;
#230 = FACE_OUTER_BOUND ( 'NONE', #159, .T. ) ;
#231 = STYLED_ITEM ( 'NONE', ( #140 ), #121 ) ;
#232 = STYLED_ITEM ( 'NONE', ( #1 ), #7 ) ;
#233 = DIRECTION ( 'NONE',  ( -1.000000000000000000, 1.224646799147352961E-16, 0.000000000000000000 ) ) ;
#234 = DIRECTION ( 'NONE',  ( -1.224646799147352961E-16, -1.000000000000000000, 0.000000000000000000 ) ) ;
#235 =( GEOMETRIC_REPRESENTATION_CONTEXT ( 3 ) GLOBAL_UNCERTAINTY_ASSIGNED_CONTEXT ( ( #284 ) ) GLOBAL_UNIT_ASSIGNED_CONTEXT ( ( #253, #144, #52 ) ) REPRESENTATION_CONTEXT ( 'NONE', 'WORKASPACE' ) );
#236 = VECTOR ( 'NONE', #183, 1000.000000000000000 ) ;
#237 = CIRCLE ( 'NONE', #80, 4.999999999999993783 ) ;
#238 = DIRECTION ( 'NONE',  ( -0.000000000000000000, -1.000000000000000000, -0.000000000000000000 ) ) ;
#239 = CLOSED_SHELL ( 'NONE', ( #157, #191, #210, #179 ) ) ;
#240 = CARTESIAN_POINT ( 'NONE',  ( 0.000000000000000000, 0.000000000000000000, 0.000000000000000000 ) ) ;
#241 = EDGE_CURVE ( 'NONE', #57, #184, #189, .T. ) ;
#242 = DIRECTION ( 'NONE',  ( 0.000000000000000000, 0.000000000000000000, -1.000000000000000000 ) ) ;
#243 = DIRECTION ( 'NONE',  ( 1.000000000000000000, 0.000000000000000000, 0.000000000000000000 ) ) ;
#244 = DIRECTION ( 'NONE',  ( -0.000000000000000000, -1.000000000000000000, -0.000000000000000000 ) ) ;
#245 = CLOSED_SHELL ( 'NONE', ( #125, #200, #217, #121 ) ) ;
#246 =( NAMED_UNIT ( * ) SI_UNIT ( $, .STERADIAN. ) SOLID_ANGLE_UNIT ( ) );
#247 = EDGE_LOOP ( 'NONE', ( #281, #133 ) ) ;
#248 = CYLINDRICAL_SURFACE ( 'NONE', #251, 5.000000000000000000 ) ;
#249 = ORIENTED_EDGE ( 'NONE', *, *, #26, .T. ) ;
#250 =( GEOMETRIC_REPRESENTATION_CONTEXT ( 3 ) GLOBAL_UNCERTAINTY_ASSIGNED_CONTEXT ( ( #212 ) ) GLOBAL_UNIT_ASSIGNED_CONTEXT ( ( #103, #33, #60 ) ) REPRESENTATION_CONTEXT ( 'NONE', 'WORKASPACE' ) );
#251 = AXIS2_PLACEMENT_3D ( 'NONE', #39, #150, #152 ) ;
#252 = EDGE_CURVE ( 'NONE', #57, #119, #41, .T. ) ;
#253 =( LENGTH_UNIT ( ) NAMED_UNIT ( * ) SI_UNIT ( .MILLI., .METRE. ) );
#254 = STYLED_ITEM ( 'NONE', ( #208 ), #125 ) ;
#255 = UNCERTAINTY_MEASURE_WITH_UNIT (LENGTH_MEASURE( 1.000000000000000082E-05 ), #258, 'distance_accuracy_value', 'NONE');
#256 = SURFACE_SIDE_STYLE ('',( #82 ) ) ;
#257 = VERTEX_POINT ( 'NONE', #69 ) ;
#258 =( LENGTH_UNIT ( ) NAMED_UNIT ( * ) SI_UNIT ( .MILLI., .METRE. ) );
#259 = FACE_OUTER_BOUND ( 'NONE', #276, .T. ) ;
#260 =( NAMED_UNIT ( * ) PLANE_ANGLE_UNIT ( ) SI_UNIT ( $, .RADIAN. ) );
#261 =( NAMED_UNIT ( * ) SI_UNIT ( $, .STERADIAN. ) SOLID_ANGLE_UNIT ( ) );
#262 = PRODUCT_DEFINITION ( 'UNKNOWN', '', #11, #61 ) ;
#263 = AXIS2_PLACEMENT_3D ( 'NONE', #196, #90, #156 ) ;
#264 =( LENGTH_UNIT ( ) NAMED_UNIT ( * ) SI_UNIT ( .MILLI., .METRE. ) );
#265 = ORIENTED_EDGE ( 'NONE', *, *, #85, .T. ) ;
#266 = APPLICATION_PROTOCOL_DEFINITION ( 'draft international standard', 'automotive_design', 1998, #278 ) ;
#267 = FILL_AREA_STYLE_COLOUR ( '', #48 ) ;
#268 = CIRCLE ( 'NONE', #151, 5.000000000000000000 ) ;
#269 = MECHANICAL_DESIGN_GEOMETRIC_PRESENTATION_REPRESENTATION (  '', ( #55 ), #126 ) ;
#270 = DIRECTION ( 'NONE',  ( 0.000000000000000000, 0.000000000000000000, -1.000000000000000000 ) ) ;
#271 = CARTESIAN_POINT ( 'NONE',  ( 0.000000000000000000, 0.000000000000000000, -5.000000000000000000 ) ) ;
#272 = STYLED_ITEM ( 'NONE', ( #34 ), #200 ) ;
#273 = VERTEX_POINT ( 'NONE', #95 ) ;
#274 = PRESENTATION_LAYER_ASSIGNMENT (  '', '', ( #194 ) ) ;
#275 = PRESENTATION_LAYER_ASSIGNMENT (  '', '', ( #272 ) ) ;
#276 = EDGE_LOOP ( 'NONE', ( #31, #28, #138, #220 ) ) ;
#277 = FILL_AREA_STYLE_COLOUR ( '', #38 ) ;
#278 = APPLICATION_CONTEXT ( 'automotive_design' ) ;
#279 = UNCERTAINTY_MEASURE_WITH_UNIT (LENGTH_MEASURE( 1.000000000000000082E-05 ), #264, 'distance_accuracy_value', 'NONE');
#280 =( NAMED_UNIT ( * ) SI_UNIT ( $, .STERADIAN. ) SOLID_ANGLE_UNIT ( ) );
#281 = ORIENTED_EDGE ( 'NONE', *, *, #116, .F. ) ;
#282 = ADVANCED_BREP_SHAPE_REPRESENTATION ( '59767', ( #7, #106, #43 ), #167 ) ;
#283 = SURFACE_STYLE_USAGE ( .BOTH. , #192 ) ;
#284 = UNCERTAINTY_MEASURE_WITH_UNIT (LENGTH_MEASURE( 1.000000000000000082E-05 ), #253, 'distance_accuracy_value', 'NONE');
#285 = PRESENTATION_STYLE_ASSIGNMENT (( #44 ) ) ;
#286 =( LENGTH_UNIT ( ) NAMED_UNIT ( * ) SI_UNIT ( .MILLI., .METRE. ) );
#287 = CARTESIAN_POINT ( 'NONE',  ( -4.999999999999987566, 75.00000000000000000, 0.000000000000000000 ) ) ;
#288 = DIRECTION ( 'NONE',  ( 0.000000000000000000, -0.000000000000000000, 1.000000000000000000 ) ) ;
ENDSEC;
END-ISO-10303-21;
