ISO-10303-21;
HEADER;
FILE_DESCRIPTION (( 'STEP AP214' ),
    '1' );
FILE_NAME ('30317.STEP',
    '2023-06-22T18:17:05',
    ( '' ),
    ( '' ),
    'SwSTEP 2.0',
    'SolidWorks 2023',
    '' );
FILE_SCHEMA (( 'AUTOMOTIVE_DESIGN' ));
ENDSEC;

DATA;
#1 = AXIS2_PLACEMENT_3D ( 'NONE', #140, #117, #73 ) ;
#2 = CARTESIAN_POINT ( 'NONE',  ( 0.000000000000000000, 0.000000000000000000, 0.000000000000000000 ) ) ;
#3 = AXIS2_PLACEMENT_3D ( 'NONE', #269, #82, #150 ) ;
#4 = ORIENTED_EDGE ( 'NONE', *, *, #155, .F. ) ;
#5 = SURFACE_SIDE_STYLE ('',( #240 ) ) ;
#6 = EDGE_CURVE ( 'NONE', #37, #259, #125, .T. ) ;
#7 = SURFACE_STYLE_FILL_AREA ( #32 ) ;
#8 = EDGE_LOOP ( 'NONE', ( #230, #67 ) ) ;
#9 =( NAMED_UNIT ( * ) SI_UNIT ( $, .STERADIAN. ) SOLID_ANGLE_UNIT ( ) );
#10 = STYLED_ITEM ( 'NONE', ( #44 ), #170 ) ;
#11 = LENGTH_MEASURE_WITH_UNIT ( LENGTH_MEASURE( 0.02539999999999999897 ), #121 );
#12 = CARTESIAN_POINT ( 'NONE',  ( 0.000000000000000000, 0.000000000000000000, 0.000000000000000000 ) ) ;
#13 =( NAMED_UNIT ( * ) PLANE_ANGLE_UNIT ( ) SI_UNIT ( $, .RADIAN. ) );
#14 = PRODUCT ( '30317', '30317', '', ( #149 ) ) ;
#15 = AXIS2_PLACEMENT_3D ( 'NONE', #192, #54, #141 ) ;
#16 = CIRCLE ( 'NONE', #181, 0.1874999999999998890 ) ;
#17 = SURFACE_STYLE_FILL_AREA ( #138 ) ;
#18 = PLANE ( 'NONE',  #26 ) ;
#19 = DIRECTION ( 'NONE',  ( 8.164311994315692567E-17, 1.000000000000000000, -0.000000000000000000 ) ) ;
#20 = CLOSED_SHELL ( 'NONE', ( #48, #264, #293, #57 ) ) ;
#21 = PLANE ( 'NONE',  #61 ) ;
#22 = CARTESIAN_POINT ( 'NONE',  ( 0.1875000000000000833, 2.000000000000000000, 2.296212748401286493E-17 ) ) ;
#23 =( CONVERSION_BASED_UNIT ( 'INCH', #275 ) LENGTH_UNIT ( ) NAMED_UNIT ( #33 ) );
#24 =( LENGTH_UNIT ( ) NAMED_UNIT ( * ) SI_UNIT ( $, .METRE. ) );
#25 = DIRECTION ( 'NONE',  ( -0.000000000000000000, -1.000000000000000000, -0.000000000000000000 ) ) ;
#26 = AXIS2_PLACEMENT_3D ( 'NONE', #271, #248, #184 ) ;
#27 = UNCERTAINTY_MEASURE_WITH_UNIT (LENGTH_MEASURE( 1.000000000000000082E-05 ), #126, 'distance_accuracy_value', 'NONE');
#28 =( NAMED_UNIT ( * ) SI_UNIT ( $, .STERADIAN. ) SOLID_ANGLE_UNIT ( ) );
#29 = ORIENTED_EDGE ( 'NONE', *, *, #88, .F. ) ;
#30 = APPLICATION_CONTEXT ( 'automotive_design' ) ;
#31 = ORIENTED_EDGE ( 'NONE', *, *, #113, .F. ) ;
#32 = FILL_AREA_STYLE ('',( #285 ) ) ;
#33 = DIMENSIONAL_EXPONENTS ( 1.000000000000000000, 0.000000000000000000, 0.000000000000000000, 0.000000000000000000, 0.000000000000000000, 0.000000000000000000, 0.000000000000000000 ) ;
#34 = ORIENTED_EDGE ( 'NONE', *, *, #113, .T. ) ;
#35 = VECTOR ( 'NONE', #116, 39.37007874015748143 ) ;
#36 =( NAMED_UNIT ( * ) SI_UNIT ( $, .STERADIAN. ) SOLID_ANGLE_UNIT ( ) );
#37 = VERTEX_POINT ( 'NONE', #146 ) ;
#38 = MANIFOLD_SOLID_BREP ( 'Revolve - Tool Body (Straight Shanked)', #20 ) ;
#39 = AXIS2_PLACEMENT_3D ( 'NONE', #114, #25, #283 ) ;
#40 = EDGE_CURVE ( 'NONE', #279, #193, #142, .T. ) ;
#41 = CARTESIAN_POINT ( 'NONE',  ( 6.248999094424413542E-34, 0.5000000000000000000, 0.000000000000000000 ) ) ;
#42 =( LENGTH_UNIT ( ) NAMED_UNIT ( * ) SI_UNIT ( $, .METRE. ) );
#43 = STYLED_ITEM ( 'NONE', ( #235 ), #160 ) ;
#44 = PRESENTATION_STYLE_ASSIGNMENT (( #300 ) ) ;
#45 = CLOSED_SHELL ( 'NONE', ( #160, #175, #170, #130 ) ) ;
#46 = DIRECTION ( 'NONE',  ( -1.000000000000000000, 0.000000000000000000, 0.000000000000000000 ) ) ;
#47 = APPLICATION_CONTEXT ( 'automotive_design' ) ;
#48 = ADVANCED_FACE ( 'NONE', ( #287 ), #68, .T. ) ;
#49 = VECTOR ( 'NONE', #110, 39.37007874015748143 ) ;
#50 = FILL_AREA_STYLE ('',( #232 ) ) ;
#51 = CIRCLE ( 'NONE', #197, 0.1875000000000000278 ) ;
#52 = CARTESIAN_POINT ( 'NONE',  ( -0.1874999999999998057, 2.000000000000000000, 0.000000000000000000 ) ) ;
#53 = DIRECTION ( 'NONE',  ( 0.000000000000000000, 1.000000000000000000, 0.000000000000000000 ) ) ;
#54 = DIRECTION ( 'NONE',  ( -0.000000000000000000, -1.000000000000000000, -0.000000000000000000 ) ) ;
#55 = FILL_AREA_STYLE_COLOUR ( '', #159 ) ;
#56 = AXIS2_PLACEMENT_3D ( 'NONE', #105, #53, #291 ) ;
#57 = ADVANCED_FACE ( 'NONE', ( #302 ), #18, .F. ) ;
#58 = CIRCLE ( 'NONE', #1, 0.1875000000000000278 ) ;
#59 = CARTESIAN_POINT ( 'NONE',  ( 0.000000000000000000, 0.5000000000000000000, 0.000000000000000000 ) ) ;
#60 = DIRECTION ( 'NONE',  ( 8.164311994315692567E-17, 1.000000000000000000, -0.000000000000000000 ) ) ;
#61 = AXIS2_PLACEMENT_3D ( 'NONE', #41, #19, #86 ) ;
#62 = SURFACE_SIDE_STYLE ('',( #162 ) ) ;
#63 = VERTEX_POINT ( 'NONE', #225 ) ;
#64 = PRESENTATION_LAYER_ASSIGNMENT (  '', '', ( #108 ) ) ;
#65 = EDGE_LOOP ( 'NONE', ( #29, #34, #120, #213 ) ) ;
#66 =( LENGTH_UNIT ( ) NAMED_UNIT ( * ) SI_UNIT ( $, .METRE. ) );
#67 = ORIENTED_EDGE ( 'NONE', *, *, #107, .T. ) ;
#68 = CYLINDRICAL_SURFACE ( 'NONE', #209, 0.1874999999999999445 ) ;
#69 = AXIS2_PLACEMENT_3D ( 'NONE', #2, #164, #286 ) ;
#70 = VERTEX_POINT ( 'NONE', #186 ) ;
#71 = CARTESIAN_POINT ( 'NONE',  ( 2.296212748401287726E-17, 0.000000000000000000, 0.1875000000000000278 ) ) ;
#72 = EDGE_CURVE ( 'NONE', #63, #279, #305, .T. ) ;
#73 = DIRECTION ( 'NONE',  ( -1.000000000000000000, 0.000000000000000000, 0.000000000000000000 ) ) ;
#74 = UNCERTAINTY_MEASURE_WITH_UNIT (LENGTH_MEASURE( 1.000000000000000082E-05 ), #241, 'distance_accuracy_value', 'NONE');
#75 = EDGE_LOOP ( 'NONE', ( #173, #127, #123, #189 ) ) ;
#76 = ORIENTED_EDGE ( 'NONE', *, *, #6, .F. ) ;
#77 = DIMENSIONAL_EXPONENTS ( 1.000000000000000000, 0.000000000000000000, 0.000000000000000000, 0.000000000000000000, 0.000000000000000000, 0.000000000000000000, 0.000000000000000000 ) ;
#78 = UNCERTAINTY_MEASURE_WITH_UNIT (LENGTH_MEASURE( 1.000000000000000082E-05 ), #23, 'distance_accuracy_value', 'NONE');
#79 = COLOUR_RGB ( '',1.000000000000000000, 0.000000000000000000, 0.000000000000000000 ) ;
#80 =( GEOMETRIC_REPRESENTATION_CONTEXT ( 3 ) GLOBAL_UNCERTAINTY_ASSIGNED_CONTEXT ( ( #91 ) ) GLOBAL_UNIT_ASSIGNED_CONTEXT ( ( #133, #267, #153 ) ) REPRESENTATION_CONTEXT ( 'NONE', 'WORKASPACE' ) );
#81 = CARTESIAN_POINT ( 'NONE',  ( 0.000000000000000000, 0.000000000000000000, -0.1875000000000000278 ) ) ;
#82 = DIRECTION ( 'NONE',  ( 0.000000000000000000, 0.000000000000000000, 1.000000000000000000 ) ) ;
#83 = STYLED_ITEM ( 'NONE', ( #262 ), #38 ) ;
#84 = STYLED_ITEM ( 'NONE', ( #237 ), #175 ) ;
#85 = CYLINDRICAL_SURFACE ( 'NONE', #260, 0.1874999999999999445 ) ;
#86 = DIRECTION ( 'NONE',  ( -1.000000000000000000, 8.164311994315692567E-17, 0.000000000000000000 ) ) ;
#87 = SURFACE_STYLE_USAGE ( .BOTH. , #62 ) ;
#88 = EDGE_CURVE ( 'NONE', #101, #70, #254, .T. ) ;
#89 = VECTOR ( 'NONE', #145, 39.37007874015748143 ) ;
#90 = DIRECTION ( 'NONE',  ( 8.164311994315692567E-17, 1.000000000000000000, -0.000000000000000000 ) ) ;
#91 = UNCERTAINTY_MEASURE_WITH_UNIT (LENGTH_MEASURE( 1.000000000000000082E-05 ), #133, 'distance_accuracy_value', 'NONE');
#92 = ORIENTED_EDGE ( 'NONE', *, *, #72, .T. ) ;
#93 = COLOUR_RGB ( '',0.7921568627450980005, 0.8196078431372548767, 0.9333333333333333481 ) ;
#94 = AXIS2_PLACEMENT_3D ( 'NONE', #147, #216, #178 ) ;
#95 = SURFACE_STYLE_USAGE ( .BOTH. , #119 ) ;
#96 = SURFACE_STYLE_USAGE ( .BOTH. , #5 ) ;
#97 = SURFACE_STYLE_USAGE ( .BOTH. , #265 ) ;
#98 = ORIENTED_EDGE ( 'NONE', *, *, #199, .F. ) ;
#99 = DIMENSIONAL_EXPONENTS ( 1.000000000000000000, 0.000000000000000000, 0.000000000000000000, 0.000000000000000000, 0.000000000000000000, 0.000000000000000000, 0.000000000000000000 ) ;
#100 =( NAMED_UNIT ( * ) PLANE_ANGLE_UNIT ( ) SI_UNIT ( $, .RADIAN. ) );
#101 = VERTEX_POINT ( 'NONE', #227 ) ;
#102 = PRODUCT_RELATED_PRODUCT_CATEGORY ( 'part', '', ( #14 ) ) ;
#103 =( NAMED_UNIT ( * ) SI_UNIT ( $, .STERADIAN. ) SOLID_ANGLE_UNIT ( ) );
#104 = EDGE_LOOP ( 'NONE', ( #215, #295, #92, #219 ) ) ;
#105 = CARTESIAN_POINT ( 'NONE',  ( 0.000000000000000000, 0.5000000000000000000, 0.000000000000000000 ) ) ;
#106 = DIRECTION ( 'NONE',  ( -0.000000000000000000, -1.000000000000000000, -0.000000000000000000 ) ) ;
#107 = EDGE_CURVE ( 'NONE', #193, #279, #154, .T. ) ;
#108 = STYLED_ITEM ( 'NONE', ( #308 ), #130 ) ;
#109 = CYLINDRICAL_SURFACE ( 'NONE', #234, 0.1875000000000000278 ) ;
#110 = DIRECTION ( 'NONE',  ( -0.000000000000000000, -1.000000000000000000, -0.000000000000000000 ) ) ;
#111 = DIRECTION ( 'NONE',  ( 8.164311994315692567E-17, 1.000000000000000000, -0.000000000000000000 ) ) ;
#112 = CARTESIAN_POINT ( 'NONE',  ( 2.296212748401287726E-17, 0.5000000000000000000, 0.1875000000000000278 ) ) ;
#113 = EDGE_CURVE ( 'NONE', #101, #37, #207, .T. ) ;
#114 = CARTESIAN_POINT ( 'NONE',  ( 0.000000000000000000, 0.000000000000000000, 0.000000000000000000 ) ) ;
#115 = VECTOR ( 'NONE', #90, 39.37007874015748143 ) ;
#116 = DIRECTION ( 'NONE',  ( -0.000000000000000000, -1.000000000000000000, -0.000000000000000000 ) ) ;
#117 = DIRECTION ( 'NONE',  ( 8.164311994315692567E-17, 1.000000000000000000, -0.000000000000000000 ) ) ;
#118 = EDGE_LOOP ( 'NONE', ( #4, #31 ) ) ;
#119 = SURFACE_SIDE_STYLE ('',( #144 ) ) ;
#120 = ORIENTED_EDGE ( 'NONE', *, *, #6, .T. ) ;
#121 =( LENGTH_UNIT ( ) NAMED_UNIT ( * ) SI_UNIT ( $, .METRE. ) );
#122 =( CONVERSION_BASED_UNIT ( 'INCH', #229 ) LENGTH_UNIT ( ) NAMED_UNIT ( #128 ) );
#123 = ORIENTED_EDGE ( 'NONE', *, *, #40, .F. ) ;
#124 = AXIS2_PLACEMENT_3D ( 'NONE', #136, #176, #174 ) ;
#125 = LINE ( 'NONE', #52, #89 ) ;
#126 =( CONVERSION_BASED_UNIT ( 'INCH', #11 ) LENGTH_UNIT ( ) NAMED_UNIT ( #220 ) );
#127 = ORIENTED_EDGE ( 'NONE', *, *, #288, .T. ) ;
#128 = DIMENSIONAL_EXPONENTS ( 1.000000000000000000, 0.000000000000000000, 0.000000000000000000, 0.000000000000000000, 0.000000000000000000, 0.000000000000000000, 0.000000000000000000 ) ;
#129 = PRESENTATION_LAYER_ASSIGNMENT (  '', '', ( #290 ) ) ;
#130 = ADVANCED_FACE ( 'NONE', ( #253 ), #139, .T. ) ;
#131 = MECHANICAL_DESIGN_GEOMETRIC_PRESENTATION_REPRESENTATION (  '', ( #83 ), #276 ) ;
#132 = AXIS2_PLACEMENT_3D ( 'NONE', #274, #158, #46 ) ;
#133 =( CONVERSION_BASED_UNIT ( 'INCH', #249 ) LENGTH_UNIT ( ) NAMED_UNIT ( #299 ) );
#134 =( LENGTH_UNIT ( ) NAMED_UNIT ( * ) SI_UNIT ( $, .METRE. ) );
#135 = MANIFOLD_SOLID_BREP ( 'Revolve - Cutting Edge', #45 ) ;
#136 = CARTESIAN_POINT ( 'NONE',  ( 0.000000000000000000, 0.000000000000000000, 0.000000000000000000 ) ) ;
#137 =( NAMED_UNIT ( * ) SI_UNIT ( $, .STERADIAN. ) SOLID_ANGLE_UNIT ( ) );
#138 = FILL_AREA_STYLE ('',( #190 ) ) ;
#139 = PLANE ( 'NONE',  #69 ) ;
#140 = CARTESIAN_POINT ( 'NONE',  ( 0.000000000000000000, 0.5000000000000001110, 0.000000000000000000 ) ) ;
#141 = DIRECTION ( 'NONE',  ( 0.000000000000000000, 0.000000000000000000, -1.000000000000000000 ) ) ;
#142 = CIRCLE ( 'NONE', #15, 0.1875000000000000278 ) ;
#143 =( GEOMETRIC_REPRESENTATION_CONTEXT ( 3 ) GLOBAL_UNCERTAINTY_ASSIGNED_CONTEXT ( ( #172 ) ) GLOBAL_UNIT_ASSIGNED_CONTEXT ( ( #294, #257, #28 ) ) REPRESENTATION_CONTEXT ( 'NONE', 'WORKASPACE' ) );
#144 = SURFACE_STYLE_FILL_AREA ( #50 ) ;
#145 = DIRECTION ( 'NONE',  ( 8.164311994315692567E-17, 1.000000000000000000, -0.000000000000000000 ) ) ;
#146 = CARTESIAN_POINT ( 'NONE',  ( -0.1875000000000000278, 0.5000000000000001110, 0.000000000000000000 ) ) ;
#147 = CARTESIAN_POINT ( 'NONE',  ( 0.000000000000000000, 0.5000000000000000000, 0.000000000000000000 ) ) ;
#148 = SURFACE_SIDE_STYLE ('',( #17 ) ) ;
#149 = PRODUCT_CONTEXT ( 'NONE', #47, 'mechanical' ) ;
#150 = DIRECTION ( 'NONE',  ( 1.000000000000000000, 0.000000000000000000, 0.000000000000000000 ) ) ;
#151 = PRODUCT_DEFINITION_SHAPE ( 'NONE', 'NONE',  #245 ) ;
#152 = APPLICATION_PROTOCOL_DEFINITION ( 'draft international standard', 'automotive_design', 1998, #30 ) ;
#153 =( NAMED_UNIT ( * ) SI_UNIT ( $, .STERADIAN. ) SOLID_ANGLE_UNIT ( ) );
#154 = CIRCLE ( 'NONE', #39, 0.1875000000000000278 ) ;
#155 = EDGE_CURVE ( 'NONE', #37, #101, #58, .T. ) ;
#156 = DIRECTION ( 'NONE',  ( 0.000000000000000000, 0.000000000000000000, -1.000000000000000000 ) ) ;
#157 = DIRECTION ( 'NONE',  ( -0.000000000000000000, -1.000000000000000000, -0.000000000000000000 ) ) ;
#158 = DIRECTION ( 'NONE',  ( 8.164311994315692567E-17, 1.000000000000000000, -0.000000000000000000 ) ) ;
#159 = COLOUR_RGB ( '',1.000000000000000000, 0.000000000000000000, 0.000000000000000000 ) ;
#160 = ADVANCED_FACE ( 'NONE', ( #212 ), #210, .T. ) ;
#161 = PRESENTATION_LAYER_ASSIGNMENT (  '', '', ( #10 ) ) ;
#162 = SURFACE_STYLE_FILL_AREA ( #204 ) ;
#163 =( LENGTH_UNIT ( ) NAMED_UNIT ( * ) SI_UNIT ( $, .METRE. ) );
#164 = DIRECTION ( 'NONE',  ( 0.000000000000000000, -1.000000000000000000, -0.000000000000000000 ) ) ;
#165 = LENGTH_MEASURE_WITH_UNIT ( LENGTH_MEASURE( 0.02539999999999999897 ), #163 );
#166 = CIRCLE ( 'NONE', #284, 0.1874999999999998890 ) ;
#167 =( LENGTH_UNIT ( ) NAMED_UNIT ( * ) SI_UNIT ( $, .METRE. ) );
#168 = ORIENTED_EDGE ( 'NONE', *, *, #88, .T. ) ;
#169 =( NAMED_UNIT ( * ) PLANE_ANGLE_UNIT ( ) SI_UNIT ( $, .RADIAN. ) );
#170 = ADVANCED_FACE ( 'NONE', ( #243 ), #109, .T. ) ;
#171 = PRESENTATION_STYLE_ASSIGNMENT (( #95 ) ) ;
#172 = UNCERTAINTY_MEASURE_WITH_UNIT (LENGTH_MEASURE( 1.000000000000000082E-05 ), #294, 'distance_accuracy_value', 'NONE');
#173 = ORIENTED_EDGE ( 'NONE', *, *, #309, .T. ) ;
#174 = DIRECTION ( 'NONE',  ( 0.000000000000000000, 0.000000000000000000, -1.000000000000000000 ) ) ;
#175 = ADVANCED_FACE ( 'NONE', ( #244 ), #231, .T. ) ;
#176 = DIRECTION ( 'NONE',  ( -0.000000000000000000, -1.000000000000000000, -0.000000000000000000 ) ) ;
#177 = DIRECTION ( 'NONE',  ( 8.164311994315692567E-17, 1.000000000000000000, -0.000000000000000000 ) ) ;
#178 = DIRECTION ( 'NONE',  ( 0.000000000000000000, 0.000000000000000000, -1.000000000000000000 ) ) ;
#179 = DIRECTION ( 'NONE',  ( -1.000000000000000000, 0.000000000000000000, 0.000000000000000000 ) ) ;
#180 = FILL_AREA_STYLE_COLOUR ( '', #270 ) ;
#181 = AXIS2_PLACEMENT_3D ( 'NONE', #247, #60, #273 ) ;
#182 = PRODUCT_DEFINITION_FORMATION_WITH_SPECIFIED_SOURCE ( 'ANY', '', #14, .NOT_KNOWN. ) ;
#183 =( NAMED_UNIT ( * ) PLANE_ANGLE_UNIT ( ) SI_UNIT ( $, .RADIAN. ) );
#184 = DIRECTION ( 'NONE',  ( 1.000000000000000000, -8.164311994315692567E-17, 0.000000000000000000 ) ) ;
#185 =( CONVERSION_BASED_UNIT ( 'INCH', #252 ) LENGTH_UNIT ( ) NAMED_UNIT ( #263 ) );
#186 = CARTESIAN_POINT ( 'NONE',  ( 0.1875000000000000278, 2.000000000000000000, 2.296212748401286801E-17 ) ) ;
#187 =( GEOMETRIC_REPRESENTATION_CONTEXT ( 3 ) GLOBAL_UNCERTAINTY_ASSIGNED_CONTEXT ( ( #27 ) ) GLOBAL_UNIT_ASSIGNED_CONTEXT ( ( #126, #169, #296 ) ) REPRESENTATION_CONTEXT ( 'NONE', 'WORKASPACE' ) );
#188 = LENGTH_MEASURE_WITH_UNIT ( LENGTH_MEASURE( 0.02539999999999999897 ), #66 );
#189 = ORIENTED_EDGE ( 'NONE', *, *, #72, .F. ) ;
#190 = FILL_AREA_STYLE_COLOUR ( '', #298 ) ;
#191 = ORIENTED_EDGE ( 'NONE', *, *, #280, .F. ) ;
#192 = CARTESIAN_POINT ( 'NONE',  ( 0.000000000000000000, 0.000000000000000000, 0.000000000000000000 ) ) ;
#193 = VERTEX_POINT ( 'NONE', #71 ) ;
#194 = SURFACE_STYLE_USAGE ( .BOTH. , #148 ) ;
#195 = UNCERTAINTY_MEASURE_WITH_UNIT (LENGTH_MEASURE( 1.000000000000000082E-05 ), #122, 'distance_accuracy_value', 'NONE');
#196 = MECHANICAL_DESIGN_GEOMETRIC_PRESENTATION_REPRESENTATION (  '', ( #84 ), #187 ) ;
#197 = AXIS2_PLACEMENT_3D ( 'NONE', #59, #157, #156 ) ;
#198 = FILL_AREA_STYLE ('',( #180 ) ) ;
#199 = EDGE_CURVE ( 'NONE', #289, #63, #223, .T. ) ;
#200 = APPLICATION_PROTOCOL_DEFINITION ( 'draft international standard', 'automotive_design', 1998, #47 ) ;
#201 = FACE_OUTER_BOUND ( 'NONE', #65, .T. ) ;
#202 = MECHANICAL_DESIGN_GEOMETRIC_PRESENTATION_REPRESENTATION (  '', ( #108 ), #277 ) ;
#203 = DIRECTION ( 'NONE',  ( -1.000000000000000000, 0.000000000000000000, 0.000000000000000000 ) ) ;
#204 = FILL_AREA_STYLE ('',( #208 ) ) ;
#205 = CARTESIAN_POINT ( 'NONE',  ( -0.1874999999999997502, 2.000000000000000000, 0.000000000000000000 ) ) ;
#206 =( NAMED_UNIT ( * ) PLANE_ANGLE_UNIT ( ) SI_UNIT ( $, .RADIAN. ) );
#207 = CIRCLE ( 'NONE', #132, 0.1875000000000000278 ) ;
#208 = FILL_AREA_STYLE_COLOUR ( '', #79 ) ;
#209 = AXIS2_PLACEMENT_3D ( 'NONE', #236, #177, #221 ) ;
#210 = CYLINDRICAL_SURFACE ( 'NONE', #124, 0.1875000000000000278 ) ;
#211 = EDGE_LOOP ( 'NONE', ( #292, #168, #191, #76 ) ) ;
#212 = FACE_OUTER_BOUND ( 'NONE', #75, .T. ) ;
#213 = ORIENTED_EDGE ( 'NONE', *, *, #307, .F. ) ;
#214 = SHAPE_DEFINITION_REPRESENTATION ( #151, #239 ) ;
#215 = ORIENTED_EDGE ( 'NONE', *, *, #288, .F. ) ;
#216 = DIRECTION ( 'NONE',  ( -0.000000000000000000, -1.000000000000000000, -0.000000000000000000 ) ) ;
#217 = MECHANICAL_DESIGN_GEOMETRIC_PRESENTATION_REPRESENTATION (  '', ( #10 ), #282 ) ;
#218 = FILL_AREA_STYLE ('',( #55 ) ) ;
#219 = ORIENTED_EDGE ( 'NONE', *, *, #107, .F. ) ;
#220 = DIMENSIONAL_EXPONENTS ( 1.000000000000000000, 0.000000000000000000, 0.000000000000000000, 0.000000000000000000, 0.000000000000000000, 0.000000000000000000, 0.000000000000000000 ) ;
#221 = DIRECTION ( 'NONE',  ( -1.000000000000000000, 0.000000000000000000, 0.000000000000000000 ) ) ;
#222 = FACE_OUTER_BOUND ( 'NONE', #118, .T. ) ;
#223 = CIRCLE ( 'NONE', #94, 0.1875000000000000278 ) ;
#224 = LINE ( 'NONE', #303, #49 ) ;
#225 = CARTESIAN_POINT ( 'NONE',  ( 0.000000000000000000, 0.5000000000000000000, -0.1875000000000000278 ) ) ;
#226 = EDGE_LOOP ( 'NONE', ( #238, #233 ) ) ;
#227 = CARTESIAN_POINT ( 'NONE',  ( 0.1875000000000000278, 0.5000000000000001110, 2.296212748401286801E-17 ) ) ;
#228 = PRODUCT_DEFINITION_CONTEXT ( 'detailed design', #30, 'design' ) ;
#229 = LENGTH_MEASURE_WITH_UNIT ( LENGTH_MEASURE( 0.02539999999999999897 ), #167 );
#230 = ORIENTED_EDGE ( 'NONE', *, *, #40, .T. ) ;
#231 = PLANE ( 'NONE',  #56 ) ;
#232 = FILL_AREA_STYLE_COLOUR ( '', #246 ) ;
#233 = ORIENTED_EDGE ( 'NONE', *, *, #307, .T. ) ;
#234 = AXIS2_PLACEMENT_3D ( 'NONE', #12, #106, #297 ) ;
#235 = PRESENTATION_STYLE_ASSIGNMENT (( #96 ) ) ;
#236 = CARTESIAN_POINT ( 'NONE',  ( 1.224646799147353700E-16, 2.000000000000000000, 0.000000000000000000 ) ) ;
#237 = PRESENTATION_STYLE_ASSIGNMENT (( #194 ) ) ;
#238 = ORIENTED_EDGE ( 'NONE', *, *, #280, .T. ) ;
#239 = ADVANCED_BREP_SHAPE_REPRESENTATION ( '30317', ( #135, #38, #3 ), #80 ) ;
#240 = SURFACE_STYLE_FILL_AREA ( #218 ) ;
#241 =( CONVERSION_BASED_UNIT ( 'INCH', #165 ) LENGTH_UNIT ( ) NAMED_UNIT ( #77 ) );
#242 = MECHANICAL_DESIGN_GEOMETRIC_PRESENTATION_REPRESENTATION (  '', ( #290 ), #143 ) ;
#243 = FACE_OUTER_BOUND ( 'NONE', #104, .T. ) ;
#244 = FACE_OUTER_BOUND ( 'NONE', #281, .T. ) ;
#245 = PRODUCT_DEFINITION ( 'UNKNOWN', '', #182, #228 ) ;
#246 = COLOUR_RGB ( '',0.7921568627450980005, 0.8196078431372548767, 0.9333333333333333481 ) ;
#247 = CARTESIAN_POINT ( 'NONE',  ( 1.224646799147353700E-16, 2.000000000000000000, 0.000000000000000000 ) ) ;
#248 = DIRECTION ( 'NONE',  ( -8.164311994315692567E-17, -1.000000000000000000, 0.000000000000000000 ) ) ;
#249 = LENGTH_MEASURE_WITH_UNIT ( LENGTH_MEASURE( 0.02539999999999999897 ), #42 );
#250 = SURFACE_SIDE_STYLE ('',( #268 ) ) ;
#251 = MECHANICAL_DESIGN_GEOMETRIC_PRESENTATION_REPRESENTATION (  '', ( #43 ), #304 ) ;
#252 = LENGTH_MEASURE_WITH_UNIT ( LENGTH_MEASURE( 0.02539999999999999897 ), #24 );
#253 = FACE_OUTER_BOUND ( 'NONE', #8, .T. ) ;
#254 = LINE ( 'NONE', #22, #115 ) ;
#255 = PRESENTATION_LAYER_ASSIGNMENT (  '', '', ( #84 ) ) ;
#256 = ORIENTED_EDGE ( 'NONE', *, *, #309, .F. ) ;
#257 =( NAMED_UNIT ( * ) PLANE_ANGLE_UNIT ( ) SI_UNIT ( $, .RADIAN. ) );
#258 = PRESENTATION_LAYER_ASSIGNMENT (  '', '', ( #83 ) ) ;
#259 = VERTEX_POINT ( 'NONE', #205 ) ;
#260 = AXIS2_PLACEMENT_3D ( 'NONE', #272, #111, #203 ) ;
#261 = UNCERTAINTY_MEASURE_WITH_UNIT (LENGTH_MEASURE( 1.000000000000000082E-05 ), #185, 'distance_accuracy_value', 'NONE');
#262 = PRESENTATION_STYLE_ASSIGNMENT (( #97 ) ) ;
#263 = DIMENSIONAL_EXPONENTS ( 1.000000000000000000, 0.000000000000000000, 0.000000000000000000, 0.000000000000000000, 0.000000000000000000, 0.000000000000000000, 0.000000000000000000 ) ;
#264 = ADVANCED_FACE ( 'NONE', ( #222 ), #21, .F. ) ;
#265 = SURFACE_SIDE_STYLE ('',( #7 ) ) ;
#266 = PRESENTATION_LAYER_ASSIGNMENT (  '', '', ( #43 ) ) ;
#267 =( NAMED_UNIT ( * ) PLANE_ANGLE_UNIT ( ) SI_UNIT ( $, .RADIAN. ) );
#268 = SURFACE_STYLE_FILL_AREA ( #198 ) ;
#269 = CARTESIAN_POINT ( 'NONE',  ( 0.000000000000000000, 0.000000000000000000, 0.000000000000000000 ) ) ;
#270 = COLOUR_RGB ( '',1.000000000000000000, 0.000000000000000000, 0.000000000000000000 ) ;
#271 = CARTESIAN_POINT ( 'NONE',  ( 0.1875000000000000278, 2.000000000000000000, 0.000000000000000000 ) ) ;
#272 = CARTESIAN_POINT ( 'NONE',  ( 1.224646799147353700E-16, 2.000000000000000000, 0.000000000000000000 ) ) ;
#273 = DIRECTION ( 'NONE',  ( -1.000000000000000000, 0.000000000000000000, 0.000000000000000000 ) ) ;
#274 = CARTESIAN_POINT ( 'NONE',  ( 0.000000000000000000, 0.5000000000000001110, 0.000000000000000000 ) ) ;
#275 = LENGTH_MEASURE_WITH_UNIT ( LENGTH_MEASURE( 0.02539999999999999897 ), #134 );
#276 =( GEOMETRIC_REPRESENTATION_CONTEXT ( 3 ) GLOBAL_UNCERTAINTY_ASSIGNED_CONTEXT ( ( #74 ) ) GLOBAL_UNIT_ASSIGNED_CONTEXT ( ( #241, #13, #9 ) ) REPRESENTATION_CONTEXT ( 'NONE', 'WORKASPACE' ) );
#277 =( GEOMETRIC_REPRESENTATION_CONTEXT ( 3 ) GLOBAL_UNCERTAINTY_ASSIGNED_CONTEXT ( ( #261 ) ) GLOBAL_UNIT_ASSIGNED_CONTEXT ( ( #185, #206, #137 ) ) REPRESENTATION_CONTEXT ( 'NONE', 'WORKASPACE' ) );
#278 = CARTESIAN_POINT ( 'NONE',  ( 0.000000000000000000, 0.000000000000000000, -0.1875000000000000278 ) ) ;
#279 = VERTEX_POINT ( 'NONE', #81 ) ;
#280 = EDGE_CURVE ( 'NONE', #259, #70, #16, .T. ) ;
#281 = EDGE_LOOP ( 'NONE', ( #256, #98 ) ) ;
#282 =( GEOMETRIC_REPRESENTATION_CONTEXT ( 3 ) GLOBAL_UNCERTAINTY_ASSIGNED_CONTEXT ( ( #78 ) ) GLOBAL_UNIT_ASSIGNED_CONTEXT ( ( #23, #183, #36 ) ) REPRESENTATION_CONTEXT ( 'NONE', 'WORKASPACE' ) );
#283 = DIRECTION ( 'NONE',  ( 0.000000000000000000, 0.000000000000000000, -1.000000000000000000 ) ) ;
#284 = AXIS2_PLACEMENT_3D ( 'NONE', #306, #301, #179 ) ;
#285 = FILL_AREA_STYLE_COLOUR ( '', #93 ) ;
#286 = DIRECTION ( 'NONE',  ( 0.000000000000000000, 0.000000000000000000, -1.000000000000000000 ) ) ;
#287 = FACE_OUTER_BOUND ( 'NONE', #211, .T. ) ;
#288 = EDGE_CURVE ( 'NONE', #289, #193, #224, .T. ) ;
#289 = VERTEX_POINT ( 'NONE', #112 ) ;
#290 = STYLED_ITEM ( 'NONE', ( #171 ), #135 ) ;
#291 = DIRECTION ( 'NONE',  ( 0.000000000000000000, -0.000000000000000000, 1.000000000000000000 ) ) ;
#292 = ORIENTED_EDGE ( 'NONE', *, *, #155, .T. ) ;
#293 = ADVANCED_FACE ( 'NONE', ( #201 ), #85, .T. ) ;
#294 =( CONVERSION_BASED_UNIT ( 'INCH', #188 ) LENGTH_UNIT ( ) NAMED_UNIT ( #99 ) );
#295 = ORIENTED_EDGE ( 'NONE', *, *, #199, .T. ) ;
#296 =( NAMED_UNIT ( * ) SI_UNIT ( $, .STERADIAN. ) SOLID_ANGLE_UNIT ( ) );
#297 = DIRECTION ( 'NONE',  ( 0.000000000000000000, 0.000000000000000000, -1.000000000000000000 ) ) ;
#298 = COLOUR_RGB ( '',1.000000000000000000, 0.000000000000000000, 0.000000000000000000 ) ;
#299 = DIMENSIONAL_EXPONENTS ( 1.000000000000000000, 0.000000000000000000, 0.000000000000000000, 0.000000000000000000, 0.000000000000000000, 0.000000000000000000, 0.000000000000000000 ) ;
#300 = SURFACE_STYLE_USAGE ( .BOTH. , #250 ) ;
#301 = DIRECTION ( 'NONE',  ( 8.164311994315692567E-17, 1.000000000000000000, -0.000000000000000000 ) ) ;
#302 = FACE_OUTER_BOUND ( 'NONE', #226, .T. ) ;
#303 = CARTESIAN_POINT ( 'NONE',  ( 2.296212748401287726E-17, 0.000000000000000000, 0.1875000000000000278 ) ) ;
#304 =( GEOMETRIC_REPRESENTATION_CONTEXT ( 3 ) GLOBAL_UNCERTAINTY_ASSIGNED_CONTEXT ( ( #195 ) ) GLOBAL_UNIT_ASSIGNED_CONTEXT ( ( #122, #100, #103 ) ) REPRESENTATION_CONTEXT ( 'NONE', 'WORKASPACE' ) );
#305 = LINE ( 'NONE', #278, #35 ) ;
#306 = CARTESIAN_POINT ( 'NONE',  ( 1.224646799147353700E-16, 2.000000000000000000, 0.000000000000000000 ) ) ;
#307 = EDGE_CURVE ( 'NONE', #70, #259, #166, .T. ) ;
#308 = PRESENTATION_STYLE_ASSIGNMENT (( #87 ) ) ;
#309 = EDGE_CURVE ( 'NONE', #63, #289, #51, .T. ) ;
ENDSEC;
END-ISO-10303-21;
