ISO-10303-21;
HEADER;
FILE_DESCRIPTION (( 'STEP AP214' ),
    '1' );
FILE_NAME ('Micro_MMBM-010-20.STEP',
    '2021-09-03T16:26:17',
    ( '' ),
    ( '' ),
    'SwSTEP 2.0',
    'SolidWorks 2020',
    '' );
FILE_SCHEMA (( 'AUTOMOTIVE_DESIGN' ));
ENDSEC;

DATA;
#1 = AXIS2_PLACEMENT_3D ( 'NONE', #18, #142, #254 ) ;
#2 = ORIENTED_EDGE ( 'NONE', *, *, #17, .T. ) ;
#3 = DIRECTION ( 'NONE',  ( -0.0000000000000000000, -0.0000000000000000000, -1.000000000000000000 ) ) ;
#4 = VERTEX_POINT ( 'NONE', #334 ) ;
#5 = DIRECTION ( 'NONE',  ( 0.0000000000000000000, 0.0000000000000000000, -1.000000000000000000 ) ) ;
#6 = CONICAL_SURFACE ( 'NONE', #114, 0.1031100000000002570, 0.7853981633974318477 ) ;
#7 = ORIENTED_EDGE ( 'NONE', *, *, #116, .F. ) ;
#8 = DIRECTION ( 'NONE',  ( -0.0000000000000000000, -0.0000000000000000000, -1.000000000000000000 ) ) ;
#9 = EDGE_CURVE ( 'NONE', #4, #275, #63, .T. ) ;
#10 = ORIENTED_EDGE ( 'NONE', *, *, #93, .T. ) ;
#11 = CARTESIAN_POINT ( 'NONE',  ( 0.01968303149999999294, 2.410476152399151743E-18, 0.03937000000000000222 ) ) ;
#12 = LINE ( 'NONE', #136, #304 ) ;
#13 = CARTESIAN_POINT ( 'NONE',  ( 0.0000000000000000000, 0.0000000000000000000, 0.0000000000000000000 ) ) ;
#14 = ORIENTED_EDGE ( 'NONE', *, *, #30, .F. ) ;
#15 = FACE_OUTER_BOUND ( 'NONE', #94, .T. ) ;
#16 = LINE ( 'NONE', #229, #121 ) ;
#17 = EDGE_CURVE ( 'NONE', #173, #342, #274, .T. ) ;
#18 = CARTESIAN_POINT ( 'NONE',  ( 0.0000000000000000000, 0.0000000000000000000, 0.7874019999999999353 ) ) ;
#19 = DIRECTION ( 'NONE',  ( 0.0000000000000000000, 0.0000000000000000000, 1.000000000000000000 ) ) ;
#20 = DIRECTION ( 'NONE',  ( -0.0000000000000000000, -0.0000000000000000000, -1.000000000000000000 ) ) ;
#21 = DIRECTION ( 'NONE',  ( -1.000000000000000000, 0.0000000000000000000, 0.0000000000000000000 ) ) ;
#22 =( GEOMETRIC_REPRESENTATION_CONTEXT ( 3 ) GLOBAL_UNCERTAINTY_ASSIGNED_CONTEXT ( ( #184 ) ) GLOBAL_UNIT_ASSIGNED_CONTEXT ( ( #369, #105, #113 ) ) REPRESENTATION_CONTEXT ( 'NONE', 'WORKASPACE' ) );
#23 = DIRECTION ( 'NONE',  ( 1.000000000000000000, 0.0000000000000000000, -0.0000000000000000000 ) ) ;
#24 = ADVANCED_FACE ( 'NONE', ( #200 ), #84, .T. ) ;
#25 = PRESENTATION_STYLE_ASSIGNMENT (( #323 ) ) ;
#26 = APPLICATION_CONTEXT ( 'automotive_design' ) ;
#27 = ADVANCED_FACE ( 'NONE', ( #15 ), #228, .F. ) ;
#28 = CIRCLE ( 'NONE', #242, 0.1031100000000002570 ) ;
#29 = VECTOR ( 'NONE', #357, 39.37007874015748143 ) ;
#30 = EDGE_CURVE ( 'NONE', #330, #275, #291, .T. ) ;
#31 = VERTEX_POINT ( 'NONE', #140 ) ;
#32 = DIRECTION ( 'NONE',  ( -1.000000000000000000, 0.0000000000000000000, 0.0000000000000000000 ) ) ;
#33 = ORIENTED_EDGE ( 'NONE', *, *, #363, .T. ) ;
#34 = DIRECTION ( 'NONE',  ( 1.000000000000000000, 0.0000000000000000000, 0.0000000000000000000 ) ) ;
#35 = EDGE_LOOP ( 'NONE', ( #215, #91, #100, #243 ) ) ;
#36 = CARTESIAN_POINT ( 'NONE',  ( 0.01870100000000005092, 2.290211979085471495E-18, 0.0000000000000000000 ) ) ;
#37 = EDGE_LOOP ( 'NONE', ( #356, #123, #283, #240 ) ) ;
#38 = DIRECTION ( 'NONE',  ( -1.000000000000000000, 0.0000000000000000000, 0.0000000000000000000 ) ) ;
#39 = ORIENTED_EDGE ( 'NONE', *, *, #119, .F. ) ;
#40 = CARTESIAN_POINT ( 'NONE',  ( -0.01968303149999999294, 0.0000000000000000000, 0.0000000000000000000 ) ) ;
#41 = EDGE_LOOP ( 'NONE', ( #89, #217, #7, #166 ) ) ;
#42 = DIRECTION ( 'NONE',  ( -1.000000000000000000, 0.0000000000000000000, 0.0000000000000000000 ) ) ;
#43 = DIRECTION ( 'NONE',  ( -0.0000000000000000000, -0.0000000000000000000, -1.000000000000000000 ) ) ;
#44 = ORIENTED_EDGE ( 'NONE', *, *, #45, .F. ) ;
#45 = EDGE_CURVE ( 'NONE', #281, #342, #347, .T. ) ;
#46 = CIRCLE ( 'NONE', #352, 0.01968303149999999294 ) ;
#47 = DIRECTION ( 'NONE',  ( 1.000000000000000000, 0.0000000000000000000, -0.0000000000000000000 ) ) ;
#48 = PLANE ( 'NONE',  #221 ) ;
#49 = CARTESIAN_POINT ( 'NONE',  ( -0.01870100000000000581, 0.0000000000000000000, 0.04493937739224183880 ) ) ;
#50 = DIRECTION ( 'NONE',  ( -1.000000000000000000, 0.0000000000000000000, 0.0000000000000000000 ) ) ;
#51 = ADVANCED_FACE ( 'NONE', ( #316 ), #48, .T. ) ;
#52 = COLOUR_RGB ( '',0.7921568627450980005, 0.8196078431372548767, 0.9333333333333333481 ) ;
#53 = CIRCLE ( 'NONE', #373, 0.1031100000000002570 ) ;
#54 = FACE_OUTER_BOUND ( 'NONE', #98, .T. ) ;
#55 = CLOSED_SHELL ( 'NONE', ( #88, #57, #155, #309, #151, #218, #51, #193, #377, #24, #86, #297, #27 ) ) ;
#56 = AXIS2_PLACEMENT_3D ( 'NONE', #104, #110, #102 ) ;
#57 = ADVANCED_FACE ( 'NONE', ( #231 ), #253, .T. ) ;
#58 = VECTOR ( 'NONE', #8, 39.37007874015748143 ) ;
#59 = ORIENTED_EDGE ( 'NONE', *, *, #79, .T. ) ;
#60 = ORIENTED_EDGE ( 'NONE', *, *, #30, .T. ) ;
#61 = CARTESIAN_POINT ( 'NONE',  ( 0.0000000000000000000, 0.0000000000000000000, 2.244094000000000033 ) ) ;
#62 = PRODUCT_RELATED_PRODUCT_CATEGORY ( 'part', '', ( #69 ) ) ;
#63 = LINE ( 'NONE', #77, #336 ) ;
#64 = FACE_OUTER_BOUND ( 'NONE', #37, .T. ) ;
#65 = ORIENTED_EDGE ( 'NONE', *, *, #116, .T. ) ;
#66 = CIRCLE ( 'NONE', #120, 0.1181100000000000066 ) ;
#67 = ORIENTED_EDGE ( 'NONE', *, *, #174, .F. ) ;
#68 = DIRECTION ( 'NONE',  ( -1.000000000000000000, 0.0000000000000000000, 0.0000000000000000000 ) ) ;
#69 = PRODUCT ( 'Micro_MMBM-010-20', 'Micro_MMBM-010-20', '', ( #85 ) ) ;
#70 = ORIENTED_EDGE ( 'NONE', *, *, #144, .F. ) ;
#71 = CARTESIAN_POINT ( 'NONE',  ( 0.0000000000000000000, 0.0000000000000000000, 0.03937000000000000222 ) ) ;
#72 = DIRECTION ( 'NONE',  ( 0.0000000000000000000, 0.0000000000000000000, -1.000000000000000000 ) ) ;
#73 = UNCERTAINTY_MEASURE_WITH_UNIT (LENGTH_MEASURE( 1.000000000000000082E-05 ), #338, 'distance_accuracy_value', 'NONE');
#74 = CARTESIAN_POINT ( 'NONE',  ( 0.1031100000000002570, 1.262733314600838667E-17, 2.244094000000000033 ) ) ;
#75 = DIRECTION ( 'NONE',  ( 0.0000000000000000000, 0.0000000000000000000, 1.000000000000000000 ) ) ;
#76 = AXIS2_PLACEMENT_3D ( 'NONE', #180, #375, #209 ) ;
#77 = CARTESIAN_POINT ( 'NONE',  ( -0.01968303149999999294, 0.0000000000000000000, 0.0000000000000000000 ) ) ;
#78 = FACE_BOUND ( 'NONE', #302, .T. ) ;
#79 = EDGE_CURVE ( 'NONE', #270, #124, #372, .T. ) ;
#80 = DIRECTION ( 'NONE',  ( -0.1736481776669301647, 0.0000000000000000000, -0.9848077530122080203 ) ) ;
#81 = FILL_AREA_STYLE ('',( #326 ) ) ;
#82 = CARTESIAN_POINT ( 'NONE',  ( 0.0000000000000000000, 0.0000000000000000000, 0.04493937739224183880 ) ) ;
#83 = SURFACE_SIDE_STYLE ('',( #294 ) ) ;
#84 = CONICAL_SURFACE ( 'NONE', #379, 0.01968303149999999294, 0.1745329251994327535 ) ;
#85 = PRODUCT_CONTEXT ( 'NONE', #378, 'mechanical' ) ;
#86 = ADVANCED_FACE ( 'NONE', ( #54 ), #146, .T. ) ;
#87 = VECTOR ( 'NONE', #285, 39.37007874015748143 ) ;
#88 = ADVANCED_FACE ( 'NONE', ( #260 ), #348, .T. ) ;
#89 = ORIENTED_EDGE ( 'NONE', *, *, #353, .T. ) ;
#90 = AXIS2_PLACEMENT_3D ( 'NONE', #216, #223, #68 ) ;
#91 = ORIENTED_EDGE ( 'NONE', *, *, #267, .T. ) ;
#92 = AXIS2_PLACEMENT_3D ( 'NONE', #145, #261, #148 ) ;
#93 = EDGE_CURVE ( 'NONE', #342, #4, #175, .T. ) ;
#94 = EDGE_LOOP ( 'NONE', ( #139, #60 ) ) ;
#95 = DIRECTION ( 'NONE',  ( -1.000000000000000000, 0.0000000000000000000, 0.0000000000000000000 ) ) ;
#96 = ORIENTED_EDGE ( 'NONE', *, *, #128, .F. ) ;
#97 = DIRECTION ( 'NONE',  ( -0.0000000000000000000, -0.0000000000000000000, -1.000000000000000000 ) ) ;
#98 = EDGE_LOOP ( 'NONE', ( #341, #337, #250, #278 ) ) ;
#99 = AXIS2_PLACEMENT_3D ( 'NONE', #225, #72, #32 ) ;
#100 = ORIENTED_EDGE ( 'NONE', *, *, #259, .F. ) ;
#101 = AXIS2_PLACEMENT_3D ( 'NONE', #147, #317, #21 ) ;
#102 = DIRECTION ( 'NONE',  ( -1.000000000000000000, 0.0000000000000000000, 0.0000000000000000000 ) ) ;
#103 = CARTESIAN_POINT ( 'NONE',  ( -0.1031100000000002570, 0.0000000000000000000, 2.244094000000000033 ) ) ;
#104 = CARTESIAN_POINT ( 'NONE',  ( 0.0000000000000000000, 0.0000000000000000000, 0.0000000000000000000 ) ) ;
#105 =( NAMED_UNIT ( * ) PLANE_ANGLE_UNIT ( ) SI_UNIT ( $, .RADIAN. ) );
#106 = CARTESIAN_POINT ( 'NONE',  ( 0.0000000000000000000, 0.0000000000000000000, 0.03937000000000000222 ) ) ;
#107 = DIRECTION ( 'NONE',  ( -0.0000000000000000000, -0.0000000000000000000, -1.000000000000000000 ) ) ;
#108 = DIRECTION ( 'NONE',  ( 1.000000000000000000, 0.0000000000000000000, 0.0000000000000000000 ) ) ;
#109 =( NAMED_UNIT ( * ) SI_UNIT ( $, .STERADIAN. ) SOLID_ANGLE_UNIT ( ) );
#110 = DIRECTION ( 'NONE',  ( -0.0000000000000000000, -0.0000000000000000000, -1.000000000000000000 ) ) ;
#111 = FILL_AREA_STYLE ('',( #235 ) ) ;
#112 = CARTESIAN_POINT ( 'NONE',  ( -0.01968303149999999294, 0.0000000000000000000, 0.03937000000000000222 ) ) ;
#113 =( NAMED_UNIT ( * ) SI_UNIT ( $, .STERADIAN. ) SOLID_ANGLE_UNIT ( ) );
#114 = AXIS2_PLACEMENT_3D ( 'NONE', #335, #249, #279 ) ;
#115 = SURFACE_STYLE_FILL_AREA ( #81 ) ;
#116 = EDGE_CURVE ( 'NONE', #4, #248, #295, .T. ) ;
#117 = CARTESIAN_POINT ( 'NONE',  ( 0.0000000000000000000, 0.0000000000000000000, 2.244094000000000033 ) ) ;
#118 = PRODUCT_DEFINITION_CONTEXT ( 'detailed design', #26, 'design' ) ;
#119 = EDGE_CURVE ( 'NONE', #307, #131, #12, .T. ) ;
#120 = AXIS2_PLACEMENT_3D ( 'NONE', #241, #301, #34 ) ;
#121 = VECTOR ( 'NONE', #43, 39.37007874015748143 ) ;
#122 = DIMENSIONAL_EXPONENTS ( 1.000000000000000000, 0.0000000000000000000, 0.0000000000000000000, 0.0000000000000000000, 0.0000000000000000000, 0.0000000000000000000, 0.0000000000000000000 ) ;
#123 = ORIENTED_EDGE ( 'NONE', *, *, #333, .T. ) ;
#124 = VERTEX_POINT ( 'NONE', #224 ) ;
#125 = CARTESIAN_POINT ( 'NONE',  ( 0.01968303149999999294, 2.410476152399151743E-18, 0.0000000000000000000 ) ) ;
#126 = VERTEX_POINT ( 'NONE', #314 ) ;
#127 = CARTESIAN_POINT ( 'NONE',  ( 0.1031100000000002570, 1.354581824536888722E-17, 2.244094000000000033 ) ) ;
#128 = EDGE_CURVE ( 'NONE', #305, #126, #345, .T. ) ;
#129 = ORIENTED_EDGE ( 'NONE', *, *, #363, .F. ) ;
#130 = DIRECTION ( 'NONE',  ( 1.000000000000000000, 0.0000000000000000000, 0.0000000000000000000 ) ) ;
#131 = VERTEX_POINT ( 'NONE', #286 ) ;
#132 =( NAMED_UNIT ( * ) SI_UNIT ( $, .STERADIAN. ) SOLID_ANGLE_UNIT ( ) );
#133 = ORIENTED_EDGE ( 'NONE', *, *, #232, .T. ) ;
#134 = PRODUCT_DEFINITION ( 'UNKNOWN', '', #366, #118 ) ;
#135 = DIRECTION ( 'NONE',  ( 0.1736481776669301647, 2.126576849575769450E-17, -0.9848077530122080203 ) ) ;
#136 = CARTESIAN_POINT ( 'NONE',  ( -0.1031100000000002570, 0.0000000000000000000, 2.244094000000000033 ) ) ;
#137 = CARTESIAN_POINT ( 'NONE',  ( 0.1181100000000000066, 1.446430334472939084E-17, 0.7874019999999998243 ) ) ;
#138 = CIRCLE ( 'NONE', #204, 0.01870100000000009602 ) ;
#139 = ORIENTED_EDGE ( 'NONE', *, *, #210, .T. ) ;
#140 = CARTESIAN_POINT ( 'NONE',  ( 0.01870100000000009602, 2.290211979085477273E-18, 0.7874019999999999353 ) ) ;
#141 = LENGTH_MEASURE_WITH_UNIT ( LENGTH_MEASURE( 0.02539999999999999897 ), #203 );
#142 = DIRECTION ( 'NONE',  ( -0.0000000000000000000, -0.0000000000000000000, -1.000000000000000000 ) ) ;
#143 = DIRECTION ( 'NONE',  ( 1.000000000000000000, 0.0000000000000000000, 0.0000000000000000000 ) ) ;
#144 = EDGE_CURVE ( 'NONE', #31, #281, #321, .T. ) ;
#145 = CARTESIAN_POINT ( 'NONE',  ( 0.0000000000000000000, 0.0000000000000000000, 0.0000000000000000000 ) ) ;
#146 = CYLINDRICAL_SURFACE ( 'NONE', #56, 0.01870100000000005092 ) ;
#147 = CARTESIAN_POINT ( 'NONE',  ( 0.0000000000000000000, 0.0000000000000000000, 0.04493937739224183880 ) ) ;
#148 = DIRECTION ( 'NONE',  ( 1.000000000000000000, 0.0000000000000000000, 0.0000000000000000000 ) ) ;
#149 = CARTESIAN_POINT ( 'NONE',  ( 0.0000000000000000000, 0.0000000000000000000, 0.7874019999999998243 ) ) ;
#150 =( NAMED_UNIT ( * ) PLANE_ANGLE_UNIT ( ) SI_UNIT ( $, .RADIAN. ) );
#151 = ADVANCED_FACE ( 'NONE', ( #370 ), #263, .T. ) ;
#152 = AXIS2_PLACEMENT_3D ( 'NONE', #308, #5, #130 ) ;
#153 = ADVANCED_BREP_SHAPE_REPRESENTATION ( 'Micro_MMBM-010-20', ( #188, #92 ), #22 ) ;
#154 = FACE_OUTER_BOUND ( 'NONE', #41, .T. ) ;
#155 = ADVANCED_FACE ( 'NONE', ( #154 ), #236, .T. ) ;
#156 = CIRCLE ( 'NONE', #90, 0.1181100000000000066 ) ;
#157 = CIRCLE ( 'NONE', #264, 0.01968303149999999294 ) ;
#158 = MECHANICAL_DESIGN_GEOMETRIC_PRESENTATION_REPRESENTATION (  '', ( #322 ), #183 ) ;
#159 = EDGE_LOOP ( 'NONE', ( #96, #164, #213, #300 ) ) ;
#160 = LENGTH_MEASURE_WITH_UNIT ( LENGTH_MEASURE( 0.02539999999999999897 ), #244 );
#161 = EDGE_LOOP ( 'NONE', ( #65, #33, #355, #169 ) ) ;
#162 = CARTESIAN_POINT ( 'NONE',  ( 0.0000000000000000000, 0.0000000000000000000, 0.7874019999999999353 ) ) ;
#163 = VECTOR ( 'NONE', #202, 39.37007874015748854 ) ;
#164 = ORIENTED_EDGE ( 'NONE', *, *, #346, .F. ) ;
#165 = CARTESIAN_POINT ( 'NONE',  ( 0.01968303149999999294, 2.410476152399151743E-18, 0.03937000000000000222 ) ) ;
#166 = ORIENTED_EDGE ( 'NONE', *, *, #93, .F. ) ;
#167 = ORIENTED_EDGE ( 'NONE', *, *, #340, .T. ) ;
#168 = CARTESIAN_POINT ( 'NONE',  ( -0.01870100000000009602, 0.0000000000000000000, 0.7874019999999999353 ) ) ;
#169 = ORIENTED_EDGE ( 'NONE', *, *, #9, .F. ) ;
#170 = DIRECTION ( 'NONE',  ( -1.000000000000000000, 0.0000000000000000000, 0.0000000000000000000 ) ) ;
#171 = DIRECTION ( 'NONE',  ( -0.0000000000000000000, 0.0000000000000000000, -1.000000000000000000 ) ) ;
#172 = VECTOR ( 'NONE', #80, 39.37007874015748854 ) ;
#173 = VERTEX_POINT ( 'NONE', #227 ) ;
#174 = EDGE_CURVE ( 'NONE', #173, #248, #233, .T. ) ;
#175 = LINE ( 'NONE', #112, #172 ) ;
#176 = CARTESIAN_POINT ( 'NONE',  ( 0.0000000000000000000, 0.0000000000000000000, 2.244094000000000033 ) ) ;
#177 = DIRECTION ( 'NONE',  ( -1.000000000000000000, 0.0000000000000000000, 0.0000000000000000000 ) ) ;
#178 = DIRECTION ( 'NONE',  ( -0.0000000000000000000, -0.0000000000000000000, -1.000000000000000000 ) ) ;
#179 = DIRECTION ( 'NONE',  ( -1.000000000000000000, 0.0000000000000000000, 0.0000000000000000000 ) ) ;
#180 = CARTESIAN_POINT ( 'NONE',  ( 0.0000000000000000000, 0.0000000000000000000, 0.0000000000000000000 ) ) ;
#181 = APPLICATION_PROTOCOL_DEFINITION ( 'draft international standard', 'automotive_design', 1998, #26 ) ;
#182 = PRESENTATION_LAYER_ASSIGNMENT (  '', '', ( #320 ) ) ;
#183 =( GEOMETRIC_REPRESENTATION_CONTEXT ( 3 ) GLOBAL_UNCERTAINTY_ASSIGNED_CONTEXT ( ( #266 ) ) GLOBAL_UNIT_ASSIGNED_CONTEXT ( ( #208, #150, #109 ) ) REPRESENTATION_CONTEXT ( 'NONE', 'WORKASPACE' ) );
#184 = UNCERTAINTY_MEASURE_WITH_UNIT (LENGTH_MEASURE( 1.000000000000000082E-05 ), #369, 'distance_accuracy_value', 'NONE');
#185 = DIRECTION ( 'NONE',  ( -0.0000000000000000000, -0.0000000000000000000, -1.000000000000000000 ) ) ;
#186 = AXIS2_PLACEMENT_3D ( 'NONE', #61, #220, #38 ) ;
#187 = EDGE_LOOP ( 'NONE', ( #167, #133, #195, #44 ) ) ;
#188 = MANIFOLD_SOLID_BREP ( 'Cut-Revolve1', #55 ) ;
#189 = ORIENTED_EDGE ( 'NONE', *, *, #358, .F. ) ;
#190 = CARTESIAN_POINT ( 'NONE',  ( -0.1181100000000000066, 0.0000000000000000000, 2.244094000000000033 ) ) ;
#191 = ORIENTED_EDGE ( 'NONE', *, *, #259, .T. ) ;
#192 = CYLINDRICAL_SURFACE ( 'NONE', #186, 0.1181100000000000066 ) ;
#193 = ADVANCED_FACE ( 'NONE', ( #344 ), #6, .T. ) ;
#194 = CIRCLE ( 'NONE', #152, 0.1181100000000000066 ) ;
#195 = ORIENTED_EDGE ( 'NONE', *, *, #353, .F. ) ;
#196 =( NAMED_UNIT ( * ) PLANE_ANGLE_UNIT ( ) SI_UNIT ( $, .RADIAN. ) );
#197 = ORIENTED_EDGE ( 'NONE', *, *, #358, .T. ) ;
#198 = LINE ( 'NONE', #276, #58 ) ;
#199 = ORIENTED_EDGE ( 'NONE', *, *, #9, .T. ) ;
#200 = FACE_OUTER_BOUND ( 'NONE', #219, .T. ) ;
#201 = CARTESIAN_POINT ( 'NONE',  ( 0.0000000000000000000, 0.0000000000000000000, 2.244094000000000033 ) ) ;
#202 = DIRECTION ( 'NONE',  ( 0.7071067811865358044, 8.659560562354788645E-17, -0.7071067811865590080 ) ) ;
#203 =( LENGTH_UNIT ( ) NAMED_UNIT ( * ) SI_UNIT ( $, .METRE. ) );
#204 = AXIS2_PLACEMENT_3D ( 'NONE', #162, #273, #95 ) ;
#205 = DIRECTION ( 'NONE',  ( -0.0000000000000000000, -0.0000000000000000000, -1.000000000000000000 ) ) ;
#206 = CARTESIAN_POINT ( 'NONE',  ( 0.0000000000000000000, 0.0000000000000000000, 2.244094000000000033 ) ) ;
#207 = DIRECTION ( 'NONE',  ( -0.0000000000000000000, -0.0000000000000000000, -1.000000000000000000 ) ) ;
#208 =( CONVERSION_BASED_UNIT ( 'INCH', #293 ) LENGTH_UNIT ( ) NAMED_UNIT ( #247 ) );
#209 = DIRECTION ( 'NONE',  ( -1.000000000000000000, 0.0000000000000000000, 0.0000000000000000000 ) ) ;
#210 = EDGE_CURVE ( 'NONE', #275, #330, #157, .T. ) ;
#211 = AXIS2_PLACEMENT_3D ( 'NONE', #117, #185, #296 ) ;
#212 = PRESENTATION_LAYER_ASSIGNMENT (  '', '', ( #322 ) ) ;
#213 = ORIENTED_EDGE ( 'NONE', *, *, #119, .T. ) ;
#214 = MECHANICAL_DESIGN_GEOMETRIC_PRESENTATION_REPRESENTATION (  '', ( #320 ), #354 ) ;
#215 = ORIENTED_EDGE ( 'NONE', *, *, #272, .T. ) ;
#216 = CARTESIAN_POINT ( 'NONE',  ( 0.0000000000000000000, 0.0000000000000000000, 0.7874019999999998243 ) ) ;
#217 = ORIENTED_EDGE ( 'NONE', *, *, #174, .T. ) ;
#218 = ADVANCED_FACE ( 'NONE', ( #64 ), #192, .T. ) ;
#219 = EDGE_LOOP ( 'NONE', ( #67, #2, #10, #189 ) ) ;
#220 = DIRECTION ( 'NONE',  ( -0.0000000000000000000, -0.0000000000000000000, -1.000000000000000000 ) ) ;
#221 = AXIS2_PLACEMENT_3D ( 'NONE', #176, #234, #47 ) ;
#222 = ORIENTED_EDGE ( 'NONE', *, *, #351, .T. ) ;
#223 = DIRECTION ( 'NONE',  ( -0.0000000000000000000, -0.0000000000000000000, -1.000000000000000000 ) ) ;
#224 = CARTESIAN_POINT ( 'NONE',  ( -0.1181100000000000066, 0.0000000000000000000, 0.7874019999999998243 ) ) ;
#225 = CARTESIAN_POINT ( 'NONE',  ( 0.0000000000000000000, 0.0000000000000000000, 2.244094000000000033 ) ) ;
#226 = DIRECTION ( 'NONE',  ( -1.000000000000000000, 0.0000000000000000000, 0.0000000000000000000 ) ) ;
#227 = CARTESIAN_POINT ( 'NONE',  ( 0.01870100000000000581, 2.350344065742308730E-18, 0.04493937739224183880 ) ) ;
#228 = PLANE ( 'NONE',  #325 ) ;
#229 = CARTESIAN_POINT ( 'NONE',  ( 0.01968303149999999294, 2.410476152399151743E-18, 0.0000000000000000000 ) ) ;
#230 = AXIS2_PLACEMENT_3D ( 'NONE', #256, #288, #349 ) ;
#231 = FACE_OUTER_BOUND ( 'NONE', #187, .T. ) ;
#232 = EDGE_CURVE ( 'NONE', #31, #173, #303, .T. ) ;
#233 = LINE ( 'NONE', #11, #238 ) ;
#234 = DIRECTION ( 'NONE',  ( 0.0000000000000000000, 0.0000000000000000000, 1.000000000000000000 ) ) ;
#235 = FILL_AREA_STYLE_COLOUR ( '', #269 ) ;
#236 = CONICAL_SURFACE ( 'NONE', #284, 0.01968303149999999294, 0.1745329251994327535 ) ;
#237 = CIRCLE ( 'NONE', #101, 0.01870100000000000581 ) ;
#238 = VECTOR ( 'NONE', #135, 39.37007874015748854 ) ;
#239 = ORIENTED_EDGE ( 'NONE', *, *, #272, .F. ) ;
#240 = ORIENTED_EDGE ( 'NONE', *, *, #79, .F. ) ;
#241 = CARTESIAN_POINT ( 'NONE',  ( 0.0000000000000000000, 0.0000000000000000000, 2.229093999999999465 ) ) ;
#242 = AXIS2_PLACEMENT_3D ( 'NONE', #201, #75, #108 ) ;
#243 = ORIENTED_EDGE ( 'NONE', *, *, #327, .F. ) ;
#244 =( LENGTH_UNIT ( ) NAMED_UNIT ( * ) SI_UNIT ( $, .METRE. ) );
#245 = EDGE_LOOP ( 'NONE', ( #359, #222 ) ) ;
#246 = FACE_OUTER_BOUND ( 'NONE', #310, .T. ) ;
#247 = DIMENSIONAL_EXPONENTS ( 1.000000000000000000, 0.0000000000000000000, 0.0000000000000000000, 0.0000000000000000000, 0.0000000000000000000, 0.0000000000000000000, 0.0000000000000000000 ) ;
#248 = VERTEX_POINT ( 'NONE', #165 ) ;
#249 = DIRECTION ( 'NONE',  ( 0.0000000000000000000, 0.0000000000000000000, -1.000000000000000000 ) ) ;
#250 = ORIENTED_EDGE ( 'NONE', *, *, #45, .T. ) ;
#251 = DIRECTION ( 'NONE',  ( -1.000000000000000000, 0.0000000000000000000, 0.0000000000000000000 ) ) ;
#252 = EDGE_LOOP ( 'NONE', ( #331, #364, #239, #39 ) ) ;
#253 = CYLINDRICAL_SURFACE ( 'NONE', #230, 0.01870100000000005092 ) ;
#254 = DIRECTION ( 'NONE',  ( -1.000000000000000000, 0.0000000000000000000, 0.0000000000000000000 ) ) ;
#255 = CARTESIAN_POINT ( 'NONE',  ( 0.0000000000000000000, 0.0000000000000000000, 0.03937000000000000222 ) ) ;
#256 = CARTESIAN_POINT ( 'NONE',  ( 0.0000000000000000000, 0.0000000000000000000, 0.0000000000000000000 ) ) ;
#257 = PLANE ( 'NONE',  #265 ) ;
#258 = AXIS2_PLACEMENT_3D ( 'NONE', #82, #205, #50 ) ;
#259 = EDGE_CURVE ( 'NONE', #124, #270, #156, .T. ) ;
#260 = FACE_OUTER_BOUND ( 'NONE', #161, .T. ) ;
#261 = DIRECTION ( 'NONE',  ( 0.0000000000000000000, 0.0000000000000000000, 1.000000000000000000 ) ) ;
#262 =( LENGTH_UNIT ( ) NAMED_UNIT ( * ) SI_UNIT ( $, .METRE. ) );
#263 = CYLINDRICAL_SURFACE ( 'NONE', #211, 0.1181100000000000066 ) ;
#264 = AXIS2_PLACEMENT_3D ( 'NONE', #362, #97, #306 ) ;
#265 = AXIS2_PLACEMENT_3D ( 'NONE', #312, #171, #315 ) ;
#266 = UNCERTAINTY_MEASURE_WITH_UNIT (LENGTH_MEASURE( 1.000000000000000082E-05 ), #208, 'distance_accuracy_value', 'NONE');
#267 = EDGE_CURVE ( 'NONE', #126, #270, #198, .T. ) ;
#268 = CONICAL_SURFACE ( 'NONE', #99, 0.1031100000000002570, 0.7853981633974318477 ) ;
#269 = COLOUR_RGB ( '',0.7921568627450980005, 0.8196078431372548767, 0.9333333333333333481 ) ;
#270 = VERTEX_POINT ( 'NONE', #137 ) ;
#271 = LINE ( 'NONE', #190, #298 ) ;
#272 = EDGE_CURVE ( 'NONE', #131, #126, #194, .T. ) ;
#273 = DIRECTION ( 'NONE',  ( -0.0000000000000000000, -0.0000000000000000000, -1.000000000000000000 ) ) ;
#274 = CIRCLE ( 'NONE', #258, 0.01870100000000000581 ) ;
#275 = VERTEX_POINT ( 'NONE', #40 ) ;
#276 = CARTESIAN_POINT ( 'NONE',  ( 0.1181100000000000066, 1.446430334472939084E-17, 2.244094000000000033 ) ) ;
#277 = SURFACE_STYLE_USAGE ( .BOTH. , #324 ) ;
#278 = ORIENTED_EDGE ( 'NONE', *, *, #17, .F. ) ;
#279 = DIRECTION ( 'NONE',  ( -1.000000000000000000, 0.0000000000000000000, 0.0000000000000000000 ) ) ;
#280 = DIRECTION ( 'NONE',  ( -1.000000000000000000, 0.0000000000000000000, 0.0000000000000000000 ) ) ;
#281 = VERTEX_POINT ( 'NONE', #168 ) ;
#282 = CYLINDRICAL_SURFACE ( 'NONE', #313, 0.01968303149999999294 ) ;
#283 = ORIENTED_EDGE ( 'NONE', *, *, #327, .T. ) ;
#284 = AXIS2_PLACEMENT_3D ( 'NONE', #106, #178, #280 ) ;
#285 = DIRECTION ( 'NONE',  ( -0.0000000000000000000, -0.0000000000000000000, -1.000000000000000000 ) ) ;
#286 = CARTESIAN_POINT ( 'NONE',  ( -0.1181100000000000066, 0.0000000000000000000, 2.229093999999999465 ) ) ;
#287 = SHAPE_DEFINITION_REPRESENTATION ( #328, #153 ) ;
#288 = DIRECTION ( 'NONE',  ( -0.0000000000000000000, -0.0000000000000000000, -1.000000000000000000 ) ) ;
#289 = FACE_OUTER_BOUND ( 'NONE', #299, .T. ) ;
#290 = CARTESIAN_POINT ( 'NONE',  ( 0.0000000000000000000, 0.0000000000000000000, 0.0000000000000000000 ) ) ;
#291 = CIRCLE ( 'NONE', #365, 0.01968303149999999294 ) ;
#292 = PRESENTATION_STYLE_ASSIGNMENT (( #277 ) ) ;
#293 = LENGTH_MEASURE_WITH_UNIT ( LENGTH_MEASURE( 0.02539999999999999897 ), #262 );
#294 = SURFACE_STYLE_FILL_AREA ( #111 ) ;
#295 = CIRCLE ( 'NONE', #350, 0.01968303149999999294 ) ;
#296 = DIRECTION ( 'NONE',  ( -1.000000000000000000, 0.0000000000000000000, 0.0000000000000000000 ) ) ;
#297 = ADVANCED_FACE ( 'NONE', ( #246 ), #282, .T. ) ;
#298 = VECTOR ( 'NONE', #3, 39.37007874015748143 ) ;
#299 = EDGE_LOOP ( 'NONE', ( #191, #59 ) ) ;
#300 = ORIENTED_EDGE ( 'NONE', *, *, #333, .F. ) ;
#301 = DIRECTION ( 'NONE',  ( 0.0000000000000000000, 0.0000000000000000000, -1.000000000000000000 ) ) ;
#302 = EDGE_LOOP ( 'NONE', ( #361, #70 ) ) ;
#303 = LINE ( 'NONE', #36, #29 ) ;
#304 = VECTOR ( 'NONE', #367, 39.37007874015748854 ) ;
#305 = VERTEX_POINT ( 'NONE', #127 ) ;
#306 = DIRECTION ( 'NONE',  ( -1.000000000000000000, 0.0000000000000000000, 0.0000000000000000000 ) ) ;
#307 = VERTEX_POINT ( 'NONE', #103 ) ;
#308 = CARTESIAN_POINT ( 'NONE',  ( 0.0000000000000000000, 0.0000000000000000000, 2.229093999999999465 ) ) ;
#309 = ADVANCED_FACE ( 'NONE', ( #332 ), #268, .T. ) ;
#310 = EDGE_LOOP ( 'NONE', ( #129, #197, #199, #14 ) ) ;
#311 = DIRECTION ( 'NONE',  ( -0.0000000000000000000, -0.0000000000000000000, -1.000000000000000000 ) ) ;
#312 = CARTESIAN_POINT ( 'NONE',  ( 0.01870100000000009602, 0.0000000000000000000, 0.7874019999999999353 ) ) ;
#313 = AXIS2_PLACEMENT_3D ( 'NONE', #13, #360, #251 ) ;
#314 = CARTESIAN_POINT ( 'NONE',  ( 0.1181100000000000066, 1.446430334472939084E-17, 2.229093999999999465 ) ) ;
#315 = DIRECTION ( 'NONE',  ( -1.000000000000000000, 0.0000000000000000000, 0.0000000000000000000 ) ) ;
#316 = FACE_OUTER_BOUND ( 'NONE', #245, .T. ) ;
#317 = DIRECTION ( 'NONE',  ( -0.0000000000000000000, -0.0000000000000000000, -1.000000000000000000 ) ) ;
#318 = CARTESIAN_POINT ( 'NONE',  ( -0.01870100000000005092, 0.0000000000000000000, 0.0000000000000000000 ) ) ;
#319 = CARTESIAN_POINT ( 'NONE',  ( 0.0000000000000000000, 0.0000000000000000000, 0.03937000000000000222 ) ) ;
#320 = STYLED_ITEM ( 'NONE', ( #292 ), #188 ) ;
#321 = CIRCLE ( 'NONE', #1, 0.01870100000000009602 ) ;
#322 = STYLED_ITEM ( 'NONE', ( #25 ), #153 ) ;
#323 = SURFACE_STYLE_USAGE ( .BOTH. , #83 ) ;
#324 = SURFACE_SIDE_STYLE ('',( #115 ) ) ;
#325 = AXIS2_PLACEMENT_3D ( 'NONE', #368, #374, #23 ) ;
#326 = FILL_AREA_STYLE_COLOUR ( '', #52 ) ;
#327 = EDGE_CURVE ( 'NONE', #131, #124, #271, .T. ) ;
#328 = PRODUCT_DEFINITION_SHAPE ( 'NONE', 'NONE',  #134 ) ;
#329 = DIMENSIONAL_EXPONENTS ( 1.000000000000000000, 0.0000000000000000000, 0.0000000000000000000, 0.0000000000000000000, 0.0000000000000000000, 0.0000000000000000000, 0.0000000000000000000 ) ;
#330 = VERTEX_POINT ( 'NONE', #125 ) ;
#331 = ORIENTED_EDGE ( 'NONE', *, *, #351, .F. ) ;
#332 = FACE_OUTER_BOUND ( 'NONE', #252, .T. ) ;
#333 = EDGE_CURVE ( 'NONE', #126, #131, #66, .T. ) ;
#334 = CARTESIAN_POINT ( 'NONE',  ( -0.01968303149999999294, 0.0000000000000000000, 0.03937000000000000222 ) ) ;
#335 = CARTESIAN_POINT ( 'NONE',  ( 0.0000000000000000000, 0.0000000000000000000, 2.244094000000000033 ) ) ;
#336 = VECTOR ( 'NONE', #311, 39.37007874015748143 ) ;
#337 = ORIENTED_EDGE ( 'NONE', *, *, #144, .T. ) ;
#338 =( CONVERSION_BASED_UNIT ( 'INCH', #160 ) LENGTH_UNIT ( ) NAMED_UNIT ( #122 ) );
#339 = AXIS2_PLACEMENT_3D ( 'NONE', #149, #20, #179 ) ;
#340 = EDGE_CURVE ( 'NONE', #281, #31, #138, .T. ) ;
#341 = ORIENTED_EDGE ( 'NONE', *, *, #232, .F. ) ;
#342 = VERTEX_POINT ( 'NONE', #49 ) ;
#343 = DIRECTION ( 'NONE',  ( -0.0000000000000000000, -0.0000000000000000000, -1.000000000000000000 ) ) ;
#344 = FACE_OUTER_BOUND ( 'NONE', #159, .T. ) ;
#345 = LINE ( 'NONE', #74, #163 ) ;
#346 = EDGE_CURVE ( 'NONE', #307, #305, #28, .T. ) ;
#347 = LINE ( 'NONE', #318, #87 ) ;
#348 = CYLINDRICAL_SURFACE ( 'NONE', #76, 0.01968303149999999294 ) ;
#349 = DIRECTION ( 'NONE',  ( -1.000000000000000000, 0.0000000000000000000, 0.0000000000000000000 ) ) ;
#350 = AXIS2_PLACEMENT_3D ( 'NONE', #319, #107, #226 ) ;
#351 = EDGE_CURVE ( 'NONE', #305, #307, #53, .T. ) ;
#352 = AXIS2_PLACEMENT_3D ( 'NONE', #255, #371, #177 ) ;
#353 = EDGE_CURVE ( 'NONE', #342, #173, #237, .T. ) ;
#354 =( GEOMETRIC_REPRESENTATION_CONTEXT ( 3 ) GLOBAL_UNCERTAINTY_ASSIGNED_CONTEXT ( ( #73 ) ) GLOBAL_UNIT_ASSIGNED_CONTEXT ( ( #338, #196, #132 ) ) REPRESENTATION_CONTEXT ( 'NONE', 'WORKASPACE' ) );
#355 = ORIENTED_EDGE ( 'NONE', *, *, #210, .F. ) ;
#356 = ORIENTED_EDGE ( 'NONE', *, *, #267, .F. ) ;
#357 = DIRECTION ( 'NONE',  ( -0.0000000000000000000, -0.0000000000000000000, -1.000000000000000000 ) ) ;
#358 = EDGE_CURVE ( 'NONE', #248, #4, #46, .T. ) ;
#359 = ORIENTED_EDGE ( 'NONE', *, *, #346, .T. ) ;
#360 = DIRECTION ( 'NONE',  ( -0.0000000000000000000, -0.0000000000000000000, -1.000000000000000000 ) ) ;
#361 = ORIENTED_EDGE ( 'NONE', *, *, #340, .F. ) ;
#362 = CARTESIAN_POINT ( 'NONE',  ( 0.0000000000000000000, 0.0000000000000000000, 0.0000000000000000000 ) ) ;
#363 = EDGE_CURVE ( 'NONE', #248, #330, #16, .T. ) ;
#364 = ORIENTED_EDGE ( 'NONE', *, *, #128, .T. ) ;
#365 = AXIS2_PLACEMENT_3D ( 'NONE', #290, #207, #170 ) ;
#366 = PRODUCT_DEFINITION_FORMATION_WITH_SPECIFIED_SOURCE ( 'ANY', '', #69, .NOT_KNOWN. ) ;
#367 = DIRECTION ( 'NONE',  ( -0.7071067811865358044, 0.0000000000000000000, -0.7071067811865590080 ) ) ;
#368 = CARTESIAN_POINT ( 'NONE',  ( 0.0000000000000000000, 0.0000000000000000000, 0.0000000000000000000 ) ) ;
#369 =( CONVERSION_BASED_UNIT ( 'INCH', #141 ) LENGTH_UNIT ( ) NAMED_UNIT ( #329 ) );
#370 = FACE_OUTER_BOUND ( 'NONE', #35, .T. ) ;
#371 = DIRECTION ( 'NONE',  ( -0.0000000000000000000, -0.0000000000000000000, -1.000000000000000000 ) ) ;
#372 = CIRCLE ( 'NONE', #339, 0.1181100000000000066 ) ;
#373 = AXIS2_PLACEMENT_3D ( 'NONE', #206, #19, #143 ) ;
#374 = DIRECTION ( 'NONE',  ( 0.0000000000000000000, 0.0000000000000000000, 1.000000000000000000 ) ) ;
#375 = DIRECTION ( 'NONE',  ( -0.0000000000000000000, -0.0000000000000000000, -1.000000000000000000 ) ) ;
#376 = APPLICATION_PROTOCOL_DEFINITION ( 'draft international standard', 'automotive_design', 1998, #378 ) ;
#377 = ADVANCED_FACE ( 'NONE', ( #78, #289 ), #257, .T. ) ;
#378 = APPLICATION_CONTEXT ( 'automotive_design' ) ;
#379 = AXIS2_PLACEMENT_3D ( 'NONE', #71, #343, #42 ) ;
ENDSEC;
END-ISO-10303-21;
