ISO-10303-21;
HEADER;
FILE_DESCRIPTION (( 'STEP AP214' ),
    '1' );
FILE_NAME ('Micro_AEMM-060-3X.STEP',
    '2022-03-15T14:27:47',
    ( '' ),
    ( '' ),
    'SwSTEP 2.0',
    'SolidWorks 2022',
    '' );
FILE_SCHEMA (( 'AUTOMOTIVE_DESIGN' ));
ENDSEC;

DATA;
#1 = ORIENTED_EDGE ( 'NONE', *, *, #228, .T. ) ;
#2 = PRODUCT_DEFINITION ( 'UNKNOWN', '', #31, #17 ) ;
#3 = EDGE_CURVE ( 'NONE', #284, #129, #6, .T. ) ;
#4 = DIRECTION ( 'NONE',  ( -1.224646799147353207E-16, -0.000000000000000000, -1.000000000000000000 ) ) ;
#5 = LINE ( 'NONE', #100, #297 ) ;
#6 = CIRCLE ( 'NONE', #192, 0.1181100000000000066 ) ;
#7 = AXIS2_PLACEMENT_3D ( 'NONE', #244, #193, #220 ) ;
#8 = CARTESIAN_POINT ( 'NONE',  ( -0.1031100000000002570, 0.000000000000000000, 2.244094000000000033 ) ) ;
#9 = DIRECTION ( 'NONE',  ( 1.000000000000000000, 0.000000000000000000, -0.000000000000000000 ) ) ;
#10 = DIRECTION ( 'NONE',  ( -1.000000000000000000, 0.000000000000000000, 1.224646799147353454E-16 ) ) ;
#11 = FACE_OUTER_BOUND ( 'NONE', #256, .T. ) ;
#12 = CYLINDRICAL_SURFACE ( 'NONE', #267, 0.1181100000000000066 ) ;
#13 = SHAPE_DEFINITION_REPRESENTATION ( #131, #20 ) ;
#14 = DIRECTION ( 'NONE',  ( -1.224646799147353207E-16, -0.000000000000000000, -1.000000000000000000 ) ) ;
#15 = FACE_OUTER_BOUND ( 'NONE', #27, .T. ) ;
#16 = CYLINDRICAL_SURFACE ( 'NONE', #38, 0.1179918899999999882 ) ;
#17 = PRODUCT_DEFINITION_CONTEXT ( 'detailed design', #208, 'design' ) ;
#18 = AXIS2_PLACEMENT_3D ( 'NONE', #75, #35, #10 ) ;
#19 = CARTESIAN_POINT ( 'NONE',  ( -0.1181100000000000066, 0.000000000000000000, 2.244094000000000033 ) ) ;
#20 = ADVANCED_BREP_SHAPE_REPRESENTATION ( 'Micro_AEMM-060-3X', ( #164, #233 ), #118 ) ;
#21 =( NAMED_UNIT ( * ) SI_UNIT ( $, .STERADIAN. ) SOLID_ANGLE_UNIT ( ) );
#22 = EDGE_CURVE ( 'NONE', #246, #47, #5, .T. ) ;
#23 = PRESENTATION_LAYER_ASSIGNMENT (  '', '', ( #72 ) ) ;
#24 = DIRECTION ( 'NONE',  ( -0.7071067811865358044, 0.000000000000000000, -0.7071067811865590080 ) ) ;
#25 = ORIENTED_EDGE ( 'NONE', *, *, #117, .F. ) ;
#26 = CARTESIAN_POINT ( 'NONE',  ( -0.1181100000000000066, 0.000000000000000000, 2.229093999999999465 ) ) ;
#27 = EDGE_LOOP ( 'NONE', ( #64, #104, #25, #196 ) ) ;
#28 = CARTESIAN_POINT ( 'NONE',  ( 0.1179918900000000853, 0.000000000000000000, 0.6299209999999999532 ) ) ;
#29 = CARTESIAN_POINT ( 'NONE',  ( -0.1179918899999999882, 0.000000000000000000, 2.889967808276931875E-17 ) ) ;
#30 = CIRCLE ( 'NONE', #212, 0.1031100000000002570 ) ;
#31 = PRODUCT_DEFINITION_FORMATION_WITH_SPECIFIED_SOURCE ( 'ANY', '', #86, .NOT_KNOWN. ) ;
#32 = DIRECTION ( 'NONE',  ( 0.000000000000000000, 0.000000000000000000, -1.000000000000000000 ) ) ;
#33 = ORIENTED_EDGE ( 'NONE', *, *, #78, .F. ) ;
#34 =( NAMED_UNIT ( * ) SI_UNIT ( $, .STERADIAN. ) SOLID_ANGLE_UNIT ( ) );
#35 = DIRECTION ( 'NONE',  ( -1.224646799147353207E-16, -0.000000000000000000, -1.000000000000000000 ) ) ;
#36 = VERTEX_POINT ( 'NONE', #243 ) ;
#37 = DIRECTION ( 'NONE',  ( 1.000000000000000000, 0.000000000000000000, 0.000000000000000000 ) ) ;
#38 = AXIS2_PLACEMENT_3D ( 'NONE', #205, #269, #231 ) ;
#39 = ADVANCED_FACE ( 'NONE', ( #56 ), #12, .T. ) ;
#40 = EDGE_CURVE ( 'NONE', #47, #279, #114, .T. ) ;
#41 = COLOUR_RGB ( '',0.7921568627450980005, 0.8196078431372548767, 0.9333333333333333481 ) ;
#42 = FILL_AREA_STYLE ('',( #185 ) ) ;
#43 = ORIENTED_EDGE ( 'NONE', *, *, #295, .F. ) ;
#44 = MECHANICAL_DESIGN_GEOMETRIC_PRESENTATION_REPRESENTATION (  '', ( #72 ), #159 ) ;
#45 = DIRECTION ( 'NONE',  ( -0.000000000000000000, -0.000000000000000000, -1.000000000000000000 ) ) ;
#46 = VECTOR ( 'NONE', #238, 39.37007874015748143 ) ;
#47 = VERTEX_POINT ( 'NONE', #29 ) ;
#48 = DIRECTION ( 'NONE',  ( 0.000000000000000000, 0.000000000000000000, 1.000000000000000000 ) ) ;
#49 = ORIENTED_EDGE ( 'NONE', *, *, #22, .F. ) ;
#50 = CARTESIAN_POINT ( 'NONE',  ( 7.714307363656999460E-17, 0.000000000000000000, 0.6299209999999999532 ) ) ;
#51 = ORIENTED_EDGE ( 'NONE', *, *, #125, .T. ) ;
#52 = ORIENTED_EDGE ( 'NONE', *, *, #168, .T. ) ;
#53 = CIRCLE ( 'NONE', #232, 0.1179918899999999882 ) ;
#54 = SURFACE_SIDE_STYLE ('',( #218 ) ) ;
#55 = ORIENTED_EDGE ( 'NONE', *, *, #168, .F. ) ;
#56 = FACE_OUTER_BOUND ( 'NONE', #259, .T. ) ;
#57 = DIRECTION ( 'NONE',  ( 1.000000000000000000, 0.000000000000000000, 0.000000000000000000 ) ) ;
#58 = ADVANCED_FACE ( 'NONE', ( #171 ), #108, .T. ) ;
#59 = ADVANCED_FACE ( 'NONE', ( #202 ), #112, .T. ) ;
#60 = LINE ( 'NONE', #19, #141 ) ;
#61 = PLANE ( 'NONE',  #162 ) ;
#62 = DIRECTION ( 'NONE',  ( 0.7071067811865358044, 8.659560562354788645E-17, -0.7071067811865590080 ) ) ;
#63 = CONICAL_SURFACE ( 'NONE', #111, 0.1179918899999999882, 0.1745329251994339192 ) ;
#64 = ORIENTED_EDGE ( 'NONE', *, *, #94, .F. ) ;
#65 = ADVANCED_FACE ( 'NONE', ( #15 ), #186, .T. ) ;
#66 = EDGE_CURVE ( 'NONE', #261, #98, #214, .T. ) ;
#67 = APPLICATION_CONTEXT ( 'automotive_design' ) ;
#68 = ORIENTED_EDGE ( 'NONE', *, *, #94, .T. ) ;
#69 = ADVANCED_FACE ( 'NONE', ( #190 ), #140, .T. ) ;
#70 = CARTESIAN_POINT ( 'NONE',  ( 0.000000000000000000, 0.000000000000000000, 2.244094000000000033 ) ) ;
#71 = FILL_AREA_STYLE ('',( #107 ) ) ;
#72 = STYLED_ITEM ( 'NONE', ( #142 ), #164 ) ;
#73 = VERTEX_POINT ( 'NONE', #242 ) ;
#74 = DIRECTION ( 'NONE',  ( 1.000000000000000000, 0.000000000000000000, 0.000000000000000000 ) ) ;
#75 = CARTESIAN_POINT ( 'NONE',  ( 1.769594913022618037E-33, 0.000000000000000000, 1.444983904138465938E-17 ) ) ;
#76 = PRODUCT_CONTEXT ( 'NONE', #67, 'mechanical' ) ;
#77 = ORIENTED_EDGE ( 'NONE', *, *, #66, .T. ) ;
#78 = EDGE_CURVE ( 'NONE', #73, #279, #255, .T. ) ;
#79 = CARTESIAN_POINT ( 'NONE',  ( 0.1181100000000000066, 1.446430334472939084E-17, 2.244094000000000033 ) ) ;
#80 = ORIENTED_EDGE ( 'NONE', *, *, #125, .F. ) ;
#81 = VECTOR ( 'NONE', #45, 39.37007874015748143 ) ;
#82 = CARTESIAN_POINT ( 'NONE',  ( 0.000000000000000000, 0.000000000000000000, 0.000000000000000000 ) ) ;
#83 = ORIENTED_EDGE ( 'NONE', *, *, #157, .T. ) ;
#84 = DIRECTION ( 'NONE',  ( -0.000000000000000000, -0.000000000000000000, -1.000000000000000000 ) ) ;
#85 = CARTESIAN_POINT ( 'NONE',  ( 0.000000000000000000, 0.000000000000000000, 2.244094000000000033 ) ) ;
#86 = PRODUCT ( 'Micro_AEMM-060-3X', 'Micro_AEMM-060-3X', '', ( #76 ) ) ;
#87 = LINE ( 'NONE', #175, #201 ) ;
#88 = AXIS2_PLACEMENT_3D ( 'NONE', #188, #274, #74 ) ;
#89 = CARTESIAN_POINT ( 'NONE',  ( 0.000000000000000000, 0.000000000000000000, 2.244094000000000033 ) ) ;
#90 = DIRECTION ( 'NONE',  ( -0.000000000000000000, -0.000000000000000000, -1.000000000000000000 ) ) ;
#91 = VECTOR ( 'NONE', #24, 39.37007874015748854 ) ;
#92 =( NAMED_UNIT ( * ) PLANE_ANGLE_UNIT ( ) SI_UNIT ( $, .RADIAN. ) );
#93 =( CONVERSION_BASED_UNIT ( 'INCH', #234 ) LENGTH_UNIT ( ) NAMED_UNIT ( #217 ) );
#94 = EDGE_CURVE ( 'NONE', #36, #261, #226, .T. ) ;
#95 = EDGE_CURVE ( 'NONE', #73, #246, #53, .T. ) ;
#96 = APPLICATION_PROTOCOL_DEFINITION ( 'draft international standard', 'automotive_design', 1998, #67 ) ;
#97 = ORIENTED_EDGE ( 'NONE', *, *, #40, .F. ) ;
#98 = VERTEX_POINT ( 'NONE', #26 ) ;
#99 = CARTESIAN_POINT ( 'NONE',  ( 0.1181100000000000899, 1.446430334472940009E-17, 0.6305908350957151187 ) ) ;
#100 = CARTESIAN_POINT ( 'NONE',  ( -0.1179918899999999882, 0.000000000000000000, 1.444983904138465938E-17 ) ) ;
#101 = CARTESIAN_POINT ( 'NONE',  ( 7.714307363656999460E-17, 0.000000000000000000, 0.6299209999999999532 ) ) ;
#102 = ORIENTED_EDGE ( 'NONE', *, *, #22, .T. ) ;
#103 = DIRECTION ( 'NONE',  ( -1.000000000000000000, 0.000000000000000000, 0.000000000000000000 ) ) ;
#104 = ORIENTED_EDGE ( 'NONE', *, *, #278, .T. ) ;
#105 = DIMENSIONAL_EXPONENTS ( 1.000000000000000000, 0.000000000000000000, 0.000000000000000000, 0.000000000000000000, 0.000000000000000000, 0.000000000000000000, 0.000000000000000000 ) ;
#106 =( CONVERSION_BASED_UNIT ( 'INCH', #262 ) LENGTH_UNIT ( ) NAMED_UNIT ( #105 ) );
#107 = FILL_AREA_STYLE_COLOUR ( '', #41 ) ;
#108 = PLANE ( 'NONE',  #187 ) ;
#109 = CARTESIAN_POINT ( 'NONE',  ( -0.1181099999999999234, 0.000000000000000000, 0.6305908350957151187 ) ) ;
#110 = DIRECTION ( 'NONE',  ( -0.000000000000000000, -0.000000000000000000, -1.000000000000000000 ) ) ;
#111 = AXIS2_PLACEMENT_3D ( 'NONE', #265, #115, #57 ) ;
#112 = CYLINDRICAL_SURFACE ( 'NONE', #253, 0.1179918899999999882 ) ;
#113 = FACE_OUTER_BOUND ( 'NONE', #199, .T. ) ;
#114 = CIRCLE ( 'NONE', #18, 0.1179918899999999882 ) ;
#115 = DIRECTION ( 'NONE',  ( 1.224646799147353207E-16, 0.000000000000000000, 1.000000000000000000 ) ) ;
#116 = SURFACE_STYLE_USAGE ( .BOTH. , #122 ) ;
#117 = EDGE_CURVE ( 'NONE', #98, #152, #251, .T. ) ;
#118 =( GEOMETRIC_REPRESENTATION_CONTEXT ( 3 ) GLOBAL_UNCERTAINTY_ASSIGNED_CONTEXT ( ( #293 ) ) GLOBAL_UNIT_ASSIGNED_CONTEXT ( ( #93, #92, #21 ) ) REPRESENTATION_CONTEXT ( 'NONE', 'WORKASPACE' ) );
#119 = EDGE_CURVE ( 'NONE', #246, #73, #252, .T. ) ;
#120 = AXIS2_PLACEMENT_3D ( 'NONE', #177, #178, #268 ) ;
#121 = ORIENTED_EDGE ( 'NONE', *, *, #117, .T. ) ;
#122 = SURFACE_SIDE_STYLE ('',( #296 ) ) ;
#123 = DIRECTION ( 'NONE',  ( 1.000000000000000000, 0.000000000000000000, 0.000000000000000000 ) ) ;
#124 = DIRECTION ( 'NONE',  ( 1.000000000000000000, 0.000000000000000000, 0.000000000000000000 ) ) ;
#125 = EDGE_CURVE ( 'NONE', #129, #284, #291, .T. ) ;
#126 = CARTESIAN_POINT ( 'NONE',  ( 0.1181100000000000066, 1.446430334472939084E-17, 2.229093999999999465 ) ) ;
#127 = AXIS2_PLACEMENT_3D ( 'NONE', #101, #281, #167 ) ;
#128 = ORIENTED_EDGE ( 'NONE', *, *, #189, .F. ) ;
#129 = VERTEX_POINT ( 'NONE', #99 ) ;
#130 = ORIENTED_EDGE ( 'NONE', *, *, #3, .F. ) ;
#131 = PRODUCT_DEFINITION_SHAPE ( 'NONE', 'NONE',  #2 ) ;
#132 = DIRECTION ( 'NONE',  ( 0.000000000000000000, 0.000000000000000000, 1.000000000000000000 ) ) ;
#133 = DIRECTION ( 'NONE',  ( 1.000000000000000000, 0.000000000000000000, 0.000000000000000000 ) ) ;
#134 = ORIENTED_EDGE ( 'NONE', *, *, #295, .T. ) ;
#135 = CARTESIAN_POINT ( 'NONE',  ( -0.1031100000000002570, 0.000000000000000000, 2.244094000000000033 ) ) ;
#136 = CARTESIAN_POINT ( 'NONE',  ( 0.000000000000000000, 0.000000000000000000, 2.244094000000000033 ) ) ;
#137 = CARTESIAN_POINT ( 'NONE',  ( 0.1031100000000002570, 1.262733314600838667E-17, 2.244094000000000033 ) ) ;
#138 = AXIS2_PLACEMENT_3D ( 'NONE', #89, #84, #183 ) ;
#139 =( LENGTH_UNIT ( ) NAMED_UNIT ( * ) SI_UNIT ( $, .METRE. ) );
#140 = CONICAL_SURFACE ( 'NONE', #88, 0.1179918899999999882, 0.1745329251994339192 ) ;
#141 = VECTOR ( 'NONE', #90, 39.37007874015748143 ) ;
#142 = PRESENTATION_STYLE_ASSIGNMENT (( #151 ) ) ;
#143 = CARTESIAN_POINT ( 'NONE',  ( 0.000000000000000000, 0.000000000000000000, 2.229093999999999465 ) ) ;
#144 = ORIENTED_EDGE ( 'NONE', *, *, #78, .T. ) ;
#145 = ADVANCED_FACE ( 'NONE', ( #275 ), #179, .T. ) ;
#146 = EDGE_CURVE ( 'NONE', #73, #129, #240, .T. ) ;
#147 = DIRECTION ( 'NONE',  ( 0.000000000000000000, 0.000000000000000000, -1.000000000000000000 ) ) ;
#148 = ORIENTED_EDGE ( 'NONE', *, *, #278, .F. ) ;
#149 = AXIS2_PLACEMENT_3D ( 'NONE', #143, #32, #123 ) ;
#150 = ORIENTED_EDGE ( 'NONE', *, *, #184, .T. ) ;
#151 = SURFACE_STYLE_USAGE ( .BOTH. , #54 ) ;
#152 = VERTEX_POINT ( 'NONE', #126 ) ;
#153 =( LENGTH_UNIT ( ) NAMED_UNIT ( * ) SI_UNIT ( $, .METRE. ) );
#154 = ORIENTED_EDGE ( 'NONE', *, *, #228, .F. ) ;
#155 = CARTESIAN_POINT ( 'NONE',  ( 1.769594913022618037E-33, 0.000000000000000000, 1.444983904138465938E-17 ) ) ;
#156 = AXIS2_PLACEMENT_3D ( 'NONE', #70, #147, #103 ) ;
#157 = EDGE_CURVE ( 'NONE', #152, #129, #283, .T. ) ;
#158 = CARTESIAN_POINT ( 'NONE',  ( 0.1179918899999999882, 1.444983904138465938E-17, 0.000000000000000000 ) ) ;
#159 =( GEOMETRIC_REPRESENTATION_CONTEXT ( 3 ) GLOBAL_UNCERTAINTY_ASSIGNED_CONTEXT ( ( #210 ) ) GLOBAL_UNIT_ASSIGNED_CONTEXT ( ( #225, #229, #223 ) ) REPRESENTATION_CONTEXT ( 'NONE', 'WORKASPACE' ) );
#160 = COLOUR_RGB ( '',0.7921568627450980005, 0.8196078431372548767, 0.9333333333333333481 ) ;
#161 = ORIENTED_EDGE ( 'NONE', *, *, #146, .F. ) ;
#162 = AXIS2_PLACEMENT_3D ( 'NONE', #82, #266, #250 ) ;
#163 = STYLED_ITEM ( 'NONE', ( #211 ), #20 ) ;
#164 = MANIFOLD_SOLID_BREP ( 'Cut-Revolve1', #247 ) ;
#165 = DIRECTION ( 'NONE',  ( 0.1736481776669314137, 0.000000000000000000, 0.9848077530122077983 ) ) ;
#166 = EDGE_LOOP ( 'NONE', ( #55, #239, #258, #51 ) ) ;
#167 = DIRECTION ( 'NONE',  ( -1.000000000000000000, 0.000000000000000000, 0.000000000000000000 ) ) ;
#168 = EDGE_CURVE ( 'NONE', #246, #284, #87, .T. ) ;
#169 = ORIENTED_EDGE ( 'NONE', *, *, #184, .F. ) ;
#170 = ADVANCED_FACE ( 'NONE', ( #260 ), #61, .F. ) ;
#171 = FACE_OUTER_BOUND ( 'NONE', #216, .T. ) ;
#172 = ORIENTED_EDGE ( 'NONE', *, *, #119, .F. ) ;
#173 = CARTESIAN_POINT ( 'NONE',  ( 0.000000000000000000, 0.000000000000000000, 2.244094000000000033 ) ) ;
#174 = EDGE_LOOP ( 'NONE', ( #224, #299 ) ) ;
#175 = CARTESIAN_POINT ( 'NONE',  ( -0.1179918899999999049, 1.444983904138465938E-17, 0.6299209999999999532 ) ) ;
#176 = ORIENTED_EDGE ( 'NONE', *, *, #3, .T. ) ;
#177 = CARTESIAN_POINT ( 'NONE',  ( 0.000000000000000000, 0.000000000000000000, 2.229093999999999465 ) ) ;
#178 = DIRECTION ( 'NONE',  ( 0.000000000000000000, 0.000000000000000000, -1.000000000000000000 ) ) ;
#179 = CONICAL_SURFACE ( 'NONE', #156, 0.1031100000000002570, 0.7853981633974318477 ) ;
#180 =( GEOMETRIC_REPRESENTATION_CONTEXT ( 3 ) GLOBAL_UNCERTAINTY_ASSIGNED_CONTEXT ( ( #182 ) ) GLOBAL_UNIT_ASSIGNED_CONTEXT ( ( #106, #203, #34 ) ) REPRESENTATION_CONTEXT ( 'NONE', 'WORKASPACE' ) );
#181 = DIRECTION ( 'NONE',  ( -1.000000000000000000, 0.000000000000000000, 1.224646799147353454E-16 ) ) ;
#182 = UNCERTAINTY_MEASURE_WITH_UNIT (LENGTH_MEASURE( 1.000000000000000082E-05 ), #106, 'distance_accuracy_value', 'NONE');
#183 = DIRECTION ( 'NONE',  ( -1.000000000000000000, 0.000000000000000000, 0.000000000000000000 ) ) ;
#184 = EDGE_CURVE ( 'NONE', #261, #36, #30, .T. ) ;
#185 = FILL_AREA_STYLE_COLOUR ( '', #160 ) ;
#186 = CONICAL_SURFACE ( 'NONE', #235, 0.1031100000000002570, 0.7853981633974318477 ) ;
#187 = AXIS2_PLACEMENT_3D ( 'NONE', #276, #219, #9 ) ;
#188 = CARTESIAN_POINT ( 'NONE',  ( 7.714307363656999460E-17, 0.000000000000000000, 0.6299209999999999532 ) ) ;
#189 = EDGE_CURVE ( 'NONE', #279, #47, #249, .T. ) ;
#190 = FACE_OUTER_BOUND ( 'NONE', #166, .T. ) ;
#191 = CARTESIAN_POINT ( 'NONE',  ( 0.000000000000000000, 0.000000000000000000, 2.244094000000000033 ) ) ;
#192 = AXIS2_PLACEMENT_3D ( 'NONE', #264, #245, #124 ) ;
#193 = DIRECTION ( 'NONE',  ( -1.224646799147353207E-16, -0.000000000000000000, -1.000000000000000000 ) ) ;
#194 = DIRECTION ( 'NONE',  ( -1.000000000000000000, 0.000000000000000000, 0.000000000000000000 ) ) ;
#195 = DIRECTION ( 'NONE',  ( 1.000000000000000000, 0.000000000000000000, 0.000000000000000000 ) ) ;
#196 = ORIENTED_EDGE ( 'NONE', *, *, #66, .F. ) ;
#197 = APPLICATION_PROTOCOL_DEFINITION ( 'draft international standard', 'automotive_design', 1998, #208 ) ;
#198 = DIRECTION ( 'NONE',  ( 0.000000000000000000, 0.000000000000000000, -1.000000000000000000 ) ) ;
#199 = EDGE_LOOP ( 'NONE', ( #33, #241, #102, #128 ) ) ;
#200 =( LENGTH_UNIT ( ) NAMED_UNIT ( * ) SI_UNIT ( $, .METRE. ) );
#201 = VECTOR ( 'NONE', #286, 39.37007874015747433 ) ;
#202 = FACE_OUTER_BOUND ( 'NONE', #271, .T. ) ;
#203 =( NAMED_UNIT ( * ) PLANE_ANGLE_UNIT ( ) SI_UNIT ( $, .RADIAN. ) );
#204 = CARTESIAN_POINT ( 'NONE',  ( 0.000000000000000000, 0.000000000000000000, 0.000000000000000000 ) ) ;
#205 = CARTESIAN_POINT ( 'NONE',  ( 0.000000000000000000, 0.000000000000000000, 0.000000000000000000 ) ) ;
#206 = ADVANCED_FACE ( 'NONE', ( #288 ), #230, .T. ) ;
#207 = VECTOR ( 'NONE', #165, 39.37007874015748143 ) ;
#208 = APPLICATION_CONTEXT ( 'automotive_design' ) ;
#209 = LINE ( 'NONE', #137, #285 ) ;
#210 = UNCERTAINTY_MEASURE_WITH_UNIT (LENGTH_MEASURE( 1.000000000000000082E-05 ), #225, 'distance_accuracy_value', 'NONE');
#211 = PRESENTATION_STYLE_ASSIGNMENT (( #116 ) ) ;
#212 = AXIS2_PLACEMENT_3D ( 'NONE', #136, #292, #133 ) ;
#213 = MECHANICAL_DESIGN_GEOMETRIC_PRESENTATION_REPRESENTATION (  '', ( #163 ), #180 ) ;
#214 = LINE ( 'NONE', #8, #91 ) ;
#215 = DIRECTION ( 'NONE',  ( -1.000000000000000000, 0.000000000000000000, 0.000000000000000000 ) ) ;
#216 = EDGE_LOOP ( 'NONE', ( #150, #68 ) ) ;
#217 = DIMENSIONAL_EXPONENTS ( 1.000000000000000000, 0.000000000000000000, 0.000000000000000000, 0.000000000000000000, 0.000000000000000000, 0.000000000000000000, 0.000000000000000000 ) ;
#218 = SURFACE_STYLE_FILL_AREA ( #71 ) ;
#219 = DIRECTION ( 'NONE',  ( 0.000000000000000000, 0.000000000000000000, 1.000000000000000000 ) ) ;
#220 = DIRECTION ( 'NONE',  ( 1.000000000000000000, 0.000000000000000000, 0.000000000000000000 ) ) ;
#221 = DIMENSIONAL_EXPONENTS ( 1.000000000000000000, 0.000000000000000000, 0.000000000000000000, 0.000000000000000000, 0.000000000000000000, 0.000000000000000000, 0.000000000000000000 ) ;
#222 = DIRECTION ( 'NONE',  ( -1.224646799147353207E-16, -0.000000000000000000, -1.000000000000000000 ) ) ;
#223 =( NAMED_UNIT ( * ) SI_UNIT ( $, .STERADIAN. ) SOLID_ANGLE_UNIT ( ) );
#224 = ORIENTED_EDGE ( 'NONE', *, *, #40, .T. ) ;
#225 =( CONVERSION_BASED_UNIT ( 'INCH', #294 ) LENGTH_UNIT ( ) NAMED_UNIT ( #221 ) );
#226 = CIRCLE ( 'NONE', #277, 0.1031100000000002570 ) ;
#227 = DIRECTION ( 'NONE',  ( -1.000000000000000000, 0.000000000000000000, 1.224646799147353454E-16 ) ) ;
#228 = EDGE_CURVE ( 'NONE', #152, #98, #272, .T. ) ;
#229 =( NAMED_UNIT ( * ) PLANE_ANGLE_UNIT ( ) SI_UNIT ( $, .RADIAN. ) );
#230 = CYLINDRICAL_SURFACE ( 'NONE', #138, 0.1181100000000000066 ) ;
#231 = DIRECTION ( 'NONE',  ( -1.000000000000000000, 0.000000000000000000, 1.224646799147353454E-16 ) ) ;
#232 = AXIS2_PLACEMENT_3D ( 'NONE', #50, #4, #215 ) ;
#233 = AXIS2_PLACEMENT_3D ( 'NONE', #290, #132, #37 ) ;
#234 = LENGTH_MEASURE_WITH_UNIT ( LENGTH_MEASURE( 0.02539999999999999897 ), #200 );
#235 = AXIS2_PLACEMENT_3D ( 'NONE', #85, #198, #237 ) ;
#236 = ADVANCED_FACE ( 'NONE', ( #11 ), #63, .T. ) ;
#237 = DIRECTION ( 'NONE',  ( -1.000000000000000000, 0.000000000000000000, 0.000000000000000000 ) ) ;
#238 = DIRECTION ( 'NONE',  ( -1.224646799147353207E-16, -0.000000000000000000, -1.000000000000000000 ) ) ;
#239 = ORIENTED_EDGE ( 'NONE', *, *, #95, .F. ) ;
#240 = LINE ( 'NONE', #28, #207 ) ;
#241 = ORIENTED_EDGE ( 'NONE', *, *, #95, .T. ) ;
#242 = CARTESIAN_POINT ( 'NONE',  ( 0.1179918900000000853, 0.000000000000000000, 0.6299209999999999532 ) ) ;
#243 = CARTESIAN_POINT ( 'NONE',  ( 0.1031100000000002570, 1.354581824536888722E-17, 2.244094000000000033 ) ) ;
#244 = CARTESIAN_POINT ( 'NONE',  ( 7.722510477716240475E-17, 0.000000000000000000, 0.6305908350957151187 ) ) ;
#245 = DIRECTION ( 'NONE',  ( -1.224646799147353207E-16, -0.000000000000000000, -1.000000000000000000 ) ) ;
#246 = VERTEX_POINT ( 'NONE', #248 ) ;
#247 = CLOSED_SHELL ( 'NONE', ( #59, #236, #65, #39, #206, #58, #145, #69, #280, #170 ) ) ;
#248 = CARTESIAN_POINT ( 'NONE',  ( -0.1179918899999999049, 1.445707119305702357E-17, 0.6299209999999999532 ) ) ;
#249 = CIRCLE ( 'NONE', #254, 0.1179918899999999882 ) ;
#250 = DIRECTION ( 'NONE',  ( 1.000000000000000000, 0.000000000000000000, -0.000000000000000000 ) ) ;
#251 = CIRCLE ( 'NONE', #149, 0.1181100000000000066 ) ;
#252 = CIRCLE ( 'NONE', #127, 0.1179918899999999882 ) ;
#253 = AXIS2_PLACEMENT_3D ( 'NONE', #204, #289, #227 ) ;
#254 = AXIS2_PLACEMENT_3D ( 'NONE', #155, #14, #181 ) ;
#255 = LINE ( 'NONE', #257, #46 ) ;
#256 = EDGE_LOOP ( 'NONE', ( #172, #52, #176, #161 ) ) ;
#257 = CARTESIAN_POINT ( 'NONE',  ( 0.1179918899999999882, 1.444983904138465938E-17, -1.444983904138465938E-17 ) ) ;
#258 = ORIENTED_EDGE ( 'NONE', *, *, #146, .T. ) ;
#259 = EDGE_LOOP ( 'NONE', ( #121, #83, #130, #43 ) ) ;
#260 = FACE_OUTER_BOUND ( 'NONE', #174, .T. ) ;
#261 = VERTEX_POINT ( 'NONE', #135 ) ;
#262 = LENGTH_MEASURE_WITH_UNIT ( LENGTH_MEASURE( 0.02539999999999999897 ), #139 );
#263 = PRODUCT_RELATED_PRODUCT_CATEGORY ( 'part', '', ( #86 ) ) ;
#264 = CARTESIAN_POINT ( 'NONE',  ( 7.722510477716240475E-17, 0.000000000000000000, 0.6305908350957151187 ) ) ;
#265 = CARTESIAN_POINT ( 'NONE',  ( 7.714307363656999460E-17, 0.000000000000000000, 0.6299209999999999532 ) ) ;
#266 = DIRECTION ( 'NONE',  ( 0.000000000000000000, 0.000000000000000000, 1.000000000000000000 ) ) ;
#267 = AXIS2_PLACEMENT_3D ( 'NONE', #191, #110, #194 ) ;
#268 = DIRECTION ( 'NONE',  ( 1.000000000000000000, 0.000000000000000000, 0.000000000000000000 ) ) ;
#269 = DIRECTION ( 'NONE',  ( -1.224646799147353207E-16, -0.000000000000000000, -1.000000000000000000 ) ) ;
#270 = PRESENTATION_LAYER_ASSIGNMENT (  '', '', ( #163 ) ) ;
#271 = EDGE_LOOP ( 'NONE', ( #287, #144, #97, #49 ) ) ;
#272 = CIRCLE ( 'NONE', #120, 0.1181100000000000066 ) ;
#273 = EDGE_LOOP ( 'NONE', ( #282, #1, #134, #80 ) ) ;
#274 = DIRECTION ( 'NONE',  ( 1.224646799147353207E-16, 0.000000000000000000, 1.000000000000000000 ) ) ;
#275 = FACE_OUTER_BOUND ( 'NONE', #298, .T. ) ;
#276 = CARTESIAN_POINT ( 'NONE',  ( 0.000000000000000000, 0.000000000000000000, 2.244094000000000033 ) ) ;
#277 = AXIS2_PLACEMENT_3D ( 'NONE', #173, #48, #195 ) ;
#278 = EDGE_CURVE ( 'NONE', #36, #152, #209, .T. ) ;
#279 = VERTEX_POINT ( 'NONE', #158 ) ;
#280 = ADVANCED_FACE ( 'NONE', ( #113 ), #16, .T. ) ;
#281 = DIRECTION ( 'NONE',  ( -1.224646799147353207E-16, -0.000000000000000000, -1.000000000000000000 ) ) ;
#282 = ORIENTED_EDGE ( 'NONE', *, *, #157, .F. ) ;
#283 = LINE ( 'NONE', #79, #81 ) ;
#284 = VERTEX_POINT ( 'NONE', #109 ) ;
#285 = VECTOR ( 'NONE', #62, 39.37007874015748854 ) ;
#286 = DIRECTION ( 'NONE',  ( -0.1736481776669312194, 2.126576849575783625E-17, 0.9848077530122080203 ) ) ;
#287 = ORIENTED_EDGE ( 'NONE', *, *, #119, .T. ) ;
#288 = FACE_OUTER_BOUND ( 'NONE', #273, .T. ) ;
#289 = DIRECTION ( 'NONE',  ( -1.224646799147353207E-16, -0.000000000000000000, -1.000000000000000000 ) ) ;
#290 = CARTESIAN_POINT ( 'NONE',  ( 0.000000000000000000, 0.000000000000000000, 0.000000000000000000 ) ) ;
#291 = CIRCLE ( 'NONE', #7, 0.1181100000000000066 ) ;
#292 = DIRECTION ( 'NONE',  ( 0.000000000000000000, 0.000000000000000000, 1.000000000000000000 ) ) ;
#293 = UNCERTAINTY_MEASURE_WITH_UNIT (LENGTH_MEASURE( 1.000000000000000082E-05 ), #93, 'distance_accuracy_value', 'NONE');
#294 = LENGTH_MEASURE_WITH_UNIT ( LENGTH_MEASURE( 0.02539999999999999897 ), #153 );
#295 = EDGE_CURVE ( 'NONE', #98, #284, #60, .T. ) ;
#296 = SURFACE_STYLE_FILL_AREA ( #42 ) ;
#297 = VECTOR ( 'NONE', #222, 39.37007874015748143 ) ;
#298 = EDGE_LOOP ( 'NONE', ( #148, #169, #77, #154 ) ) ;
#299 = ORIENTED_EDGE ( 'NONE', *, *, #189, .T. ) ;
ENDSEC;
END-ISO-10303-21;
