ISO-10303-21;
HEADER;
FILE_DESCRIPTION (( 'STEP AP214' ),
    '1' );
FILE_NAME ('17107.STEP',
    '2023-06-30T21:52:24',
    ( '' ),
    ( '' ),
    'SwSTEP 2.0',
    'SolidWorks 2023',
    '' );
FILE_SCHEMA (( 'AUTOMOTIVE_DESIGN' ));
ENDSEC;

DATA;
#1 = CARTESIAN_POINT ( 'NONE',  ( 0.000000000000000000, 0.000000000000000000, 0.000000000000000000 ) ) ;
#2 = DIRECTION ( 'NONE',  ( 1.000000000000000000, 0.000000000000000000, 0.000000000000000000 ) ) ;
#3 = FACE_OUTER_BOUND ( 'NONE', #274, .T. ) ;
#4 = MECHANICAL_DESIGN_GEOMETRIC_PRESENTATION_REPRESENTATION (  '', ( #226 ), #49 ) ;
#5 = MANIFOLD_SOLID_BREP ( 'Revolve - Tool Body (Straight Shanked)', #284 ) ;
#6 = ORIENTED_EDGE ( 'NONE', *, *, #9, .F. ) ;
#7 =( NAMED_UNIT ( * ) PLANE_ANGLE_UNIT ( ) SI_UNIT ( $, .RADIAN. ) );
#8 =( GEOMETRIC_REPRESENTATION_CONTEXT ( 3 ) GLOBAL_UNCERTAINTY_ASSIGNED_CONTEXT ( ( #18 ) ) GLOBAL_UNIT_ASSIGNED_CONTEXT ( ( #95, #7, #69 ) ) REPRESENTATION_CONTEXT ( 'NONE', 'WORKASPACE' ) );
#9 = EDGE_CURVE ( 'NONE', #323, #327, #203, .T. ) ;
#10 = AXIS2_PLACEMENT_3D ( 'NONE', #124, #301, #150 ) ;
#11 = EDGE_CURVE ( 'NONE', #93, #76, #241, .T. ) ;
#12 = PLANE ( 'NONE',  #84 ) ;
#13 = DIMENSIONAL_EXPONENTS ( 1.000000000000000000, 0.000000000000000000, 0.000000000000000000, 0.000000000000000000, 0.000000000000000000, 0.000000000000000000, 0.000000000000000000 ) ;
#14 = SURFACE_STYLE_USAGE ( .BOTH. , #57 ) ;
#15 = DIRECTION ( 'NONE',  ( -1.224646799147353207E-16, 1.000000000000000000, 0.000000000000000000 ) ) ;
#16 =( CONVERSION_BASED_UNIT ( 'INCH', #293 ) LENGTH_UNIT ( ) NAMED_UNIT ( #191 ) );
#17 =( NAMED_UNIT ( * ) PLANE_ANGLE_UNIT ( ) SI_UNIT ( $, .RADIAN. ) );
#18 = UNCERTAINTY_MEASURE_WITH_UNIT (LENGTH_MEASURE( 1.000000000000000082E-05 ), #95, 'distance_accuracy_value', 'NONE');
#19 = MECHANICAL_DESIGN_GEOMETRIC_PRESENTATION_REPRESENTATION (  '', ( #188 ), #249 ) ;
#20 = CARTESIAN_POINT ( 'NONE',  ( 1.148106374200643555E-17, 0.09375000000000004163, 0.09374999999999998612 ) ) ;
#21 = PRESENTATION_STYLE_ASSIGNMENT (( #14 ) ) ;
#22 = DIRECTION ( 'NONE',  ( -1.000000000000000000, 0.000000000000000000, 0.000000000000000000 ) ) ;
#23 =( CONVERSION_BASED_UNIT ( 'INCH', #262 ) LENGTH_UNIT ( ) NAMED_UNIT ( #114 ) );
#24 = ADVANCED_FACE ( 'NONE', ( #112 ), #46, .T. ) ;
#25 = SURFACE_STYLE_FILL_AREA ( #319 ) ;
#26 = DIRECTION ( 'NONE',  ( 0.000000000000000000, 0.000000000000000000, -1.000000000000000000 ) ) ;
#27 = SURFACE_STYLE_FILL_AREA ( #355 ) ;
#28 =( LENGTH_UNIT ( ) NAMED_UNIT ( * ) SI_UNIT ( $, .METRE. ) );
#29 = APPLICATION_PROTOCOL_DEFINITION ( 'draft international standard', 'automotive_design', 1998, #96 ) ;
#30 = SURFACE_SIDE_STYLE ('',( #27 ) ) ;
#31 = VERTEX_POINT ( 'NONE', #118 ) ;
#32 = FILL_AREA_STYLE_COLOUR ( '', #75 ) ;
#33 = SURFACE_STYLE_FILL_AREA ( #248 ) ;
#34 = ADVANCED_FACE ( 'NONE', ( #80 ), #197, .T. ) ;
#35 = AXIS2_PLACEMENT_3D ( 'NONE', #1, #342, #26 ) ;
#36 = AXIS2_PLACEMENT_3D ( 'NONE', #102, #334, #309 ) ;
#37 = DIRECTION ( 'NONE',  ( -0.000000000000000000, -1.000000000000000000, -0.000000000000000000 ) ) ;
#38 = CARTESIAN_POINT ( 'NONE',  ( -1.148106374200644017E-17, 0.09375000000000002776, 0.000000000000000000 ) ) ;
#39 = CARTESIAN_POINT ( 'NONE',  ( 0.000000000000000000, 0.5625000000000000000, 0.000000000000000000 ) ) ;
#40 = VECTOR ( 'NONE', #194, 39.37007874015748143 ) ;
#41 = ORIENTED_EDGE ( 'NONE', *, *, #240, .T. ) ;
#42 = DIRECTION ( 'NONE',  ( -1.224646799147353207E-16, 1.000000000000000000, -0.000000000000000000 ) ) ;
#43 = DIMENSIONAL_EXPONENTS ( 1.000000000000000000, 0.000000000000000000, 0.000000000000000000, 0.000000000000000000, 0.000000000000000000, 0.000000000000000000, 0.000000000000000000 ) ;
#44 = CARTESIAN_POINT ( 'NONE',  ( 0.09374999999999994449, 2.500000000000000000, 0.000000000000000000 ) ) ;
#45 =( CONVERSION_BASED_UNIT ( 'INCH', #324 ) LENGTH_UNIT ( ) NAMED_UNIT ( #338 ) );
#46 = PLANE ( 'NONE',  #137 ) ;
#47 = DIRECTION ( 'NONE',  ( -1.000000000000000000, 0.000000000000000000, 0.000000000000000000 ) ) ;
#48 = UNCERTAINTY_MEASURE_WITH_UNIT (LENGTH_MEASURE( 1.000000000000000082E-05 ), #23, 'distance_accuracy_value', 'NONE');
#49 =( GEOMETRIC_REPRESENTATION_CONTEXT ( 3 ) GLOBAL_UNCERTAINTY_ASSIGNED_CONTEXT ( ( #48 ) ) GLOBAL_UNIT_ASSIGNED_CONTEXT ( ( #23, #264, #143 ) ) REPRESENTATION_CONTEXT ( 'NONE', 'WORKASPACE' ) );
#50 = CARTESIAN_POINT ( 'NONE',  ( -6.123233995736766036E-17, 2.500000000000000000, 0.000000000000000000 ) ) ;
#51 = PRESENTATION_STYLE_ASSIGNMENT (( #108 ) ) ;
#52 = EDGE_CURVE ( 'NONE', #193, #347, #273, .T. ) ;
#53 = ORIENTED_EDGE ( 'NONE', *, *, #229, .F. ) ;
#54 = SURFACE_SIDE_STYLE ('',( #25 ) ) ;
#55 = PRESENTATION_LAYER_ASSIGNMENT (  '', '', ( #226 ) ) ;
#56 = AXIS2_PLACEMENT_3D ( 'NONE', #181, #303, #152 ) ;
#57 = SURFACE_SIDE_STYLE ('',( #119 ) ) ;
#58 = APPLICATION_PROTOCOL_DEFINITION ( 'draft international standard', 'automotive_design', 1998, #61 ) ;
#59 = LINE ( 'NONE', #261, #210 ) ;
#60 = CARTESIAN_POINT ( 'NONE',  ( 0.000000000000000000, 0.000000000000000000, 0.000000000000000000 ) ) ;
#61 = APPLICATION_CONTEXT ( 'automotive_design' ) ;
#62 =( LENGTH_UNIT ( ) NAMED_UNIT ( * ) SI_UNIT ( $, .METRE. ) );
#63 = CARTESIAN_POINT ( 'NONE',  ( -0.09375000000000002776, 0.09375000000000004163, 1.148106374200643555E-17 ) ) ;
#64 = STYLED_ITEM ( 'NONE', ( #212 ), #187 ) ;
#65 = CIRCLE ( 'NONE', #126, 0.09375000000000002776 ) ;
#66 = AXIS2_PLACEMENT_3D ( 'NONE', #38, #127, #251 ) ;
#67 = EDGE_LOOP ( 'NONE', ( #147, #281, #290, #141 ) ) ;
#68 = LENGTH_MEASURE_WITH_UNIT ( LENGTH_MEASURE( 0.02539999999999999897 ), #277 );
#69 =( NAMED_UNIT ( * ) SI_UNIT ( $, .STERADIAN. ) SOLID_ANGLE_UNIT ( ) );
#70 = EDGE_LOOP ( 'NONE', ( #186, #371, #329, #74 ) ) ;
#71 = COLOUR_RGB ( '',1.000000000000000000, 0.000000000000000000, 0.000000000000000000 ) ;
#72 = AXIS2_PLACEMENT_3D ( 'NONE', #44, #333, #285 ) ;
#73 = CARTESIAN_POINT ( 'NONE',  ( -5.740531871003220085E-18, 0.000000000000000000, 0.000000000000000000 ) ) ;
#74 = ORIENTED_EDGE ( 'NONE', *, *, #332, .F. ) ;
#75 = COLOUR_RGB ( '',1.000000000000000000, 0.000000000000000000, 0.000000000000000000 ) ;
#76 = VERTEX_POINT ( 'NONE', #20 ) ;
#77 =( LENGTH_UNIT ( ) NAMED_UNIT ( * ) SI_UNIT ( $, .METRE. ) );
#78 = UNCERTAINTY_MEASURE_WITH_UNIT (LENGTH_MEASURE( 1.000000000000000082E-05 ), #16, 'distance_accuracy_value', 'NONE');
#79 = CARTESIAN_POINT ( 'NONE',  ( 0.000000000000000000, 0.09375000000000004163, 0.000000000000000000 ) ) ;
#80 = FACE_OUTER_BOUND ( 'NONE', #67, .T. ) ;
#81 = CARTESIAN_POINT ( 'NONE',  ( 0.000000000000000000, 0.09375000000000004163, 0.000000000000000000 ) ) ;
#82 = DIRECTION ( 'NONE',  ( -1.000000000000000000, -1.224646799147353207E-16, 0.000000000000000000 ) ) ;
#83 = PRESENTATION_LAYER_ASSIGNMENT (  '', '', ( #339 ) ) ;
#84 = AXIS2_PLACEMENT_3D ( 'NONE', #335, #15, #82 ) ;
#85 = FILL_AREA_STYLE ('',( #368 ) ) ;
#86 = DIRECTION ( 'NONE',  ( -1.224646799147353207E-16, 1.000000000000000000, -0.000000000000000000 ) ) ;
#87 = FILL_AREA_STYLE_COLOUR ( '', #204 ) ;
#88 = SURFACE_SIDE_STYLE ('',( #202 ) ) ;
#89 = STYLED_ITEM ( 'NONE', ( #21 ), #138 ) ;
#90 = VECTOR ( 'NONE', #135, 39.37007874015748143 ) ;
#91 = SURFACE_STYLE_USAGE ( .BOTH. , #263 ) ;
#92 = ADVANCED_FACE ( 'NONE', ( #170 ), #200, .T. ) ;
#93 = VERTEX_POINT ( 'NONE', #243 ) ;
#94 = CARTESIAN_POINT ( 'NONE',  ( -1.148106374200644017E-17, 0.09375000000000002776, 0.000000000000000000 ) ) ;
#95 =( CONVERSION_BASED_UNIT ( 'INCH', #304 ) LENGTH_UNIT ( ) NAMED_UNIT ( #13 ) );
#96 = APPLICATION_CONTEXT ( 'automotive_design' ) ;
#97 = FILL_AREA_STYLE_COLOUR ( '', #180 ) ;
#98 = EDGE_CURVE ( 'NONE', #348, #347, #59, .T. ) ;
#99 = SURFACE_STYLE_USAGE ( .BOTH. , #359 ) ;
#100 = COLOUR_RGB ( '',1.000000000000000000, 0.000000000000000000, 0.000000000000000000 ) ;
#101 = AXIS2_PLACEMENT_3D ( 'NONE', #39, #169, #341 ) ;
#102 = CARTESIAN_POINT ( 'NONE',  ( -6.123233995736766036E-17, 2.500000000000000000, 0.000000000000000000 ) ) ;
#103 = CARTESIAN_POINT ( 'NONE',  ( 0.000000000000000000, 0.000000000000000000, -0.09374999999999995837 ) ) ;
#104 = ORIENTED_EDGE ( 'NONE', *, *, #240, .F. ) ;
#105 = ORIENTED_EDGE ( 'NONE', *, *, #113, .F. ) ;
#106 = ADVANCED_FACE ( 'NONE', ( #3 ), #232, .T. ) ;
#107 = STYLED_ITEM ( 'NONE', ( #172 ), #106 ) ;
#108 = SURFACE_STYLE_USAGE ( .BOTH. , #88 ) ;
#109 =( NAMED_UNIT ( * ) SI_UNIT ( $, .STERADIAN. ) SOLID_ANGLE_UNIT ( ) );
#110 = PRODUCT_DEFINITION_CONTEXT ( 'detailed design', #61, 'design' ) ;
#111 = LINE ( 'NONE', #103, #90 ) ;
#112 = FACE_OUTER_BOUND ( 'NONE', #146, .T. ) ;
#113 = EDGE_CURVE ( 'NONE', #31, #348, #259, .T. ) ;
#114 = DIMENSIONAL_EXPONENTS ( 1.000000000000000000, 0.000000000000000000, 0.000000000000000000, 0.000000000000000000, 0.000000000000000000, 0.000000000000000000, 0.000000000000000000 ) ;
#115 = CLOSED_SHELL ( 'NONE', ( #187, #106, #24, #179, #92 ) ) ;
#116 =( GEOMETRIC_REPRESENTATION_CONTEXT ( 3 ) GLOBAL_UNCERTAINTY_ASSIGNED_CONTEXT ( ( #140 ) ) GLOBAL_UNIT_ASSIGNED_CONTEXT ( ( #184, #373, #211 ) ) REPRESENTATION_CONTEXT ( 'NONE', 'WORKASPACE' ) );
#117 = DIRECTION ( 'NONE',  ( 0.000000000000000000, 0.000000000000000000, -1.000000000000000000 ) ) ;
#118 = CARTESIAN_POINT ( 'NONE',  ( -0.09374999999999959754, 0.5625000000000001110, 0.000000000000000000 ) ) ;
#119 = SURFACE_STYLE_FILL_AREA ( #198 ) ;
#120 = PRESENTATION_LAYER_ASSIGNMENT (  '', '', ( #89 ) ) ;
#121 = CIRCLE ( 'NONE', #331, 0.09375000000000001388 ) ;
#122 = PRESENTATION_STYLE_ASSIGNMENT (( #99 ) ) ;
#123 = CARTESIAN_POINT ( 'NONE',  ( 0.09374999999999991673, 0.5625000000000001110, 1.148106374200642938E-17 ) ) ;
#124 = CARTESIAN_POINT ( 'NONE',  ( 0.000000000000000000, 0.000000000000000000, 0.000000000000000000 ) ) ;
#125 = ORIENTED_EDGE ( 'NONE', *, *, #363, .T. ) ;
#126 = AXIS2_PLACEMENT_3D ( 'NONE', #94, #216, #326 ) ;
#127 = DIRECTION ( 'NONE',  ( 0.000000000000000000, 0.000000000000000000, 1.000000000000000000 ) ) ;
#128 = ORIENTED_EDGE ( 'NONE', *, *, #352, .F. ) ;
#129 = SPHERICAL_SURFACE ( 'NONE', #66, 0.09375000000000002776 ) ;
#130 = DIRECTION ( 'NONE',  ( 0.000000000000000000, 0.000000000000000000, -1.000000000000000000 ) ) ;
#131 = VECTOR ( 'NONE', #139, 39.37007874015748143 ) ;
#132 = CARTESIAN_POINT ( 'NONE',  ( 0.000000000000000000, 0.5625000000000000000, -0.09374999999999994449 ) ) ;
#133 = ORIENTED_EDGE ( 'NONE', *, *, #177, .F. ) ;
#134 =( LENGTH_UNIT ( ) NAMED_UNIT ( * ) SI_UNIT ( $, .METRE. ) );
#135 = DIRECTION ( 'NONE',  ( -0.000000000000000000, -1.000000000000000000, -0.000000000000000000 ) ) ;
#136 = ORIENTED_EDGE ( 'NONE', *, *, #213, .F. ) ;
#137 = AXIS2_PLACEMENT_3D ( 'NONE', #317, #349, #345 ) ;
#138 = MANIFOLD_SOLID_BREP ( 'Revolve - Cutting Edge', #115 ) ;
#139 = DIRECTION ( 'NONE',  ( -0.000000000000000000, -1.000000000000000000, -0.000000000000000000 ) ) ;
#140 = UNCERTAINTY_MEASURE_WITH_UNIT (LENGTH_MEASURE( 1.000000000000000082E-05 ), #184, 'distance_accuracy_value', 'NONE');
#141 = ORIENTED_EDGE ( 'NONE', *, *, #224, .F. ) ;
#142 = DIMENSIONAL_EXPONENTS ( 1.000000000000000000, 0.000000000000000000, 0.000000000000000000, 0.000000000000000000, 0.000000000000000000, 0.000000000000000000, 0.000000000000000000 ) ;
#143 =( NAMED_UNIT ( * ) SI_UNIT ( $, .STERADIAN. ) SOLID_ANGLE_UNIT ( ) );
#144 =( GEOMETRIC_REPRESENTATION_CONTEXT ( 3 ) GLOBAL_UNCERTAINTY_ASSIGNED_CONTEXT ( ( #314 ) ) GLOBAL_UNIT_ASSIGNED_CONTEXT ( ( #257, #208, #196 ) ) REPRESENTATION_CONTEXT ( 'NONE', 'WORKASPACE' ) );
#145 = EDGE_LOOP ( 'NONE', ( #105, #215 ) ) ;
#146 = EDGE_LOOP ( 'NONE', ( #136, #311 ) ) ;
#147 = ORIENTED_EDGE ( 'NONE', *, *, #113, .T. ) ;
#148 = PRESENTATION_LAYER_ASSIGNMENT (  '', '', ( #188 ) ) ;
#149 = CIRCLE ( 'NONE', #227, 0.09374999999999998612 ) ;
#150 = DIRECTION ( 'NONE',  ( 0.000000000000000000, 0.000000000000000000, -1.000000000000000000 ) ) ;
#151 = PRODUCT_RELATED_PRODUCT_CATEGORY ( 'part', '', ( #320 ) ) ;
#152 = DIRECTION ( 'NONE',  ( 0.000000000000000000, 0.000000000000000000, -1.000000000000000000 ) ) ;
#153 = CARTESIAN_POINT ( 'NONE',  ( -0.09375000000000006939, 2.500000000000000000, 0.000000000000000000 ) ) ;
#154 = EDGE_LOOP ( 'NONE', ( #306, #305, #41, #336, #53 ) ) ;
#155 = PRESENTATION_STYLE_ASSIGNMENT (( #247 ) ) ;
#156 =( CONVERSION_BASED_UNIT ( 'INCH', #312 ) LENGTH_UNIT ( ) NAMED_UNIT ( #142 ) );
#157 = CIRCLE ( 'NONE', #101, 0.09374999999999994449 ) ;
#158 = CARTESIAN_POINT ( 'NONE',  ( 0.09374999999999998612, 0.09375000000000004163, 0.000000000000000000 ) ) ;
#159 =( NAMED_UNIT ( * ) PLANE_ANGLE_UNIT ( ) SI_UNIT ( $, .RADIAN. ) );
#160 = LINE ( 'NONE', #369, #40 ) ;
#161 = COLOUR_RGB ( '',0.7921568627450980005, 0.8196078431372548767, 0.9333333333333333481 ) ;
#162 = MECHANICAL_DESIGN_GEOMETRIC_PRESENTATION_REPRESENTATION (  '', ( #64 ), #164 ) ;
#163 = ORIENTED_EDGE ( 'NONE', *, *, #213, .T. ) ;
#164 =( GEOMETRIC_REPRESENTATION_CONTEXT ( 3 ) GLOBAL_UNCERTAINTY_ASSIGNED_CONTEXT ( ( #343 ) ) GLOBAL_UNIT_ASSIGNED_CONTEXT ( ( #156, #159, #280 ) ) REPRESENTATION_CONTEXT ( 'NONE', 'WORKASPACE' ) );
#165 = DIRECTION ( 'NONE',  ( 0.000000000000000000, 0.000000000000000000, -1.000000000000000000 ) ) ;
#166 = LENGTH_MEASURE_WITH_UNIT ( LENGTH_MEASURE( 0.02539999999999999897 ), #28 );
#167 = CARTESIAN_POINT ( 'NONE',  ( 1.760429773774320220E-16, 0.5625000000000001110, 0.000000000000000000 ) ) ;
#168 = DIRECTION ( 'NONE',  ( 0.000000000000000000, 0.000000000000000000, 1.000000000000000000 ) ) ;
#169 = DIRECTION ( 'NONE',  ( -0.000000000000000000, -1.000000000000000000, -0.000000000000000000 ) ) ;
#170 = FACE_OUTER_BOUND ( 'NONE', #195, .T. ) ;
#171 = CIRCLE ( 'NONE', #254, 0.09374999999999998612 ) ;
#172 = PRESENTATION_STYLE_ASSIGNMENT (( #91 ) ) ;
#173 = AXIS2_PLACEMENT_3D ( 'NONE', #60, #270, #2 ) ;
#174 =( NAMED_UNIT ( * ) PLANE_ANGLE_UNIT ( ) SI_UNIT ( $, .RADIAN. ) );
#175 = PRODUCT_CONTEXT ( 'NONE', #96, 'mechanical' ) ;
#176 = PRESENTATION_STYLE_ASSIGNMENT (( #299 ) ) ;
#177 = EDGE_CURVE ( 'NONE', #323, #76, #171, .T. ) ;
#178 = DIRECTION ( 'NONE',  ( 1.000000000000000000, 0.000000000000000000, 0.000000000000000000 ) ) ;
#179 = ADVANCED_FACE ( 'NONE', ( #242 ), #350, .T. ) ;
#180 = COLOUR_RGB ( '',1.000000000000000000, 0.000000000000000000, 0.000000000000000000 ) ;
#181 = CARTESIAN_POINT ( 'NONE',  ( 0.000000000000000000, 0.09375000000000004163, 0.000000000000000000 ) ) ;
#182 = SURFACE_STYLE_FILL_AREA ( #217 ) ;
#183 = EDGE_LOOP ( 'NONE', ( #340, #230, #6, #255 ) ) ;
#184 =( CONVERSION_BASED_UNIT ( 'INCH', #68 ) LENGTH_UNIT ( ) NAMED_UNIT ( #43 ) );
#185 = SURFACE_STYLE_USAGE ( .BOTH. , #328 ) ;
#186 = ORIENTED_EDGE ( 'NONE', *, *, #98, .F. ) ;
#187 = ADVANCED_FACE ( 'NONE', ( #222 ), #129, .T. ) ;
#188 = STYLED_ITEM ( 'NONE', ( #176 ), #92 ) ;
#189 = DIRECTION ( 'NONE',  ( -0.000000000000000000, -1.000000000000000000, -0.000000000000000000 ) ) ;
#190 = CARTESIAN_POINT ( 'NONE',  ( 0.000000000000000000, 0.5625000000000000000, 0.000000000000000000 ) ) ;
#191 = DIMENSIONAL_EXPONENTS ( 1.000000000000000000, 0.000000000000000000, 0.000000000000000000, 0.000000000000000000, 0.000000000000000000, 0.000000000000000000, 0.000000000000000000 ) ;
#192 = AXIS2_PLACEMENT_3D ( 'NONE', #50, #269, #22 ) ;
#193 = VERTEX_POINT ( 'NONE', #153 ) ;
#194 = DIRECTION ( 'NONE',  ( -1.224646799147353207E-16, 1.000000000000000000, -0.000000000000000000 ) ) ;
#195 = EDGE_LOOP ( 'NONE', ( #128, #125, #219, #365 ) ) ;
#196 =( NAMED_UNIT ( * ) SI_UNIT ( $, .STERADIAN. ) SOLID_ANGLE_UNIT ( ) );
#197 = CYLINDRICAL_SURFACE ( 'NONE', #192, 0.09374999999999988898 ) ;
#198 = FILL_AREA_STYLE ('',( #87 ) ) ;
#199 = DIRECTION ( 'NONE',  ( -1.000000000000000000, 0.000000000000000000, 0.000000000000000000 ) ) ;
#200 = SPHERICAL_SURFACE ( 'NONE', #244, 0.09375000000000002776 ) ;
#201 = PRODUCT_DEFINITION ( 'UNKNOWN', '', #353, #110 ) ;
#202 = SURFACE_STYLE_FILL_AREA ( #85 ) ;
#203 = CIRCLE ( 'NONE', #231, 0.09375000000000002776 ) ;
#204 = COLOUR_RGB ( '',0.7921568627450980005, 0.8196078431372548767, 0.9333333333333333481 ) ;
#205 =( LENGTH_UNIT ( ) NAMED_UNIT ( * ) SI_UNIT ( $, .METRE. ) );
#206 = ADVANCED_FACE ( 'NONE', ( #283 ), #361, .T. ) ;
#207 = PRODUCT_DEFINITION_SHAPE ( 'NONE', 'NONE',  #201 ) ;
#208 =( NAMED_UNIT ( * ) PLANE_ANGLE_UNIT ( ) SI_UNIT ( $, .RADIAN. ) );
#209 = PRESENTATION_LAYER_ASSIGNMENT (  '', '', ( #266 ) ) ;
#210 = VECTOR ( 'NONE', #321, 39.37007874015748143 ) ;
#211 =( NAMED_UNIT ( * ) SI_UNIT ( $, .STERADIAN. ) SOLID_ANGLE_UNIT ( ) );
#212 = PRESENTATION_STYLE_ASSIGNMENT (( #185 ) ) ;
#213 = EDGE_CURVE ( 'NONE', #330, #93, #157, .T. ) ;
#214 = FILL_AREA_STYLE ('',( #370 ) ) ;
#215 = ORIENTED_EDGE ( 'NONE', *, *, #292, .F. ) ;
#216 = DIRECTION ( 'NONE',  ( 1.224646799147353207E-16, -0.000000000000000000, 1.000000000000000000 ) ) ;
#217 = FILL_AREA_STYLE ('',( #97 ) ) ;
#218 = ADVANCED_BREP_SHAPE_REPRESENTATION ( '17107', ( #138, #5, #173 ), #116 ) ;
#219 = ORIENTED_EDGE ( 'NONE', *, *, #298, .T. ) ;
#220 = DIRECTION ( 'NONE',  ( -1.224646799147353207E-16, 1.000000000000000000, -0.000000000000000000 ) ) ;
#221 = AXIS2_PLACEMENT_3D ( 'NONE', #288, #37, #228 ) ;
#222 = FACE_OUTER_BOUND ( 'NONE', #183, .T. ) ;
#223 = CARTESIAN_POINT ( 'NONE',  ( 0.09374999999999991673, 2.500000000000000000, 1.148106374200642938E-17 ) ) ;
#224 = EDGE_CURVE ( 'NONE', #31, #193, #160, .T. ) ;
#225 =( NAMED_UNIT ( * ) PLANE_ANGLE_UNIT ( ) SI_UNIT ( $, .RADIAN. ) );
#226 = STYLED_ITEM ( 'NONE', ( #51 ), #24 ) ;
#227 = AXIS2_PLACEMENT_3D ( 'NONE', #79, #313, #165 ) ;
#228 = DIRECTION ( 'NONE',  ( 0.000000000000000000, 0.000000000000000000, -1.000000000000000000 ) ) ;
#229 = EDGE_CURVE ( 'NONE', #76, #356, #149, .T. ) ;
#230 = ORIENTED_EDGE ( 'NONE', *, *, #352, .T. ) ;
#231 = AXIS2_PLACEMENT_3D ( 'NONE', #245, #234, #236 ) ;
#232 = CYLINDRICAL_SURFACE ( 'NONE', #35, 0.09374999999999995837 ) ;
#233 = UNCERTAINTY_MEASURE_WITH_UNIT (LENGTH_MEASURE( 1.000000000000000082E-05 ), #256, 'distance_accuracy_value', 'NONE');
#234 = DIRECTION ( 'NONE',  ( 0.000000000000000000, 0.000000000000000000, -1.000000000000000000 ) ) ;
#235 = FACE_OUTER_BOUND ( 'NONE', #287, .T. ) ;
#236 = DIRECTION ( 'NONE',  ( -1.000000000000000000, 0.000000000000000000, 0.000000000000000000 ) ) ;
#237 = ORIENTED_EDGE ( 'NONE', *, *, #332, .T. ) ;
#238 = MECHANICAL_DESIGN_GEOMETRIC_PRESENTATION_REPRESENTATION (  '', ( #107 ), #144 ) ;
#239 = ORIENTED_EDGE ( 'NONE', *, *, #298, .F. ) ;
#240 = EDGE_CURVE ( 'NONE', #330, #252, #111, .T. ) ;
#241 = LINE ( 'NONE', #318, #131 ) ;
#242 = FACE_OUTER_BOUND ( 'NONE', #154, .T. ) ;
#243 = CARTESIAN_POINT ( 'NONE',  ( 1.148106374200642938E-17, 0.5625000000000000000, 0.09374999999999994449 ) ) ;
#244 = AXIS2_PLACEMENT_3D ( 'NONE', #271, #168, #178 ) ;
#245 = CARTESIAN_POINT ( 'NONE',  ( -1.148106374200644017E-17, 0.09375000000000002776, 0.000000000000000000 ) ) ;
#246 = SHAPE_DEFINITION_REPRESENTATION ( #207, #218 ) ;
#247 = SURFACE_STYLE_USAGE ( .BOTH. , #30 ) ;
#248 = FILL_AREA_STYLE ('',( #278 ) ) ;
#249 =( GEOMETRIC_REPRESENTATION_CONTEXT ( 3 ) GLOBAL_UNCERTAINTY_ASSIGNED_CONTEXT ( ( #78 ) ) GLOBAL_UNIT_ASSIGNED_CONTEXT ( ( #16, #174, #346 ) ) REPRESENTATION_CONTEXT ( 'NONE', 'WORKASPACE' ) );
#250 = ADVANCED_FACE ( 'NONE', ( #235 ), #344, .F. ) ;
#251 = DIRECTION ( 'NONE',  ( 1.000000000000000000, 0.000000000000000000, 0.000000000000000000 ) ) ;
#252 = VERTEX_POINT ( 'NONE', #291 ) ;
#253 = FACE_OUTER_BOUND ( 'NONE', #145, .T. ) ;
#254 = AXIS2_PLACEMENT_3D ( 'NONE', #81, #296, #117 ) ;
#255 = ORIENTED_EDGE ( 'NONE', *, *, #177, .T. ) ;
#256 =( CONVERSION_BASED_UNIT ( 'INCH', #166 ) LENGTH_UNIT ( ) NAMED_UNIT ( #289 ) );
#257 =( CONVERSION_BASED_UNIT ( 'INCH', #300 ) LENGTH_UNIT ( ) NAMED_UNIT ( #364 ) );
#258 = DIRECTION ( 'NONE',  ( -1.224646799147353207E-16, 1.000000000000000000, -0.000000000000000000 ) ) ;
#259 = CIRCLE ( 'NONE', #294, 0.09374999999999976408 ) ;
#260 = CIRCLE ( 'NONE', #221, 0.09374999999999998612 ) ;
#261 = CARTESIAN_POINT ( 'NONE',  ( 0.09374999999999981959, 2.500000000000000000, 1.148106374200642322E-17 ) ) ;
#262 = LENGTH_MEASURE_WITH_UNIT ( LENGTH_MEASURE( 0.02539999999999999897 ), #205 );
#263 = SURFACE_SIDE_STYLE ('',( #316 ) ) ;
#264 =( NAMED_UNIT ( * ) PLANE_ANGLE_UNIT ( ) SI_UNIT ( $, .RADIAN. ) );
#265 = ORIENTED_EDGE ( 'NONE', *, *, #11, .T. ) ;
#266 = STYLED_ITEM ( 'NONE', ( #122 ), #5 ) ;
#267 = CARTESIAN_POINT ( 'NONE',  ( -6.123233995736766036E-17, 2.500000000000000000, 0.000000000000000000 ) ) ;
#268 = COLOUR_RGB ( '',1.000000000000000000, 0.000000000000000000, 0.000000000000000000 ) ;
#269 = DIRECTION ( 'NONE',  ( -1.224646799147353207E-16, 1.000000000000000000, -0.000000000000000000 ) ) ;
#270 = DIRECTION ( 'NONE',  ( 0.000000000000000000, 0.000000000000000000, 1.000000000000000000 ) ) ;
#271 = CARTESIAN_POINT ( 'NONE',  ( -1.148106374200644017E-17, 0.09375000000000002776, 0.000000000000000000 ) ) ;
#272 = EDGE_CURVE ( 'NONE', #93, #330, #358, .T. ) ;
#273 = CIRCLE ( 'NONE', #282, 0.09375000000000001388 ) ;
#274 = EDGE_LOOP ( 'NONE', ( #163, #265, #133, #239, #104 ) ) ;
#275 = DIRECTION ( 'NONE',  ( -1.000000000000000000, 0.000000000000000000, 0.000000000000000000 ) ) ;
#276 = ORIENTED_EDGE ( 'NONE', *, *, #52, .T. ) ;
#277 =( LENGTH_UNIT ( ) NAMED_UNIT ( * ) SI_UNIT ( $, .METRE. ) );
#278 = FILL_AREA_STYLE_COLOUR ( '', #161 ) ;
#279 = ADVANCED_FACE ( 'NONE', ( #253 ), #12, .F. ) ;
#280 =( NAMED_UNIT ( * ) SI_UNIT ( $, .STERADIAN. ) SOLID_ANGLE_UNIT ( ) );
#281 = ORIENTED_EDGE ( 'NONE', *, *, #98, .T. ) ;
#282 = AXIS2_PLACEMENT_3D ( 'NONE', #267, #86, #315 ) ;
#283 = FACE_OUTER_BOUND ( 'NONE', #70, .T. ) ;
#284 = CLOSED_SHELL ( 'NONE', ( #34, #279, #206, #250 ) ) ;
#285 = DIRECTION ( 'NONE',  ( 1.000000000000000000, 1.224646799147353207E-16, 0.000000000000000000 ) ) ;
#286 = PRESENTATION_LAYER_ASSIGNMENT (  '', '', ( #64 ) ) ;
#287 = EDGE_LOOP ( 'NONE', ( #276, #237 ) ) ;
#288 = CARTESIAN_POINT ( 'NONE',  ( 0.000000000000000000, 0.09375000000000004163, 0.000000000000000000 ) ) ;
#289 = DIMENSIONAL_EXPONENTS ( 1.000000000000000000, 0.000000000000000000, 0.000000000000000000, 0.000000000000000000, 0.000000000000000000, 0.000000000000000000, 0.000000000000000000 ) ;
#290 = ORIENTED_EDGE ( 'NONE', *, *, #52, .F. ) ;
#291 = CARTESIAN_POINT ( 'NONE',  ( 0.000000000000000000, 0.09375000000000004163, -0.09374999999999998612 ) ) ;
#292 = EDGE_CURVE ( 'NONE', #348, #31, #308, .T. ) ;
#293 = LENGTH_MEASURE_WITH_UNIT ( LENGTH_MEASURE( 0.02539999999999999897 ), #351 );
#294 = AXIS2_PLACEMENT_3D ( 'NONE', #167, #42, #47 ) ;
#295 = FILL_AREA_STYLE_COLOUR ( '', #100 ) ;
#296 = DIRECTION ( 'NONE',  ( -0.000000000000000000, -1.000000000000000000, -0.000000000000000000 ) ) ;
#297 = UNCERTAINTY_MEASURE_WITH_UNIT (LENGTH_MEASURE( 1.000000000000000082E-05 ), #45, 'distance_accuracy_value', 'NONE');
#298 = EDGE_CURVE ( 'NONE', #252, #323, #260, .T. ) ;
#299 = SURFACE_STYLE_USAGE ( .BOTH. , #54 ) ;
#300 = LENGTH_MEASURE_WITH_UNIT ( LENGTH_MEASURE( 0.02539999999999999897 ), #134 );
#301 = DIRECTION ( 'NONE',  ( -0.000000000000000000, -1.000000000000000000, -0.000000000000000000 ) ) ;
#302 = MECHANICAL_DESIGN_GEOMETRIC_PRESENTATION_REPRESENTATION (  '', ( #339 ), #8 ) ;
#303 = DIRECTION ( 'NONE',  ( -0.000000000000000000, -1.000000000000000000, -0.000000000000000000 ) ) ;
#304 = LENGTH_MEASURE_WITH_UNIT ( LENGTH_MEASURE( 0.02539999999999999897 ), #325 );
#305 = ORIENTED_EDGE ( 'NONE', *, *, #272, .T. ) ;
#306 = ORIENTED_EDGE ( 'NONE', *, *, #11, .F. ) ;
#307 = MECHANICAL_DESIGN_GEOMETRIC_PRESENTATION_REPRESENTATION (  '', ( #89 ), #357 ) ;
#308 = CIRCLE ( 'NONE', #322, 0.09374999999999976408 ) ;
#309 = DIRECTION ( 'NONE',  ( -1.000000000000000000, 0.000000000000000000, 0.000000000000000000 ) ) ;
#310 =( NAMED_UNIT ( * ) SI_UNIT ( $, .STERADIAN. ) SOLID_ANGLE_UNIT ( ) );
#311 = ORIENTED_EDGE ( 'NONE', *, *, #272, .F. ) ;
#312 = LENGTH_MEASURE_WITH_UNIT ( LENGTH_MEASURE( 0.02539999999999999897 ), #62 );
#313 = DIRECTION ( 'NONE',  ( -0.000000000000000000, -1.000000000000000000, -0.000000000000000000 ) ) ;
#314 = UNCERTAINTY_MEASURE_WITH_UNIT (LENGTH_MEASURE( 1.000000000000000082E-05 ), #257, 'distance_accuracy_value', 'NONE');
#315 = DIRECTION ( 'NONE',  ( -1.000000000000000000, 0.000000000000000000, 0.000000000000000000 ) ) ;
#316 = SURFACE_STYLE_FILL_AREA ( #214 ) ;
#317 = CARTESIAN_POINT ( 'NONE',  ( 0.000000000000000000, 0.5625000000000000000, 0.000000000000000000 ) ) ;
#318 = CARTESIAN_POINT ( 'NONE',  ( 1.148106374200643092E-17, 0.000000000000000000, 0.09374999999999995837 ) ) ;
#319 = FILL_AREA_STYLE ('',( #295 ) ) ;
#320 = PRODUCT ( '17107', '17107', '', ( #175 ) ) ;
#321 = DIRECTION ( 'NONE',  ( -1.224646799147353207E-16, 1.000000000000000000, -0.000000000000000000 ) ) ;
#322 = AXIS2_PLACEMENT_3D ( 'NONE', #362, #258, #199 ) ;
#323 = VERTEX_POINT ( 'NONE', #158 ) ;
#324 = LENGTH_MEASURE_WITH_UNIT ( LENGTH_MEASURE( 0.02539999999999999897 ), #77 );
#325 =( LENGTH_UNIT ( ) NAMED_UNIT ( * ) SI_UNIT ( $, .METRE. ) );
#326 = DIRECTION ( 'NONE',  ( 1.000000000000000000, 0.000000000000000000, -1.224646799147353207E-16 ) ) ;
#327 = VERTEX_POINT ( 'NONE', #73 ) ;
#328 = SURFACE_SIDE_STYLE ('',( #182 ) ) ;
#329 = ORIENTED_EDGE ( 'NONE', *, *, #224, .T. ) ;
#330 = VERTEX_POINT ( 'NONE', #132 ) ;
#331 = AXIS2_PLACEMENT_3D ( 'NONE', #354, #220, #275 ) ;
#332 = EDGE_CURVE ( 'NONE', #347, #193, #121, .T. ) ;
#333 = DIRECTION ( 'NONE',  ( 1.224646799147353207E-16, -1.000000000000000000, 0.000000000000000000 ) ) ;
#334 = DIRECTION ( 'NONE',  ( -1.224646799147353207E-16, 1.000000000000000000, -0.000000000000000000 ) ) ;
#335 = CARTESIAN_POINT ( 'NONE',  ( 1.760429773774320220E-16, 0.5625000000000000000, 0.000000000000000000 ) ) ;
#336 = ORIENTED_EDGE ( 'NONE', *, *, #363, .F. ) ;
#337 = MECHANICAL_DESIGN_GEOMETRIC_PRESENTATION_REPRESENTATION (  '', ( #266 ), #360 ) ;
#338 = DIMENSIONAL_EXPONENTS ( 1.000000000000000000, 0.000000000000000000, 0.000000000000000000, 0.000000000000000000, 0.000000000000000000, 0.000000000000000000, 0.000000000000000000 ) ;
#339 = STYLED_ITEM ( 'NONE', ( #155 ), #179 ) ;
#340 = ORIENTED_EDGE ( 'NONE', *, *, #229, .T. ) ;
#341 = DIRECTION ( 'NONE',  ( 0.000000000000000000, 0.000000000000000000, -1.000000000000000000 ) ) ;
#342 = DIRECTION ( 'NONE',  ( -0.000000000000000000, -1.000000000000000000, -0.000000000000000000 ) ) ;
#343 = UNCERTAINTY_MEASURE_WITH_UNIT (LENGTH_MEASURE( 1.000000000000000082E-05 ), #156, 'distance_accuracy_value', 'NONE');
#344 = PLANE ( 'NONE',  #72 ) ;
#345 = DIRECTION ( 'NONE',  ( 0.000000000000000000, -0.000000000000000000, 1.000000000000000000 ) ) ;
#346 =( NAMED_UNIT ( * ) SI_UNIT ( $, .STERADIAN. ) SOLID_ANGLE_UNIT ( ) );
#347 = VERTEX_POINT ( 'NONE', #223 ) ;
#348 = VERTEX_POINT ( 'NONE', #123 ) ;
#349 = DIRECTION ( 'NONE',  ( 0.000000000000000000, 1.000000000000000000, 0.000000000000000000 ) ) ;
#350 = CYLINDRICAL_SURFACE ( 'NONE', #10, 0.09374999999999995837 ) ;
#351 =( LENGTH_UNIT ( ) NAMED_UNIT ( * ) SI_UNIT ( $, .METRE. ) );
#352 = EDGE_CURVE ( 'NONE', #356, #327, #65, .T. ) ;
#353 = PRODUCT_DEFINITION_FORMATION_WITH_SPECIFIED_SOURCE ( 'ANY', '', #320, .NOT_KNOWN. ) ;
#354 = CARTESIAN_POINT ( 'NONE',  ( -6.123233995736766036E-17, 2.500000000000000000, 0.000000000000000000 ) ) ;
#355 = FILL_AREA_STYLE ('',( #32 ) ) ;
#356 = VERTEX_POINT ( 'NONE', #63 ) ;
#357 =( GEOMETRIC_REPRESENTATION_CONTEXT ( 3 ) GLOBAL_UNCERTAINTY_ASSIGNED_CONTEXT ( ( #297 ) ) GLOBAL_UNIT_ASSIGNED_CONTEXT ( ( #45, #17, #109 ) ) REPRESENTATION_CONTEXT ( 'NONE', 'WORKASPACE' ) );
#358 = CIRCLE ( 'NONE', #372, 0.09374999999999994449 ) ;
#359 = SURFACE_SIDE_STYLE ('',( #33 ) ) ;
#360 =( GEOMETRIC_REPRESENTATION_CONTEXT ( 3 ) GLOBAL_UNCERTAINTY_ASSIGNED_CONTEXT ( ( #233 ) ) GLOBAL_UNIT_ASSIGNED_CONTEXT ( ( #256, #225, #310 ) ) REPRESENTATION_CONTEXT ( 'NONE', 'WORKASPACE' ) );
#361 = CYLINDRICAL_SURFACE ( 'NONE', #36, 0.09374999999999988898 ) ;
#362 = CARTESIAN_POINT ( 'NONE',  ( 1.760429773774320220E-16, 0.5625000000000001110, 0.000000000000000000 ) ) ;
#363 = EDGE_CURVE ( 'NONE', #356, #252, #367, .T. ) ;
#364 = DIMENSIONAL_EXPONENTS ( 1.000000000000000000, 0.000000000000000000, 0.000000000000000000, 0.000000000000000000, 0.000000000000000000, 0.000000000000000000, 0.000000000000000000 ) ;
#365 = ORIENTED_EDGE ( 'NONE', *, *, #9, .T. ) ;
#366 = PRESENTATION_LAYER_ASSIGNMENT (  '', '', ( #107 ) ) ;
#367 = CIRCLE ( 'NONE', #56, 0.09374999999999998612 ) ;
#368 = FILL_AREA_STYLE_COLOUR ( '', #268 ) ;
#369 = CARTESIAN_POINT ( 'NONE',  ( -0.09374999999999995837, 2.500000000000000000, 0.000000000000000000 ) ) ;
#370 = FILL_AREA_STYLE_COLOUR ( '', #71 ) ;
#371 = ORIENTED_EDGE ( 'NONE', *, *, #292, .T. ) ;
#372 = AXIS2_PLACEMENT_3D ( 'NONE', #190, #189, #130 ) ;
#373 =( NAMED_UNIT ( * ) PLANE_ANGLE_UNIT ( ) SI_UNIT ( $, .RADIAN. ) );
ENDSEC;
END-ISO-10303-21;
