ISO-10303-21;
HEADER;
FILE_DESCRIPTION (( 'STEP AP214' ),
    '1' );
FILE_NAME ('Micro_BMRM-005-2.STEP',
    '2021-09-03T14:14:22',
    ( '' ),
    ( '' ),
    'SwSTEP 2.0',
    'SolidWorks 2020',
    '' );
FILE_SCHEMA (( 'AUTOMOTIVE_DESIGN' ));
ENDSEC;

DATA;
#1 = CONICAL_SURFACE ( 'NONE', #70, 0.06374000000000018540, 0.7853981633974522758 ) ;
#2 = VECTOR ( 'NONE', #69, 39.37007874015748854 ) ;
#3 = DIRECTION ( 'NONE',  ( -1.000000000000000000, 0.0000000000000000000, 0.0000000000000000000 ) ) ;
#4 = ORIENTED_EDGE ( 'NONE', *, *, #85, .F. ) ;
#5 = CARTESIAN_POINT ( 'NONE',  ( 7.232151672364693882E-18, 0.0000000000000000000, 0.05905499999999999639 ) ) ;
#6 = CARTESIAN_POINT ( 'NONE',  ( 0.009832657500000006531, 0.0000000000000000000, 0.05905499999999999639 ) ) ;
#7 = ORIENTED_EDGE ( 'NONE', *, *, #293, .T. ) ;
#8 = DIRECTION ( 'NONE',  ( 0.1736481776669313859, 0.0000000000000000000, 0.9848077530122077983 ) ) ;
#9 = ORIENTED_EDGE ( 'NONE', *, *, #12, .F. ) ;
#10 = DIRECTION ( 'NONE',  ( -1.224646799147353207E-16, -0.0000000000000000000, -1.000000000000000000 ) ) ;
#11 = AXIS2_PLACEMENT_3D ( 'NONE', #44, #80, #74 ) ;
#12 = EDGE_CURVE ( 'NONE', #280, #79, #243, .T. ) ;
#13 = CARTESIAN_POINT ( 'NONE',  ( 0.0000000000000000000, 0.0000000000000000000, 1.968503999999999809 ) ) ;
#14 =( NAMED_UNIT ( * ) PLANE_ANGLE_UNIT ( ) SI_UNIT ( $, .RADIAN. ) );
#15 = ORIENTED_EDGE ( 'NONE', *, *, #251, .T. ) ;
#16 = DIRECTION ( 'NONE',  ( -0.1736481776669311916, 2.126576849575783316E-17, 0.9848077530122080203 ) ) ;
#17 = AXIS2_PLACEMENT_3D ( 'NONE', #34, #136, #30 ) ;
#18 = DIMENSIONAL_EXPONENTS ( 1.000000000000000000, 0.0000000000000000000, 0.0000000000000000000, 0.0000000000000000000, 0.0000000000000000000, 0.0000000000000000000, 0.0000000000000000000 ) ;
#19 = DIRECTION ( 'NONE',  ( -1.224646799147353207E-16, -0.0000000000000000000, -1.000000000000000000 ) ) ;
#20 = VECTOR ( 'NONE', #186, 39.37007874015748854 ) ;
#21 = VERTEX_POINT ( 'NONE', #39 ) ;
#22 = FACE_OUTER_BOUND ( 'NONE', #84, .T. ) ;
#23 = DIRECTION ( 'NONE',  ( 1.000000000000000000, 0.0000000000000000000, 0.0000000000000000000 ) ) ;
#24 = CARTESIAN_POINT ( 'NONE',  ( 1.204153253448721358E-18, 0.0000000000000000000, 0.009832657499999999592 ) ) ;
#25 = ORIENTED_EDGE ( 'NONE', *, *, #213, .T. ) ;
#26 = DIRECTION ( 'NONE',  ( 0.0000000000000000000, -1.000000000000000000, 0.0000000000000000000 ) ) ;
#27 = FACE_OUTER_BOUND ( 'NONE', #283, .T. ) ;
#28 = CIRCLE ( 'NONE', #197, 0.009832657500000001327 ) ;
#29 = VERTEX_POINT ( 'NONE', #142 ) ;
#30 = DIRECTION ( 'NONE',  ( -1.000000000000000000, 0.0000000000000000000, 0.0000000000000000000 ) ) ;
#31 = PRODUCT_DEFINITION_CONTEXT ( 'detailed design', #66, 'design' ) ;
#32 = ADVANCED_FACE ( 'NONE', ( #246 ), #249, .T. ) ;
#33 = ORIENTED_EDGE ( 'NONE', *, *, #85, .T. ) ;
#34 = CARTESIAN_POINT ( 'NONE',  ( 7.232151672364693882E-18, 0.0000000000000000000, 0.05905499999999999639 ) ) ;
#35 = PRODUCT_DEFINITION_FORMATION_WITH_SPECIFIED_SOURCE ( 'ANY', '', #143, .NOT_KNOWN. ) ;
#36 = FILL_AREA_STYLE_COLOUR ( '', #150 ) ;
#37 = AXIS2_PLACEMENT_3D ( 'NONE', #67, #124, #176 ) ;
#38 =( NAMED_UNIT ( * ) PLANE_ANGLE_UNIT ( ) SI_UNIT ( $, .RADIAN. ) );
#39 = CARTESIAN_POINT ( 'NONE',  ( 0.07874000000000000443, 9.642868896486258509E-18, 1.953504000000000129 ) ) ;
#40 = ADVANCED_FACE ( 'NONE', ( #22 ), #131, .T. ) ;
#41 =( GEOMETRIC_REPRESENTATION_CONTEXT ( 3 ) GLOBAL_UNCERTAINTY_ASSIGNED_CONTEXT ( ( #158 ) ) GLOBAL_UNIT_ASSIGNED_CONTEXT ( ( #211, #14, #313 ) ) REPRESENTATION_CONTEXT ( 'NONE', 'WORKASPACE' ) );
#42 = EDGE_LOOP ( 'NONE', ( #188, #47 ) ) ;
#43 = ORIENTED_EDGE ( 'NONE', *, *, #270, .T. ) ;
#44 = CARTESIAN_POINT ( 'NONE',  ( 5.509048627964678322E-17, 0.0000000000000000000, 0.4498479587584185424 ) ) ;
#45 = EDGE_CURVE ( 'NONE', #21, #29, #156, .T. ) ;
#46 = FILL_AREA_STYLE ('',( #147 ) ) ;
#47 = ORIENTED_EDGE ( 'NONE', *, *, #164, .T. ) ;
#48 = CARTESIAN_POINT ( 'NONE',  ( 0.0000000000000000000, 0.0000000000000000000, 1.968503999999999809 ) ) ;
#49 = CARTESIAN_POINT ( 'NONE',  ( -0.07873999999999994892, 0.0000000000000000000, 0.4498479587584185424 ) ) ;
#50 = VERTEX_POINT ( 'NONE', #153 ) ;
#51 = CARTESIAN_POINT ( 'NONE',  ( 0.0000000000000000000, 0.0000000000000000000, 0.0000000000000000000 ) ) ;
#52 = CARTESIAN_POINT ( 'NONE',  ( 0.0000000000000000000, 0.0000000000000000000, 0.0000000000000000000 ) ) ;
#53 = COLOUR_RGB ( '',0.7921568627450980005, 0.8196078431372548767, 0.9333333333333333481 ) ;
#54 = DIRECTION ( 'NONE',  ( 1.000000000000000000, 0.0000000000000000000, 0.0000000000000000000 ) ) ;
#55 = ORIENTED_EDGE ( 'NONE', *, *, #269, .F. ) ;
#56 = ADVANCED_FACE ( 'NONE', ( #148 ), #223, .T. ) ;
#57 = LINE ( 'NONE', #78, #20 ) ;
#58 = AXIS2_PLACEMENT_3D ( 'NONE', #127, #227, #23 ) ;
#59 = AXIS2_PLACEMENT_3D ( 'NONE', #309, #10, #189 ) ;
#60 = LINE ( 'NONE', #199, #320 ) ;
#61 = DIRECTION ( 'NONE',  ( 1.224646799147353207E-16, 0.0000000000000000000, 1.000000000000000000 ) ) ;
#62 = EDGE_CURVE ( 'NONE', #73, #280, #247, .T. ) ;
#63 = EDGE_LOOP ( 'NONE', ( #77, #96, #174, #132 ) ) ;
#64 = SURFACE_STYLE_FILL_AREA ( #112 ) ;
#65 = DIRECTION ( 'NONE',  ( -1.000000000000000000, 0.0000000000000000000, 0.0000000000000000000 ) ) ;
#66 = APPLICATION_CONTEXT ( 'automotive_design' ) ;
#67 = CARTESIAN_POINT ( 'NONE',  ( 0.0000000000000000000, 0.0000000000000000000, 1.968503999999999809 ) ) ;
#68 = DIRECTION ( 'NONE',  ( 1.000000000000000000, 0.0000000000000000000, 0.0000000000000000000 ) ) ;
#69 = DIRECTION ( 'NONE',  ( 0.7071067811865502373, 8.659560562354966138E-17, -0.7071067811865446862 ) ) ;
#70 = AXIS2_PLACEMENT_3D ( 'NONE', #13, #204, #265 ) ;
#71 = CIRCLE ( 'NONE', #145, 0.06374000000000018540 ) ;
#72 = DIMENSIONAL_EXPONENTS ( 1.000000000000000000, 0.0000000000000000000, 0.0000000000000000000, 0.0000000000000000000, 0.0000000000000000000, 0.0000000000000000000, 0.0000000000000000000 ) ;
#73 = VERTEX_POINT ( 'NONE', #6 ) ;
#74 = DIRECTION ( 'NONE',  ( 1.000000000000000000, 0.0000000000000000000, 0.0000000000000000000 ) ) ;
#75 = EDGE_LOOP ( 'NONE', ( #302, #181, #15, #303 ) ) ;
#76 = CARTESIAN_POINT ( 'NONE',  ( 7.232151672364693882E-18, 0.0000000000000000000, 0.05905499999999999639 ) ) ;
#77 = ORIENTED_EDGE ( 'NONE', *, *, #45, .F. ) ;
#78 = CARTESIAN_POINT ( 'NONE',  ( -0.06374000000000018540, 0.0000000000000000000, 1.968503999999999809 ) ) ;
#79 = VERTEX_POINT ( 'NONE', #49 ) ;
#80 = DIRECTION ( 'NONE',  ( -1.224646799147353207E-16, -0.0000000000000000000, -1.000000000000000000 ) ) ;
#81 = DIRECTION ( 'NONE',  ( 1.000000000000000000, 0.0000000000000000000, 0.0000000000000000000 ) ) ;
#82 = CARTESIAN_POINT ( 'NONE',  ( -0.07874000000000000443, 0.0000000000000000000, 1.968503999999999809 ) ) ;
#83 = AXIS2_PLACEMENT_3D ( 'NONE', #76, #155, #54 ) ;
#84 = EDGE_LOOP ( 'NONE', ( #304, #33, #224 ) ) ;
#85 = EDGE_CURVE ( 'NONE', #305, #285, #128, .T. ) ;
#86 =( LENGTH_UNIT ( ) NAMED_UNIT ( * ) SI_UNIT ( $, .METRE. ) );
#87 = PRODUCT_CONTEXT ( 'NONE', #244, 'mechanical' ) ;
#88 = ORIENTED_EDGE ( 'NONE', *, *, #250, .T. ) ;
#89 = UNCERTAINTY_MEASURE_WITH_UNIT (LENGTH_MEASURE( 1.000000000000000082E-05 ), #281, 'distance_accuracy_value', 'NONE');
#90 = DIRECTION ( 'NONE',  ( -1.000000000000000000, 0.0000000000000000000, 2.170579261049421609E-16 ) ) ;
#91 = DIRECTION ( 'NONE',  ( 1.224646799147353207E-16, 0.0000000000000000000, 1.000000000000000000 ) ) ;
#92 = AXIS2_PLACEMENT_3D ( 'NONE', #120, #26, #200 ) ;
#93 = CYLINDRICAL_SURFACE ( 'NONE', #284, 0.07874000000000000443 ) ;
#94 = ADVANCED_FACE ( 'NONE', ( #229 ), #93, .T. ) ;
#95 = DIRECTION ( 'NONE',  ( -1.224646799147353207E-16, -0.0000000000000000000, -1.000000000000000000 ) ) ;
#96 = ORIENTED_EDGE ( 'NONE', *, *, #125, .T. ) ;
#97 = DIRECTION ( 'NONE',  ( -0.0000000000000000000, -0.0000000000000000000, -1.000000000000000000 ) ) ;
#98 = EDGE_CURVE ( 'NONE', #196, #79, #101, .T. ) ;
#99 = AXIS2_PLACEMENT_3D ( 'NONE', #51, #279, #232 ) ;
#100 = ORIENTED_EDGE ( 'NONE', *, *, #111, .T. ) ;
#101 = LINE ( 'NONE', #82, #216 ) ;
#102 = ORIENTED_EDGE ( 'NONE', *, *, #45, .T. ) ;
#103 =( NAMED_UNIT ( * ) SI_UNIT ( $, .STERADIAN. ) SOLID_ANGLE_UNIT ( ) );
#104 = ORIENTED_EDGE ( 'NONE', *, *, #275, .F. ) ;
#105 = FACE_OUTER_BOUND ( 'NONE', #107, .T. ) ;
#106 = PRESENTATION_LAYER_ASSIGNMENT (  '', '', ( #137 ) ) ;
#107 = EDGE_LOOP ( 'NONE', ( #201, #135, #154, #129 ) ) ;
#108 = LENGTH_MEASURE_WITH_UNIT ( LENGTH_MEASURE( 0.02539999999999999897 ), #130 );
#109 = CARTESIAN_POINT ( 'NONE',  ( -0.009832657499999994388, 5.423511074967489933E-18, 0.05905499999999999639 ) ) ;
#110 = SPHERICAL_SURFACE ( 'NONE', #290, 0.009832657499999999592 ) ;
#111 = EDGE_CURVE ( 'NONE', #280, #258, #60, .T. ) ;
#112 = FILL_AREA_STYLE ('',( #36 ) ) ;
#113 = APPLICATION_PROTOCOL_DEFINITION ( 'draft international standard', 'automotive_design', 1998, #66 ) ;
#114 = CIRCLE ( 'NONE', #59, 0.07874000000000000443 ) ;
#115 = CARTESIAN_POINT ( 'NONE',  ( 0.0000000000000000000, 0.0000000000000000000, 1.968503999999999809 ) ) ;
#116 = CARTESIAN_POINT ( 'NONE',  ( -0.009832657499999994388, 1.204153253448721743E-18, 0.05905499999999999639 ) ) ;
#117 = ADVANCED_FACE ( 'NONE', ( #27 ), #230, .T. ) ;
#118 = MECHANICAL_DESIGN_GEOMETRIC_PRESENTATION_REPRESENTATION (  '', ( #220 ), #252 ) ;
#119 = AXIS2_PLACEMENT_3D ( 'NONE', #273, #268, #152 ) ;
#120 = CARTESIAN_POINT ( 'NONE',  ( 1.204153253448721358E-18, 0.0000000000000000000, 0.009832657499999999592 ) ) ;
#121 = ADVANCED_BREP_SHAPE_REPRESENTATION ( 'Micro_BMRM-005-2', ( #210, #295 ), #317 ) ;
#122 = SURFACE_STYLE_FILL_AREA ( #46 ) ;
#123 = EDGE_LOOP ( 'NONE', ( #43, #260, #324, #235 ) ) ;
#124 = DIRECTION ( 'NONE',  ( 0.0000000000000000000, 0.0000000000000000000, -1.000000000000000000 ) ) ;
#125 = EDGE_CURVE ( 'NONE', #21, #196, #149, .T. ) ;
#126 = CARTESIAN_POINT ( 'NONE',  ( 0.0000000000000000000, 0.0000000000000000000, 1.968503999999999809 ) ) ;
#127 = CARTESIAN_POINT ( 'NONE',  ( 1.204153253448721358E-18, 0.0000000000000000000, 0.009832657499999999592 ) ) ;
#128 = CIRCLE ( 'NONE', #92, 0.009832657499999999592 ) ;
#129 = ORIENTED_EDGE ( 'NONE', *, *, #226, .F. ) ;
#130 =( LENGTH_UNIT ( ) NAMED_UNIT ( * ) SI_UNIT ( $, .METRE. ) );
#131 = SPHERICAL_SURFACE ( 'NONE', #58, 0.009832657499999999592 ) ;
#132 = ORIENTED_EDGE ( 'NONE', *, *, #213, .F. ) ;
#133 = FACE_OUTER_BOUND ( 'NONE', #263, .T. ) ;
#134 = EDGE_CURVE ( 'NONE', #50, #272, #71, .T. ) ;
#135 = ORIENTED_EDGE ( 'NONE', *, *, #12, .T. ) ;
#136 = DIRECTION ( 'NONE',  ( -1.224646799147353207E-16, -0.0000000000000000000, -1.000000000000000000 ) ) ;
#137 = STYLED_ITEM ( 'NONE', ( #316 ), #121 ) ;
#138 = DIRECTION ( 'NONE',  ( -1.000000000000000000, 1.224646799147352961E-16, 0.0000000000000000000 ) ) ;
#139 = DIRECTION ( 'NONE',  ( 1.000000000000000000, 0.0000000000000000000, 0.0000000000000000000 ) ) ;
#140 = ORIENTED_EDGE ( 'NONE', *, *, #62, .F. ) ;
#141 =( LENGTH_UNIT ( ) NAMED_UNIT ( * ) SI_UNIT ( $, .METRE. ) );
#142 = CARTESIAN_POINT ( 'NONE',  ( 0.07874000000000004607, 9.642868896486264672E-18, 0.4498479587584185424 ) ) ;
#143 = PRODUCT ( 'Micro_BMRM-005-2', 'Micro_BMRM-005-2', '', ( #87 ) ) ;
#144 = AXIS2_PLACEMENT_3D ( 'NONE', #208, #306, #138 ) ;
#145 = AXIS2_PLACEMENT_3D ( 'NONE', #48, #318, #248 ) ;
#146 = EDGE_CURVE ( 'NONE', #272, #21, #259, .T. ) ;
#147 = FILL_AREA_STYLE_COLOUR ( '', #53 ) ;
#148 = FACE_OUTER_BOUND ( 'NONE', #123, .T. ) ;
#149 = CIRCLE ( 'NONE', #119, 0.07874000000000000443 ) ;
#150 = COLOUR_RGB ( '',0.7921568627450980005, 0.8196078431372548767, 0.9333333333333333481 ) ;
#151 = EDGE_LOOP ( 'NONE', ( #4, #88, #182 ) ) ;
#152 = DIRECTION ( 'NONE',  ( 1.000000000000000000, 0.0000000000000000000, 0.0000000000000000000 ) ) ;
#153 = CARTESIAN_POINT ( 'NONE',  ( -0.06374000000000018540, 0.0000000000000000000, 1.968503999999999809 ) ) ;
#154 = ORIENTED_EDGE ( 'NONE', *, *, #275, .T. ) ;
#155 = DIRECTION ( 'NONE',  ( 1.224646799147353207E-16, 0.0000000000000000000, 1.000000000000000000 ) ) ;
#156 = LINE ( 'NONE', #257, #276 ) ;
#157 = AXIS2_PLACEMENT_3D ( 'NONE', #198, #179, #68 ) ;
#158 = UNCERTAINTY_MEASURE_WITH_UNIT (LENGTH_MEASURE( 1.000000000000000082E-05 ), #211, 'distance_accuracy_value', 'NONE');
#159 = LINE ( 'NONE', #206, #245 ) ;
#160 = PRODUCT_DEFINITION ( 'UNKNOWN', '', #35, #31 ) ;
#161 = CARTESIAN_POINT ( 'NONE',  ( -0.009832657499999999592, 0.0000000000000000000, 0.009832657500000001327 ) ) ;
#162 = DIRECTION ( 'NONE',  ( 1.000000000000000000, 0.0000000000000000000, 0.0000000000000000000 ) ) ;
#163 = AXIS2_PLACEMENT_3D ( 'NONE', #209, #310, #81 ) ;
#164 = EDGE_CURVE ( 'NONE', #272, #50, #262, .T. ) ;
#165 = FACE_OUTER_BOUND ( 'NONE', #151, .T. ) ;
#166 = APPLICATION_PROTOCOL_DEFINITION ( 'draft international standard', 'automotive_design', 1998, #244 ) ;
#167 = DIRECTION ( 'NONE',  ( -0.0000000000000000000, -0.0000000000000000000, -1.000000000000000000 ) ) ;
#168 =( CONVERSION_BASED_UNIT ( 'INCH', #217 ) LENGTH_UNIT ( ) NAMED_UNIT ( #178 ) );
#169 = EDGE_CURVE ( 'NONE', #258, #285, #28, .T. ) ;
#170 = DIRECTION ( 'NONE',  ( -1.000000000000000000, 0.0000000000000000000, 2.170579261049421609E-16 ) ) ;
#171 = CIRCLE ( 'NONE', #191, 0.009832657500000001327 ) ;
#172 = ORIENTED_EDGE ( 'NONE', *, *, #98, .F. ) ;
#173 = DIRECTION ( 'NONE',  ( -1.000000000000000000, 0.0000000000000000000, 1.224646799147353207E-16 ) ) ;
#174 = ORIENTED_EDGE ( 'NONE', *, *, #98, .T. ) ;
#175 = CARTESIAN_POINT ( 'NONE',  ( 0.0000000000000000000, 0.0000000000000000000, 0.0000000000000000000 ) ) ;
#176 = DIRECTION ( 'NONE',  ( -1.000000000000000000, 0.0000000000000000000, 0.0000000000000000000 ) ) ;
#177 = DIRECTION ( 'NONE',  ( 0.0000000000000000000, 0.0000000000000000000, 1.000000000000000000 ) ) ;
#178 = DIMENSIONAL_EXPONENTS ( 1.000000000000000000, 0.0000000000000000000, 0.0000000000000000000, 0.0000000000000000000, 0.0000000000000000000, 0.0000000000000000000, 0.0000000000000000000 ) ;
#179 = DIRECTION ( 'NONE',  ( 0.0000000000000000000, 0.0000000000000000000, 1.000000000000000000 ) ) ;
#180 = AXIS2_PLACEMENT_3D ( 'NONE', #115, #298, #65 ) ;
#181 = ORIENTED_EDGE ( 'NONE', *, *, #134, .F. ) ;
#182 = ORIENTED_EDGE ( 'NONE', *, *, #319, .F. ) ;
#183 = DIRECTION ( 'NONE',  ( 1.224646799147353207E-16, 0.0000000000000000000, 1.000000000000000000 ) ) ;
#184 = CONICAL_SURFACE ( 'NONE', #37, 0.06374000000000018540, 0.7853981633974522758 ) ;
#185 = ORIENTED_EDGE ( 'NONE', *, *, #226, .T. ) ;
#186 = DIRECTION ( 'NONE',  ( -0.7071067811865502373, 0.0000000000000000000, -0.7071067811865446862 ) ) ;
#187 = ADVANCED_FACE ( 'NONE', ( #321 ), #299, .T. ) ;
#188 = ORIENTED_EDGE ( 'NONE', *, *, #134, .T. ) ;
#189 = DIRECTION ( 'NONE',  ( 1.000000000000000000, 0.0000000000000000000, 0.0000000000000000000 ) ) ;
#190 = CARTESIAN_POINT ( 'NONE',  ( 1.806229880173082037E-18, 0.0000000000000000000, 0.0000000000000000000 ) ) ;
#191 = AXIS2_PLACEMENT_3D ( 'NONE', #292, #61, #170 ) ;
#192 = DIRECTION ( 'NONE',  ( 0.0000000000000000000, 0.0000000000000000000, 1.000000000000000000 ) ) ;
#193 = MECHANICAL_DESIGN_GEOMETRIC_PRESENTATION_REPRESENTATION (  '', ( #137 ), #41 ) ;
#194 = DIRECTION ( 'NONE',  ( 1.000000000000000000, 0.0000000000000000000, 0.0000000000000000000 ) ) ;
#195 = CARTESIAN_POINT ( 'NONE',  ( 0.0000000000000000000, 0.0000000000000000000, 1.968503999999999809 ) ) ;
#196 = VERTEX_POINT ( 'NONE', #300 ) ;
#197 = AXIS2_PLACEMENT_3D ( 'NONE', #24, #91, #90 ) ;
#198 = CARTESIAN_POINT ( 'NONE',  ( 0.0000000000000000000, 0.0000000000000000000, 1.968503999999999809 ) ) ;
#199 = CARTESIAN_POINT ( 'NONE',  ( -0.009832657500000001327, 0.0000000000000000000, 1.204153253448721743E-18 ) ) ;
#200 = DIRECTION ( 'NONE',  ( 0.0000000000000000000, 0.0000000000000000000, -1.000000000000000000 ) ) ;
#201 = ORIENTED_EDGE ( 'NONE', *, *, #270, .F. ) ;
#202 = ADVANCED_FACE ( 'NONE', ( #221 ), #184, .T. ) ;
#203 = ORIENTED_EDGE ( 'NONE', *, *, #146, .T. ) ;
#204 = DIRECTION ( 'NONE',  ( 0.0000000000000000000, 0.0000000000000000000, -1.000000000000000000 ) ) ;
#205 = ORIENTED_EDGE ( 'NONE', *, *, #164, .F. ) ;
#206 = CARTESIAN_POINT ( 'NONE',  ( 0.009832657500000006531, 0.0000000000000000000, 0.05905499999999999639 ) ) ;
#207 = EDGE_LOOP ( 'NONE', ( #9, #140, #185, #25 ) ) ;
#208 = CARTESIAN_POINT ( 'NONE',  ( 1.204153253448721358E-18, 0.0000000000000000000, 0.009832657499999999592 ) ) ;
#209 = CARTESIAN_POINT ( 'NONE',  ( 0.0000000000000000000, 0.0000000000000000000, 1.953504000000000129 ) ) ;
#210 = MANIFOLD_SOLID_BREP ( 'Fillet1', #255 ) ;
#211 =( CONVERSION_BASED_UNIT ( 'INCH', #291 ) LENGTH_UNIT ( ) NAMED_UNIT ( #18 ) );
#212 = ORIENTED_EDGE ( 'NONE', *, *, #251, .F. ) ;
#213 = EDGE_CURVE ( 'NONE', #29, #79, #294, .T. ) ;
#214 = SHAPE_DEFINITION_REPRESENTATION ( #240, #121 ) ;
#215 = CIRCLE ( 'NONE', #163, 0.07874000000000000443 ) ;
#216 = VECTOR ( 'NONE', #167, 39.37007874015748143 ) ;
#217 = LENGTH_MEASURE_WITH_UNIT ( LENGTH_MEASURE( 0.02539999999999999897 ), #86 );
#218 = ADVANCED_FACE ( 'NONE', ( #286 ), #288, .T. ) ;
#219 = ADVANCED_FACE ( 'NONE', ( #133 ), #1, .T. ) ;
#220 = STYLED_ITEM ( 'NONE', ( #225 ), #210 ) ;
#221 = FACE_OUTER_BOUND ( 'NONE', #75, .T. ) ;
#222 = SURFACE_SIDE_STYLE ('',( #122 ) ) ;
#223 = CYLINDRICAL_SURFACE ( 'NONE', #99, 0.009832657500000001327 ) ;
#224 = ORIENTED_EDGE ( 'NONE', *, *, #169, .F. ) ;
#225 = PRESENTATION_STYLE_ASSIGNMENT (( #278 ) ) ;
#226 = EDGE_CURVE ( 'NONE', #73, #29, #159, .T. ) ;
#227 = DIRECTION ( 'NONE',  ( 0.0000000000000000000, 1.000000000000000000, 0.0000000000000000000 ) ) ;
#228 = AXIS2_PLACEMENT_3D ( 'NONE', #5, #183, #162 ) ;
#229 = FACE_OUTER_BOUND ( 'NONE', #231, .T. ) ;
#230 = CYLINDRICAL_SURFACE ( 'NONE', #289, 0.009832657500000001327 ) ;
#231 = EDGE_LOOP ( 'NONE', ( #7, #102, #104, #172 ) ) ;
#232 = DIRECTION ( 'NONE',  ( -1.000000000000000000, 0.0000000000000000000, 1.224646799147353207E-16 ) ) ;
#233 = ORIENTED_EDGE ( 'NONE', *, *, #62, .T. ) ;
#234 =( NAMED_UNIT ( * ) PLANE_ANGLE_UNIT ( ) SI_UNIT ( $, .RADIAN. ) );
#235 = ORIENTED_EDGE ( 'NONE', *, *, #111, .F. ) ;
#236 = ADVANCED_FACE ( 'NONE', ( #105 ), #253, .T. ) ;
#237 = CARTESIAN_POINT ( 'NONE',  ( 0.06374000000000018540, 8.724383797125754882E-18, 1.968503999999999809 ) ) ;
#238 = CIRCLE ( 'NONE', #17, 0.009832657500000001327 ) ;
#239 = CARTESIAN_POINT ( 'NONE',  ( 0.009832657500000003062, 1.204153253448721743E-18, 0.009832657499999996123 ) ) ;
#240 = PRODUCT_DEFINITION_SHAPE ( 'NONE', 'NONE',  #160 ) ;
#241 = SURFACE_STYLE_USAGE ( .BOTH. , #271 ) ;
#242 =( NAMED_UNIT ( * ) SI_UNIT ( $, .STERADIAN. ) SOLID_ANGLE_UNIT ( ) );
#243 = LINE ( 'NONE', #116, #297 ) ;
#244 = APPLICATION_CONTEXT ( 'automotive_design' ) ;
#245 = VECTOR ( 'NONE', #8, 39.37007874015748143 ) ;
#246 = FACE_OUTER_BOUND ( 'NONE', #63, .T. ) ;
#247 = CIRCLE ( 'NONE', #274, 0.009832657500000001327 ) ;
#248 = DIRECTION ( 'NONE',  ( 1.000000000000000000, 0.0000000000000000000, 0.0000000000000000000 ) ) ;
#249 = CYLINDRICAL_SURFACE ( 'NONE', #180, 0.07874000000000000443 ) ;
#250 = EDGE_CURVE ( 'NONE', #305, #258, #266, .T. ) ;
#251 = EDGE_CURVE ( 'NONE', #50, #196, #57, .T. ) ;
#252 =( GEOMETRIC_REPRESENTATION_CONTEXT ( 3 ) GLOBAL_UNCERTAINTY_ASSIGNED_CONTEXT ( ( #89 ) ) GLOBAL_UNIT_ASSIGNED_CONTEXT ( ( #281, #234, #103 ) ) REPRESENTATION_CONTEXT ( 'NONE', 'WORKASPACE' ) );
#253 = CONICAL_SURFACE ( 'NONE', #83, 0.009832657500000001327, 0.1745329251994338915 ) ;
#254 = ORIENTED_EDGE ( 'NONE', *, *, #293, .F. ) ;
#255 = CLOSED_SHELL ( 'NONE', ( #314, #56, #236, #219, #94, #32, #187, #202, #218, #117, #40 ) ) ;
#256 = CARTESIAN_POINT ( 'NONE',  ( 0.06374000000000018540, 7.805898697765251255E-18, 1.968503999999999809 ) ) ;
#257 = CARTESIAN_POINT ( 'NONE',  ( 0.07874000000000000443, 9.642868896486258509E-18, 1.968503999999999809 ) ) ;
#258 = VERTEX_POINT ( 'NONE', #161 ) ;
#259 = LINE ( 'NONE', #256, #2 ) ;
#260 = ORIENTED_EDGE ( 'NONE', *, *, #269, .T. ) ;
#261 = CARTESIAN_POINT ( 'NONE',  ( 0.009832657500000001327, 1.204153253448721743E-18, -1.204153253448721743E-18 ) ) ;
#262 = CIRCLE ( 'NONE', #157, 0.06374000000000018540 ) ;
#263 = EDGE_LOOP ( 'NONE', ( #205, #203, #254, #212 ) ) ;
#264 = LINE ( 'NONE', #261, #277 ) ;
#265 = DIRECTION ( 'NONE',  ( -1.000000000000000000, 0.0000000000000000000, 0.0000000000000000000 ) ) ;
#266 = CIRCLE ( 'NONE', #144, 0.009832657499999999592 ) ;
#267 = CARTESIAN_POINT ( 'NONE',  ( 1.204153253448721358E-18, 0.0000000000000000000, 0.009832657499999999592 ) ) ;
#268 = DIRECTION ( 'NONE',  ( 0.0000000000000000000, 0.0000000000000000000, -1.000000000000000000 ) ) ;
#269 = EDGE_CURVE ( 'NONE', #73, #285, #264, .T. ) ;
#270 = EDGE_CURVE ( 'NONE', #280, #73, #238, .T. ) ;
#271 = SURFACE_SIDE_STYLE ('',( #64 ) ) ;
#272 = VERTEX_POINT ( 'NONE', #237 ) ;
#273 = CARTESIAN_POINT ( 'NONE',  ( 0.0000000000000000000, 0.0000000000000000000, 1.953504000000000129 ) ) ;
#274 = AXIS2_PLACEMENT_3D ( 'NONE', #323, #95, #301 ) ;
#275 = EDGE_CURVE ( 'NONE', #79, #29, #114, .T. ) ;
#276 = VECTOR ( 'NONE', #322, 39.37007874015748143 ) ;
#277 = VECTOR ( 'NONE', #287, 39.37007874015748143 ) ;
#278 = SURFACE_STYLE_USAGE ( .BOTH. , #222 ) ;
#279 = DIRECTION ( 'NONE',  ( -1.224646799147353207E-16, -0.0000000000000000000, -1.000000000000000000 ) ) ;
#280 = VERTEX_POINT ( 'NONE', #109 ) ;
#281 =( CONVERSION_BASED_UNIT ( 'INCH', #108 ) LENGTH_UNIT ( ) NAMED_UNIT ( #72 ) );
#282 = UNCERTAINTY_MEASURE_WITH_UNIT (LENGTH_MEASURE( 1.000000000000000082E-05 ), #168, 'distance_accuracy_value', 'NONE');
#283 = EDGE_LOOP ( 'NONE', ( #55, #233, #100, #308 ) ) ;
#284 = AXIS2_PLACEMENT_3D ( 'NONE', #126, #97, #3 ) ;
#285 = VERTEX_POINT ( 'NONE', #239 ) ;
#286 = FACE_OUTER_BOUND ( 'NONE', #207, .T. ) ;
#287 = DIRECTION ( 'NONE',  ( -1.224646799147353207E-16, -0.0000000000000000000, -1.000000000000000000 ) ) ;
#288 = CONICAL_SURFACE ( 'NONE', #228, 0.009832657500000001327, 0.1745329251994338915 ) ;
#289 = AXIS2_PLACEMENT_3D ( 'NONE', #52, #315, #173 ) ;
#290 = AXIS2_PLACEMENT_3D ( 'NONE', #267, #296, #194 ) ;
#291 = LENGTH_MEASURE_WITH_UNIT ( LENGTH_MEASURE( 0.02539999999999999897 ), #141 );
#292 = CARTESIAN_POINT ( 'NONE',  ( 1.204153253448721358E-18, 0.0000000000000000000, 0.009832657499999999592 ) ) ;
#293 = EDGE_CURVE ( 'NONE', #196, #21, #215, .T. ) ;
#294 = CIRCLE ( 'NONE', #11, 0.07874000000000000443 ) ;
#295 = AXIS2_PLACEMENT_3D ( 'NONE', #175, #192, #139 ) ;
#296 = DIRECTION ( 'NONE',  ( 0.0000000000000000000, 1.000000000000000000, 0.0000000000000000000 ) ) ;
#297 = VECTOR ( 'NONE', #16, 39.37007874015747433 ) ;
#298 = DIRECTION ( 'NONE',  ( -0.0000000000000000000, -0.0000000000000000000, -1.000000000000000000 ) ) ;
#299 = PLANE ( 'NONE',  #312 ) ;
#300 = CARTESIAN_POINT ( 'NONE',  ( -0.07874000000000000443, 0.0000000000000000000, 1.953504000000000129 ) ) ;
#301 = DIRECTION ( 'NONE',  ( -1.000000000000000000, 0.0000000000000000000, 0.0000000000000000000 ) ) ;
#302 = ORIENTED_EDGE ( 'NONE', *, *, #146, .F. ) ;
#303 = ORIENTED_EDGE ( 'NONE', *, *, #125, .F. ) ;
#304 = ORIENTED_EDGE ( 'NONE', *, *, #250, .F. ) ;
#305 = VERTEX_POINT ( 'NONE', #190 ) ;
#306 = DIRECTION ( 'NONE',  ( 1.224646799147353207E-16, 1.000000000000000000, -0.0000000000000000000 ) ) ;
#307 = PRESENTATION_LAYER_ASSIGNMENT (  '', '', ( #220 ) ) ;
#308 = ORIENTED_EDGE ( 'NONE', *, *, #169, .T. ) ;
#309 = CARTESIAN_POINT ( 'NONE',  ( 5.509048627964678322E-17, 0.0000000000000000000, 0.4498479587584185424 ) ) ;
#310 = DIRECTION ( 'NONE',  ( 0.0000000000000000000, 0.0000000000000000000, -1.000000000000000000 ) ) ;
#311 = PRODUCT_RELATED_PRODUCT_CATEGORY ( 'part', '', ( #143 ) ) ;
#312 = AXIS2_PLACEMENT_3D ( 'NONE', #195, #177, #325 ) ;
#313 =( NAMED_UNIT ( * ) SI_UNIT ( $, .STERADIAN. ) SOLID_ANGLE_UNIT ( ) );
#314 = ADVANCED_FACE ( 'NONE', ( #165 ), #110, .T. ) ;
#315 = DIRECTION ( 'NONE',  ( -1.224646799147353207E-16, -0.0000000000000000000, -1.000000000000000000 ) ) ;
#316 = PRESENTATION_STYLE_ASSIGNMENT (( #241 ) ) ;
#317 =( GEOMETRIC_REPRESENTATION_CONTEXT ( 3 ) GLOBAL_UNCERTAINTY_ASSIGNED_CONTEXT ( ( #282 ) ) GLOBAL_UNIT_ASSIGNED_CONTEXT ( ( #168, #38, #242 ) ) REPRESENTATION_CONTEXT ( 'NONE', 'WORKASPACE' ) );
#318 = DIRECTION ( 'NONE',  ( 0.0000000000000000000, 0.0000000000000000000, 1.000000000000000000 ) ) ;
#319 = EDGE_CURVE ( 'NONE', #285, #258, #171, .T. ) ;
#320 = VECTOR ( 'NONE', #19, 39.37007874015748143 ) ;
#321 = FACE_OUTER_BOUND ( 'NONE', #42, .T. ) ;
#322 = DIRECTION ( 'NONE',  ( -0.0000000000000000000, -0.0000000000000000000, -1.000000000000000000 ) ) ;
#323 = CARTESIAN_POINT ( 'NONE',  ( 7.232151672364693882E-18, 0.0000000000000000000, 0.05905499999999999639 ) ) ;
#324 = ORIENTED_EDGE ( 'NONE', *, *, #319, .T. ) ;
#325 = DIRECTION ( 'NONE',  ( 1.000000000000000000, 0.0000000000000000000, -0.0000000000000000000 ) ) ;
ENDSEC;
END-ISO-10303-21;
