ISO-10303-21;
HEADER;
FILE_DESCRIPTION (( 'STEP AP214' ),
    '1' );
FILE_NAME ('59764.STEP',
    '2023-07-24T15:35:35',
    ( '' ),
    ( '' ),
    'SwSTEP 2.0',
    'SolidWorks 2023',
    '' );
FILE_SCHEMA (( 'AUTOMOTIVE_DESIGN' ));
ENDSEC;

DATA;
#1 = MANIFOLD_SOLID_BREP ( 'Revolve - Cutting Edge', #30 ) ;
#2 = FILL_AREA_STYLE ('',( #119 ) ) ;
#3 = UNCERTAINTY_MEASURE_WITH_UNIT (LENGTH_MEASURE( 1.000000000000000082E-05 ), #175, 'distance_accuracy_value', 'NONE');
#4 = VECTOR ( 'NONE', #81, 1000.000000000000000 ) ;
#5 = DIRECTION ( 'NONE',  ( -0.000000000000000000, -1.000000000000000000, -0.000000000000000000 ) ) ;
#6 = ORIENTED_EDGE ( 'NONE', *, *, #313, .F. ) ;
#7 = CIRCLE ( 'NONE', #224, 12.49999999999999645 ) ;
#8 = UNCERTAINTY_MEASURE_WITH_UNIT (LENGTH_MEASURE( 1.000000000000000082E-05 ), #254, 'distance_accuracy_value', 'NONE');
#9 = SHAPE_DEFINITION_REPRESENTATION ( #43, #185 ) ;
#10 = ORIENTED_EDGE ( 'NONE', *, *, #265, .T. ) ;
#11 = AXIS2_PLACEMENT_3D ( 'NONE', #302, #247, #358 ) ;
#12 = SURFACE_STYLE_FILL_AREA ( #268 ) ;
#13 = CARTESIAN_POINT ( 'NONE',  ( 0.000000000000000000, 50.00000000000000000, 0.000000000000000000 ) ) ;
#14 = DIRECTION ( 'NONE',  ( -1.217753221838294133E-16, 1.000000000000000000, -0.000000000000000000 ) ) ;
#15 = VERTEX_POINT ( 'NONE', #109 ) ;
#16 =( NAMED_UNIT ( * ) SI_UNIT ( $, .STERADIAN. ) SOLID_ANGLE_UNIT ( ) );
#17 = CIRCLE ( 'NONE', #207, 12.49999999999999645 ) ;
#18 = EDGE_CURVE ( 'NONE', #24, #97, #63, .T. ) ;
#19 = DIRECTION ( 'NONE',  ( -1.000000000000000000, 0.000000000000000000, 0.000000000000000000 ) ) ;
#20 = ORIENTED_EDGE ( 'NONE', *, *, #104, .F. ) ;
#21 = FACE_OUTER_BOUND ( 'NONE', #92, .T. ) ;
#22 = SURFACE_SIDE_STYLE ('',( #351 ) ) ;
#23 = CARTESIAN_POINT ( 'NONE',  ( 0.000000000000000000, 0.000000000000000000, 0.000000000000000000 ) ) ;
#24 = VERTEX_POINT ( 'NONE', #223 ) ;
#25 = DIRECTION ( 'NONE',  ( 0.000000000000000000, 0.000000000000000000, -1.000000000000000000 ) ) ;
#26 = CARTESIAN_POINT ( 'NONE',  ( 1.530808498934191521E-15, 0.000000000000000000, 12.50000000000000000 ) ) ;
#27 = PRESENTATION_STYLE_ASSIGNMENT (( #234 ) ) ;
#28 = FILL_AREA_STYLE ('',( #181 ) ) ;
#29 = PRESENTATION_LAYER_ASSIGNMENT (  '', '', ( #70 ) ) ;
#30 = CLOSED_SHELL ( 'NONE', ( #363, #75, #145, #334, #200, #233 ) ) ;
#31 = PRESENTATION_LAYER_ASSIGNMENT (  '', '', ( #226 ) ) ;
#32 = CARTESIAN_POINT ( 'NONE',  ( 0.000000000000000000, 1.000000000000000000, 0.000000000000000000 ) ) ;
#33 = CARTESIAN_POINT ( 'NONE',  ( -3.061616997868379493E-15, 124.9999999999999858, 0.000000000000000000 ) ) ;
#34 = CARTESIAN_POINT ( 'NONE',  ( 0.000000000000000000, 0.000000000000000000, 0.000000000000000000 ) ) ;
#35 = UNCERTAINTY_MEASURE_WITH_UNIT (LENGTH_MEASURE( 1.000000000000000082E-05 ), #299, 'distance_accuracy_value', 'NONE');
#36 = EDGE_CURVE ( 'NONE', #95, #227, #325, .T. ) ;
#37 = CIRCLE ( 'NONE', #219, 12.50000000000000355 ) ;
#38 = TOROIDAL_SURFACE ( 'NONE', #245, 11.50000000000000000, 1.000000000000000444 ) ;
#39 = CARTESIAN_POINT ( 'NONE',  ( 0.000000000000000000, 1.000000000000000000, 0.000000000000000000 ) ) ;
#40 = EDGE_LOOP ( 'NONE', ( #197, #320, #264, #280 ) ) ;
#41 = SURFACE_STYLE_FILL_AREA ( #214 ) ;
#42 = VERTEX_POINT ( 'NONE', #96 ) ;
#43 = PRODUCT_DEFINITION_SHAPE ( 'NONE', 'NONE',  #270 ) ;
#44 = EDGE_CURVE ( 'NONE', #15, #51, #94, .T. ) ;
#45 = ORIENTED_EDGE ( 'NONE', *, *, #292, .F. ) ;
#46 = MECHANICAL_DESIGN_GEOMETRIC_PRESENTATION_REPRESENTATION (  '', ( #359 ), #295 ) ;
#47 = COLOUR_RGB ( '',1.000000000000000000, 0.000000000000000000, 0.000000000000000000 ) ;
#48 = ORIENTED_EDGE ( 'NONE', *, *, #44, .F. ) ;
#49 = MECHANICAL_DESIGN_GEOMETRIC_PRESENTATION_REPRESENTATION (  '', ( #337 ), #180 ) ;
#50 = PRESENTATION_STYLE_ASSIGNMENT (( #354 ) ) ;
#51 = VERTEX_POINT ( 'NONE', #338 ) ;
#52 = DIRECTION ( 'NONE',  ( -0.000000000000000000, -1.000000000000000000, -0.000000000000000000 ) ) ;
#53 = FILL_AREA_STYLE ('',( #278 ) ) ;
#54 = EDGE_CURVE ( 'NONE', #97, #51, #37, .T. ) ;
#55 = DIRECTION ( 'NONE',  ( 0.000000000000000000, -0.000000000000000000, 1.000000000000000000 ) ) ;
#56 = CLOSED_SHELL ( 'NONE', ( #357, #67, #283, #260 ) ) ;
#57 = AXIS2_PLACEMENT_3D ( 'NONE', #39, #5, #127 ) ;
#58 = FILL_AREA_STYLE ('',( #172 ) ) ;
#59 = DIRECTION ( 'NONE',  ( -0.000000000000000000, -1.000000000000000000, -0.000000000000000000 ) ) ;
#60 = ORIENTED_EDGE ( 'NONE', *, *, #36, .F. ) ;
#61 =( LENGTH_UNIT ( ) NAMED_UNIT ( * ) SI_UNIT ( .MILLI., .METRE. ) );
#62 = FILL_AREA_STYLE ('',( #277 ) ) ;
#63 = LINE ( 'NONE', #327, #4 ) ;
#64 = PRESENTATION_STYLE_ASSIGNMENT (( #202 ) ) ;
#65 = FACE_OUTER_BOUND ( 'NONE', #78, .T. ) ;
#66 = ORIENTED_EDGE ( 'NONE', *, *, #106, .F. ) ;
#67 = ADVANCED_FACE ( 'NONE', ( #311 ), #68, .F. ) ;
#68 = PLANE ( 'NONE',  #272 ) ;
#69 = CARTESIAN_POINT ( 'NONE',  ( -3.061616997868379493E-15, 124.9999999999999858, 0.000000000000000000 ) ) ;
#70 = STYLED_ITEM ( 'NONE', ( #217 ), #145 ) ;
#71 =( GEOMETRIC_REPRESENTATION_CONTEXT ( 3 ) GLOBAL_UNCERTAINTY_ASSIGNED_CONTEXT ( ( #257 ) ) GLOBAL_UNIT_ASSIGNED_CONTEXT ( ( #365, #147, #206 ) ) REPRESENTATION_CONTEXT ( 'NONE', 'WORKASPACE' ) );
#72 = DIRECTION ( 'NONE',  ( -1.000000000000000000, 0.000000000000000000, 0.000000000000000000 ) ) ;
#73 = UNCERTAINTY_MEASURE_WITH_UNIT (LENGTH_MEASURE( 1.000000000000000082E-05 ), #350, 'distance_accuracy_value', 'NONE');
#74 = ORIENTED_EDGE ( 'NONE', *, *, #342, .F. ) ;
#75 = ADVANCED_FACE ( 'NONE', ( #65 ), #101, .T. ) ;
#76 = SURFACE_SIDE_STYLE ('',( #12 ) ) ;
#77 = COLOUR_RGB ( '',1.000000000000000000, 0.000000000000000000, 0.000000000000000000 ) ;
#78 = EDGE_LOOP ( 'NONE', ( #361, #305, #20, #60 ) ) ;
#79 = STYLED_ITEM ( 'NONE', ( #173 ), #1 ) ;
#80 = DIRECTION ( 'NONE',  ( -0.000000000000000000, -1.000000000000000000, -0.000000000000000000 ) ) ;
#81 = DIRECTION ( 'NONE',  ( -1.217753221838294133E-16, 1.000000000000000000, -0.000000000000000000 ) ) ;
#82 =( NAMED_UNIT ( * ) SI_UNIT ( $, .STERADIAN. ) SOLID_ANGLE_UNIT ( ) );
#83 =( GEOMETRIC_REPRESENTATION_CONTEXT ( 3 ) GLOBAL_UNCERTAINTY_ASSIGNED_CONTEXT ( ( #8 ) ) GLOBAL_UNIT_ASSIGNED_CONTEXT ( ( #254, #242, #293 ) ) REPRESENTATION_CONTEXT ( 'NONE', 'WORKASPACE' ) );
#84 = VERTEX_POINT ( 'NONE', #235 ) ;
#85 = CIRCLE ( 'NONE', #170, 1.000000000000000888 ) ;
#86 = DIRECTION ( 'NONE',  ( 1.000000000000000000, 1.217753221838294133E-16, 0.000000000000000000 ) ) ;
#87 = SURFACE_STYLE_USAGE ( .BOTH. , #22 ) ;
#88 = PRESENTATION_STYLE_ASSIGNMENT (( #304 ) ) ;
#89 = CARTESIAN_POINT ( 'NONE',  ( 0.000000000000000000, 50.00000000000000000, 0.000000000000000000 ) ) ;
#90 = DIRECTION ( 'NONE',  ( 0.000000000000000000, 0.000000000000000000, -1.000000000000000000 ) ) ;
#91 = SURFACE_STYLE_FILL_AREA ( #229 ) ;
#92 = EDGE_LOOP ( 'NONE', ( #238, #192, #137, #133 ) ) ;
#93 = AXIS2_PLACEMENT_3D ( 'NONE', #34, #153, #262 ) ;
#94 = LINE ( 'NONE', #279, #236 ) ;
#95 = VERTEX_POINT ( 'NONE', #203 ) ;
#96 = CARTESIAN_POINT ( 'NONE',  ( 0.000000000000000000, 50.00000000000000000, -12.50000000000000000 ) ) ;
#97 = VERTEX_POINT ( 'NONE', #152 ) ;
#98 = CIRCLE ( 'NONE', #225, 12.50000000000000355 ) ;
#99 = PRODUCT_CONTEXT ( 'NONE', #208, 'mechanical' ) ;
#100 = FILL_AREA_STYLE_COLOUR ( '', #210 ) ;
#101 = TOROIDAL_SURFACE ( 'NONE', #107, 11.50000000000000000, 1.000000000000000444 ) ;
#102 = AXIS2_PLACEMENT_3D ( 'NONE', #139, #246, #191 ) ;
#103 = DIRECTION ( 'NONE',  ( 0.000000000000000000, 0.000000000000000000, 1.000000000000000000 ) ) ;
#104 = EDGE_CURVE ( 'NONE', #227, #151, #300, .T. ) ;
#105 = CARTESIAN_POINT ( 'NONE',  ( 0.000000000000000000, 0.000000000000000000, 0.000000000000000000 ) ) ;
#106 = EDGE_CURVE ( 'NONE', #42, #84, #307, .T. ) ;
#107 = AXIS2_PLACEMENT_3D ( 'NONE', #32, #146, #259 ) ;
#108 = CARTESIAN_POINT ( 'NONE',  ( 6.071532165918824830E-15, 50.00000000000000000, 0.000000000000000000 ) ) ;
#109 = CARTESIAN_POINT ( 'NONE',  ( -12.49999999999999112, 50.00000000000000000, 0.000000000000000000 ) ) ;
#110 = EDGE_CURVE ( 'NONE', #84, #177, #232, .T. ) ;
#111 = FACE_OUTER_BOUND ( 'NONE', #40, .T. ) ;
#112 = COLOUR_RGB ( '',1.000000000000000000, 0.000000000000000000, 0.000000000000000000 ) ;
#113 = ORIENTED_EDGE ( 'NONE', *, *, #106, .T. ) ;
#114 = AXIS2_PLACEMENT_3D ( 'NONE', #164, #296, #86 ) ;
#115 = SURFACE_STYLE_FILL_AREA ( #58 ) ;
#116 =( NAMED_UNIT ( * ) SI_UNIT ( $, .STERADIAN. ) SOLID_ANGLE_UNIT ( ) );
#117 = FILL_AREA_STYLE_COLOUR ( '', #143 ) ;
#118 = EDGE_CURVE ( 'NONE', #51, #97, #98, .T. ) ;
#119 = FILL_AREA_STYLE_COLOUR ( '', #47 ) ;
#120 = FACE_OUTER_BOUND ( 'NONE', #243, .T. ) ;
#121 = MECHANICAL_DESIGN_GEOMETRIC_PRESENTATION_REPRESENTATION (  '', ( #226 ), #344 ) ;
#122 = EDGE_LOOP ( 'NONE', ( #45, #6 ) ) ;
#123 = MANIFOLD_SOLID_BREP ( 'Revolve - Tool Body (Straight Shanked)', #56 ) ;
#124 = CARTESIAN_POINT ( 'NONE',  ( -3.061616997868379493E-15, 124.9999999999999858, 0.000000000000000000 ) ) ;
#125 = UNCERTAINTY_MEASURE_WITH_UNIT (LENGTH_MEASURE( 1.000000000000000082E-05 ), #167, 'distance_accuracy_value', 'NONE');
#126 = DIRECTION ( 'NONE',  ( -1.217753221838294133E-16, 1.000000000000000000, -0.000000000000000000 ) ) ;
#127 = DIRECTION ( 'NONE',  ( 0.000000000000000000, 0.000000000000000000, -1.000000000000000000 ) ) ;
#128 = CARTESIAN_POINT ( 'NONE',  ( 1.408343819019456176E-15, 1.000000000000000000, 11.50000000000000000 ) ) ;
#129 = ORIENTED_EDGE ( 'NONE', *, *, #118, .T. ) ;
#130 = MECHANICAL_DESIGN_GEOMETRIC_PRESENTATION_REPRESENTATION (  '', ( #70 ), #215 ) ;
#131 = ORIENTED_EDGE ( 'NONE', *, *, #265, .F. ) ;
#132 = DIRECTION ( 'NONE',  ( 0.000000000000000000, 0.000000000000000000, -1.000000000000000000 ) ) ;
#133 = ORIENTED_EDGE ( 'NONE', *, *, #54, .F. ) ;
#134 = DIRECTION ( 'NONE',  ( -0.000000000000000000, -1.000000000000000000, -0.000000000000000000 ) ) ;
#135 = COLOUR_RGB ( '',0.7921568627450980005, 0.8196078431372548767, 0.9333333333333333481 ) ;
#136 = AXIS2_PLACEMENT_3D ( 'NONE', #69, #312, #228 ) ;
#137 = ORIENTED_EDGE ( 'NONE', *, *, #44, .T. ) ;
#138 = PRODUCT ( '59764', '59764', '', ( #99 ) ) ;
#139 = CARTESIAN_POINT ( 'NONE',  ( -3.061616997868379493E-15, 124.9999999999999858, 0.000000000000000000 ) ) ;
#140 = UNCERTAINTY_MEASURE_WITH_UNIT (LENGTH_MEASURE( 1.000000000000000082E-05 ), #157, 'distance_accuracy_value', 'NONE');
#141 = PLANE ( 'NONE',  #160 ) ;
#142 =( GEOMETRIC_REPRESENTATION_CONTEXT ( 3 ) GLOBAL_UNCERTAINTY_ASSIGNED_CONTEXT ( ( #369 ) ) GLOBAL_UNIT_ASSIGNED_CONTEXT ( ( #309, #253, #156 ) ) REPRESENTATION_CONTEXT ( 'NONE', 'WORKASPACE' ) );
#143 = COLOUR_RGB ( '',0.7921568627450980005, 0.8196078431372548767, 0.9333333333333333481 ) ;
#144 = DIRECTION ( 'NONE',  ( 0.000000000000000000, 0.000000000000000000, -1.000000000000000000 ) ) ;
#145 = ADVANCED_FACE ( 'NONE', ( #364 ), #349, .T. ) ;
#146 = DIRECTION ( 'NONE',  ( -0.000000000000000000, -1.000000000000000000, -0.000000000000000000 ) ) ;
#147 =( NAMED_UNIT ( * ) PLANE_ANGLE_UNIT ( ) SI_UNIT ( $, .RADIAN. ) );
#148 = PRODUCT_DEFINITION_CONTEXT ( 'detailed design', #322, 'design' ) ;
#149 = CARTESIAN_POINT ( 'NONE',  ( 0.000000000000000000, 50.00000000000000000, 0.000000000000000000 ) ) ;
#150 = SURFACE_SIDE_STYLE ('',( #306 ) ) ;
#151 = VERTEX_POINT ( 'NONE', #261 ) ;
#152 = CARTESIAN_POINT ( 'NONE',  ( 12.50000000000000000, 124.9999999999999858, 1.530808498934191719E-15 ) ) ;
#153 = DIRECTION ( 'NONE',  ( 0.000000000000000000, -1.000000000000000000, -0.000000000000000000 ) ) ;
#154 = AXIS2_PLACEMENT_3D ( 'NONE', #275, #72, #308 ) ;
#155 =( NAMED_UNIT ( * ) PLANE_ANGLE_UNIT ( ) SI_UNIT ( $, .RADIAN. ) );
#156 =( NAMED_UNIT ( * ) SI_UNIT ( $, .STERADIAN. ) SOLID_ANGLE_UNIT ( ) );
#157 =( LENGTH_UNIT ( ) NAMED_UNIT ( * ) SI_UNIT ( .MILLI., .METRE. ) );
#158 = EDGE_LOOP ( 'NONE', ( #66, #131 ) ) ;
#159 = SURFACE_STYLE_USAGE ( .BOTH. , #263 ) ;
#160 = AXIS2_PLACEMENT_3D ( 'NONE', #89, #193, #55 ) ;
#161 = CIRCLE ( 'NONE', #57, 12.50000000000000000 ) ;
#162 = EDGE_CURVE ( 'NONE', #95, #177, #161, .T. ) ;
#163 = ORIENTED_EDGE ( 'NONE', *, *, #104, .T. ) ;
#164 = CARTESIAN_POINT ( 'NONE',  ( 12.50000000000000000, 124.9999999999999858, 0.000000000000000000 ) ) ;
#165 = ORIENTED_EDGE ( 'NONE', *, *, #110, .F. ) ;
#166 = DIRECTION ( 'NONE',  ( 0.000000000000000000, 0.000000000000000000, -1.000000000000000000 ) ) ;
#167 =( LENGTH_UNIT ( ) NAMED_UNIT ( * ) SI_UNIT ( .MILLI., .METRE. ) );
#168 = ORIENTED_EDGE ( 'NONE', *, *, #162, .F. ) ;
#169 = DIRECTION ( 'NONE',  ( -0.000000000000000000, -1.000000000000000000, -0.000000000000000000 ) ) ;
#170 = AXIS2_PLACEMENT_3D ( 'NONE', #128, #239, #345 ) ;
#171 = EDGE_CURVE ( 'NONE', #177, #151, #85, .T. ) ;
#172 = FILL_AREA_STYLE_COLOUR ( '', #331 ) ;
#173 = PRESENTATION_STYLE_ASSIGNMENT (( #87 ) ) ;
#174 = CARTESIAN_POINT ( 'NONE',  ( 0.000000000000000000, 0.000000000000000000, -11.50000000000000000 ) ) ;
#175 =( LENGTH_UNIT ( ) NAMED_UNIT ( * ) SI_UNIT ( .MILLI., .METRE. ) );
#176 = SURFACE_STYLE_FILL_AREA ( #62 ) ;
#177 = VERTEX_POINT ( 'NONE', #187 ) ;
#178 =( NAMED_UNIT ( * ) PLANE_ANGLE_UNIT ( ) SI_UNIT ( $, .RADIAN. ) );
#179 = DIRECTION ( 'NONE',  ( -1.000000000000000000, -1.217753221838294133E-16, 0.000000000000000000 ) ) ;
#180 =( GEOMETRIC_REPRESENTATION_CONTEXT ( 3 ) GLOBAL_UNCERTAINTY_ASSIGNED_CONTEXT ( ( #73 ) ) GLOBAL_UNIT_ASSIGNED_CONTEXT ( ( #350, #276, #82 ) ) REPRESENTATION_CONTEXT ( 'NONE', 'WORKASPACE' ) );
#181 = FILL_AREA_STYLE_COLOUR ( '', #77 ) ;
#182 = STYLED_ITEM ( 'NONE', ( #27 ), #75 ) ;
#183 = DIRECTION ( 'NONE',  ( -1.217753221838294133E-16, 1.000000000000000000, 0.000000000000000000 ) ) ;
#184 = UNCERTAINTY_MEASURE_WITH_UNIT (LENGTH_MEASURE( 1.000000000000000082E-05 ), #61, 'distance_accuracy_value', 'NONE');
#185 = ADVANCED_BREP_SHAPE_REPRESENTATION ( '59764', ( #1, #123, #318 ), #142 ) ;
#186 = VECTOR ( 'NONE', #134, 1000.000000000000000 ) ;
#187 = CARTESIAN_POINT ( 'NONE',  ( 1.530808498934191521E-15, 1.000000000000000000, 12.50000000000000000 ) ) ;
#188 = ORIENTED_EDGE ( 'NONE', *, *, #319, .T. ) ;
#189 =( NAMED_UNIT ( * ) SI_UNIT ( $, .STERADIAN. ) SOLID_ANGLE_UNIT ( ) );
#190 = CARTESIAN_POINT ( 'NONE',  ( 0.000000000000000000, 1.000000000000000000, 0.000000000000000000 ) ) ;
#191 = DIRECTION ( 'NONE',  ( -1.000000000000000000, 0.000000000000000000, 0.000000000000000000 ) ) ;
#192 = ORIENTED_EDGE ( 'NONE', *, *, #313, .T. ) ;
#193 = DIRECTION ( 'NONE',  ( 0.000000000000000000, 1.000000000000000000, 0.000000000000000000 ) ) ;
#194 = AXIS2_PLACEMENT_3D ( 'NONE', #298, #59, #220 ) ;
#195 = DIRECTION ( 'NONE',  ( -1.217753221838294133E-16, 1.000000000000000000, -0.000000000000000000 ) ) ;
#196 = STYLED_ITEM ( 'NONE', ( #209 ), #363 ) ;
#197 = ORIENTED_EDGE ( 'NONE', *, *, #171, .F. ) ;
#198 = CYLINDRICAL_SURFACE ( 'NONE', #102, 12.49999999999999822 ) ;
#199 =( NAMED_UNIT ( * ) PLANE_ANGLE_UNIT ( ) SI_UNIT ( $, .RADIAN. ) );
#200 = ADVANCED_FACE ( 'NONE', ( #289 ), #343, .T. ) ;
#201 = SURFACE_SIDE_STYLE ('',( #176 ) ) ;
#202 = SURFACE_STYLE_USAGE ( .BOTH. , #310 ) ;
#203 = CARTESIAN_POINT ( 'NONE',  ( 0.000000000000000000, 1.000000000000000000, -12.50000000000000000 ) ) ;
#204 = FACE_OUTER_BOUND ( 'NONE', #221, .T. ) ;
#205 = DIRECTION ( 'NONE',  ( -1.000000000000000000, 0.000000000000000000, 0.000000000000000000 ) ) ;
#206 =( NAMED_UNIT ( * ) SI_UNIT ( $, .STERADIAN. ) SOLID_ANGLE_UNIT ( ) );
#207 = AXIS2_PLACEMENT_3D ( 'NONE', #108, #195, #19 ) ;
#208 = APPLICATION_CONTEXT ( 'automotive_design' ) ;
#209 = PRESENTATION_STYLE_ASSIGNMENT (( #362 ) ) ;
#210 = COLOUR_RGB ( '',1.000000000000000000, 0.000000000000000000, 0.000000000000000000 ) ;
#211 = SURFACE_STYLE_FILL_AREA ( #2 ) ;
#212 = DIRECTION ( 'NONE',  ( 1.000000000000000000, 0.000000000000000000, 0.000000000000000000 ) ) ;
#213 = ORIENTED_EDGE ( 'NONE', *, *, #297, .F. ) ;
#214 = FILL_AREA_STYLE ('',( #100 ) ) ;
#215 =( GEOMETRIC_REPRESENTATION_CONTEXT ( 3 ) GLOBAL_UNCERTAINTY_ASSIGNED_CONTEXT ( ( #140 ) ) GLOBAL_UNIT_ASSIGNED_CONTEXT ( ( #157, #155, #189 ) ) REPRESENTATION_CONTEXT ( 'NONE', 'WORKASPACE' ) );
#216 = PRODUCT_RELATED_PRODUCT_CATEGORY ( 'part', '', ( #138 ) ) ;
#217 = PRESENTATION_STYLE_ASSIGNMENT (( #341 ) ) ;
#218 =( GEOMETRIC_REPRESENTATION_CONTEXT ( 3 ) GLOBAL_UNCERTAINTY_ASSIGNED_CONTEXT ( ( #184 ) ) GLOBAL_UNIT_ASSIGNED_CONTEXT ( ( #61, #178, #258 ) ) REPRESENTATION_CONTEXT ( 'NONE', 'WORKASPACE' ) );
#219 = AXIS2_PLACEMENT_3D ( 'NONE', #124, #282, #205 ) ;
#220 = DIRECTION ( 'NONE',  ( 0.000000000000000000, 0.000000000000000000, -1.000000000000000000 ) ) ;
#221 = EDGE_LOOP ( 'NONE', ( #291, #287, #329, #48 ) ) ;
#222 = DIRECTION ( 'NONE',  ( -1.000000000000000000, 0.000000000000000000, 0.000000000000000000 ) ) ;
#223 = CARTESIAN_POINT ( 'NONE',  ( 12.50000000000000000, 50.00000000000000000, 1.530808498934192113E-15 ) ) ;
#224 = AXIS2_PLACEMENT_3D ( 'NONE', #303, #14, #222 ) ;
#225 = AXIS2_PLACEMENT_3D ( 'NONE', #33, #126, #340 ) ;
#226 = STYLED_ITEM ( 'NONE', ( #266 ), #200 ) ;
#227 = VERTEX_POINT ( 'NONE', #174 ) ;
#228 = DIRECTION ( 'NONE',  ( -1.000000000000000000, 0.000000000000000000, 0.000000000000000000 ) ) ;
#229 = FILL_AREA_STYLE ('',( #117 ) ) ;
#230 = AXIS2_PLACEMENT_3D ( 'NONE', #256, #335, #286 ) ;
#231 = CIRCLE ( 'NONE', #348, 12.50000000000000000 ) ;
#232 = LINE ( 'NONE', #26, #249 ) ;
#233 = ADVANCED_FACE ( 'NONE', ( #269 ), #141, .T. ) ;
#234 = SURFACE_STYLE_USAGE ( .BOTH. , #317 ) ;
#235 = CARTESIAN_POINT ( 'NONE',  ( 1.530808498934191521E-15, 50.00000000000000000, 12.50000000000000000 ) ) ;
#236 = VECTOR ( 'NONE', #370, 1000.000000000000000 ) ;
#237 = FILL_AREA_STYLE_COLOUR ( '', #241 ) ;
#238 = ORIENTED_EDGE ( 'NONE', *, *, #18, .F. ) ;
#239 = DIRECTION ( 'NONE',  ( 1.000000000000000000, 0.000000000000000000, -1.224646799147353207E-16 ) ) ;
#240 = APPLICATION_PROTOCOL_DEFINITION ( 'draft international standard', 'automotive_design', 1998, #208 ) ;
#241 = COLOUR_RGB ( '',1.000000000000000000, 0.000000000000000000, 0.000000000000000000 ) ;
#242 =( NAMED_UNIT ( * ) PLANE_ANGLE_UNIT ( ) SI_UNIT ( $, .RADIAN. ) );
#243 = EDGE_LOOP ( 'NONE', ( #113, #321, #168, #213 ) ) ;
#244 = LINE ( 'NONE', #271, #186 ) ;
#245 = AXIS2_PLACEMENT_3D ( 'NONE', #190, #52, #166 ) ;
#246 = DIRECTION ( 'NONE',  ( -1.217753221838294133E-16, 1.000000000000000000, -0.000000000000000000 ) ) ;
#247 = DIRECTION ( 'NONE',  ( -0.000000000000000000, -1.000000000000000000, -0.000000000000000000 ) ) ;
#248 = FACE_OUTER_BOUND ( 'NONE', #285, .T. ) ;
#249 = VECTOR ( 'NONE', #252, 1000.000000000000000 ) ;
#250 = ORIENTED_EDGE ( 'NONE', *, *, #54, .T. ) ;
#251 = DIRECTION ( 'NONE',  ( -0.000000000000000000, -1.000000000000000000, -0.000000000000000000 ) ) ;
#252 = DIRECTION ( 'NONE',  ( -0.000000000000000000, -1.000000000000000000, -0.000000000000000000 ) ) ;
#253 =( NAMED_UNIT ( * ) PLANE_ANGLE_UNIT ( ) SI_UNIT ( $, .RADIAN. ) );
#254 =( LENGTH_UNIT ( ) NAMED_UNIT ( * ) SI_UNIT ( .MILLI., .METRE. ) );
#255 = MECHANICAL_DESIGN_GEOMETRIC_PRESENTATION_REPRESENTATION (  '', ( #182 ), #71 ) ;
#256 = CARTESIAN_POINT ( 'NONE',  ( 0.000000000000000000, 0.000000000000000000, 0.000000000000000000 ) ) ;
#257 = UNCERTAINTY_MEASURE_WITH_UNIT (LENGTH_MEASURE( 1.000000000000000082E-05 ), #365, 'distance_accuracy_value', 'NONE');
#258 =( NAMED_UNIT ( * ) SI_UNIT ( $, .STERADIAN. ) SOLID_ANGLE_UNIT ( ) );
#259 = DIRECTION ( 'NONE',  ( 0.000000000000000000, 0.000000000000000000, -1.000000000000000000 ) ) ;
#260 = ADVANCED_FACE ( 'NONE', ( #248 ), #356, .F. ) ;
#261 = CARTESIAN_POINT ( 'NONE',  ( 1.469576158976823947E-15, 0.000000000000000000, 11.50000000000000000 ) ) ;
#262 = DIRECTION ( 'NONE',  ( 0.000000000000000000, 0.000000000000000000, -1.000000000000000000 ) ) ;
#263 = SURFACE_SIDE_STYLE ('',( #41 ) ) ;
#264 = ORIENTED_EDGE ( 'NONE', *, *, #36, .T. ) ;
#265 = EDGE_CURVE ( 'NONE', #84, #42, #368, .T. ) ;
#266 = PRESENTATION_STYLE_ASSIGNMENT (( #159 ) ) ;
#267 = CIRCLE ( 'NONE', #11, 11.50000000000000000 ) ;
#268 = FILL_AREA_STYLE ('',( #237 ) ) ;
#269 = FACE_OUTER_BOUND ( 'NONE', #158, .T. ) ;
#270 = PRODUCT_DEFINITION ( 'UNKNOWN', '', #281, #148 ) ;
#271 = CARTESIAN_POINT ( 'NONE',  ( 0.000000000000000000, 0.000000000000000000, -12.50000000000000000 ) ) ;
#272 = AXIS2_PLACEMENT_3D ( 'NONE', #284, #183, #179 ) ;
#273 = PRESENTATION_LAYER_ASSIGNMENT (  '', '', ( #196 ) ) ;
#274 =( NAMED_UNIT ( * ) SI_UNIT ( $, .STERADIAN. ) SOLID_ANGLE_UNIT ( ) );
#275 = CARTESIAN_POINT ( 'NONE',  ( 0.000000000000000000, 1.000000000000000000, -11.50000000000000000 ) ) ;
#276 =( NAMED_UNIT ( * ) PLANE_ANGLE_UNIT ( ) SI_UNIT ( $, .RADIAN. ) );
#277 = FILL_AREA_STYLE_COLOUR ( '', #112 ) ;
#278 = FILL_AREA_STYLE_COLOUR ( '', #135 ) ;
#279 = CARTESIAN_POINT ( 'NONE',  ( -12.50000000000000178, 124.9999999999999858, 0.000000000000000000 ) ) ;
#280 = ORIENTED_EDGE ( 'NONE', *, *, #319, .F. ) ;
#281 = PRODUCT_DEFINITION_FORMATION_WITH_SPECIFIED_SOURCE ( 'ANY', '', #138, .NOT_KNOWN. ) ;
#282 = DIRECTION ( 'NONE',  ( -1.217753221838294133E-16, 1.000000000000000000, -0.000000000000000000 ) ) ;
#283 = ADVANCED_FACE ( 'NONE', ( #21 ), #198, .T. ) ;
#284 = CARTESIAN_POINT ( 'NONE',  ( 6.071532165918824830E-15, 50.00000000000000000, 0.000000000000000000 ) ) ;
#285 = EDGE_LOOP ( 'NONE', ( #129, #250 ) ) ;
#286 = DIRECTION ( 'NONE',  ( 0.000000000000000000, 0.000000000000000000, -1.000000000000000000 ) ) ;
#287 = ORIENTED_EDGE ( 'NONE', *, *, #18, .T. ) ;
#288 = AXIS2_PLACEMENT_3D ( 'NONE', #13, #80, #132 ) ;
#289 = FACE_OUTER_BOUND ( 'NONE', #323, .T. ) ;
#290 = APPLICATION_PROTOCOL_DEFINITION ( 'draft international standard', 'automotive_design', 1998, #322 ) ;
#291 = ORIENTED_EDGE ( 'NONE', *, *, #292, .T. ) ;
#292 = EDGE_CURVE ( 'NONE', #15, #24, #7, .T. ) ;
#293 =( NAMED_UNIT ( * ) SI_UNIT ( $, .STERADIAN. ) SOLID_ANGLE_UNIT ( ) );
#294 =( GEOMETRIC_REPRESENTATION_CONTEXT ( 3 ) GLOBAL_UNCERTAINTY_ASSIGNED_CONTEXT ( ( #3 ) ) GLOBAL_UNIT_ASSIGNED_CONTEXT ( ( #175, #355, #116 ) ) REPRESENTATION_CONTEXT ( 'NONE', 'WORKASPACE' ) );
#295 =( GEOMETRIC_REPRESENTATION_CONTEXT ( 3 ) GLOBAL_UNCERTAINTY_ASSIGNED_CONTEXT ( ( #35 ) ) GLOBAL_UNIT_ASSIGNED_CONTEXT ( ( #299, #199, #16 ) ) REPRESENTATION_CONTEXT ( 'NONE', 'WORKASPACE' ) );
#296 = DIRECTION ( 'NONE',  ( 1.217753221838294133E-16, -1.000000000000000000, 0.000000000000000000 ) ) ;
#297 = EDGE_CURVE ( 'NONE', #42, #95, #244, .T. ) ;
#298 = CARTESIAN_POINT ( 'NONE',  ( 0.000000000000000000, 0.000000000000000000, 0.000000000000000000 ) ) ;
#299 =( LENGTH_UNIT ( ) NAMED_UNIT ( * ) SI_UNIT ( .MILLI., .METRE. ) );
#300 = CIRCLE ( 'NONE', #230, 11.50000000000000000 ) ;
#301 = MECHANICAL_DESIGN_GEOMETRIC_PRESENTATION_REPRESENTATION (  '', ( #196 ), #218 ) ;
#302 = CARTESIAN_POINT ( 'NONE',  ( 0.000000000000000000, 0.000000000000000000, 0.000000000000000000 ) ) ;
#303 = CARTESIAN_POINT ( 'NONE',  ( 6.071532165918824830E-15, 50.00000000000000000, 0.000000000000000000 ) ) ;
#304 = SURFACE_STYLE_USAGE ( .BOTH. , #201 ) ;
#305 = ORIENTED_EDGE ( 'NONE', *, *, #171, .T. ) ;
#306 = SURFACE_STYLE_FILL_AREA ( #28 ) ;
#307 = CIRCLE ( 'NONE', #336, 12.50000000000000000 ) ;
#308 = DIRECTION ( 'NONE',  ( 0.000000000000000000, 0.000000000000000000, 1.000000000000000000 ) ) ;
#309 =( LENGTH_UNIT ( ) NAMED_UNIT ( * ) SI_UNIT ( .MILLI., .METRE. ) );
#310 = SURFACE_SIDE_STYLE ('',( #91 ) ) ;
#311 = FACE_OUTER_BOUND ( 'NONE', #122, .T. ) ;
#312 = DIRECTION ( 'NONE',  ( -1.217753221838294133E-16, 1.000000000000000000, -0.000000000000000000 ) ) ;
#313 = EDGE_CURVE ( 'NONE', #24, #15, #17, .T. ) ;
#314 = MECHANICAL_DESIGN_GEOMETRIC_PRESENTATION_REPRESENTATION (  '', ( #79 ), #294 ) ;
#315 = DIRECTION ( 'NONE',  ( -0.000000000000000000, -1.000000000000000000, -0.000000000000000000 ) ) ;
#316 = PRESENTATION_LAYER_ASSIGNMENT (  '', '', ( #359 ) ) ;
#317 = SURFACE_SIDE_STYLE ('',( #211 ) ) ;
#318 = AXIS2_PLACEMENT_3D ( 'NONE', #105, #103, #212 ) ;
#319 = EDGE_CURVE ( 'NONE', #151, #227, #267, .T. ) ;
#320 = ORIENTED_EDGE ( 'NONE', *, *, #342, .T. ) ;
#321 = ORIENTED_EDGE ( 'NONE', *, *, #110, .T. ) ;
#322 = APPLICATION_CONTEXT ( 'automotive_design' ) ;
#323 = EDGE_LOOP ( 'NONE', ( #165, #10, #332, #74 ) ) ;
#324 = CARTESIAN_POINT ( 'NONE',  ( 0.000000000000000000, 1.000000000000000000, 0.000000000000000000 ) ) ;
#325 = CIRCLE ( 'NONE', #154, 1.000000000000000888 ) ;
#326 =( NAMED_UNIT ( * ) PLANE_ANGLE_UNIT ( ) SI_UNIT ( $, .RADIAN. ) );
#327 = CARTESIAN_POINT ( 'NONE',  ( 12.49999999999999467, 124.9999999999999858, 1.530808498934191324E-15 ) ) ;
#328 = SURFACE_SIDE_STYLE ('',( #115 ) ) ;
#329 = ORIENTED_EDGE ( 'NONE', *, *, #118, .F. ) ;
#330 = PRESENTATION_LAYER_ASSIGNMENT (  '', '', ( #337 ) ) ;
#331 = COLOUR_RGB ( '',1.000000000000000000, 0.000000000000000000, 0.000000000000000000 ) ;
#332 = ORIENTED_EDGE ( 'NONE', *, *, #297, .T. ) ;
#333 = CYLINDRICAL_SURFACE ( 'NONE', #360, 12.50000000000000000 ) ;
#334 = ADVANCED_FACE ( 'NONE', ( #111 ), #38, .T. ) ;
#335 = DIRECTION ( 'NONE',  ( -0.000000000000000000, -1.000000000000000000, -0.000000000000000000 ) ) ;
#336 = AXIS2_PLACEMENT_3D ( 'NONE', #149, #315, #144 ) ;
#337 = STYLED_ITEM ( 'NONE', ( #50 ), #233 ) ;
#338 = CARTESIAN_POINT ( 'NONE',  ( -12.50000000000000711, 124.9999999999999858, 0.000000000000000000 ) ) ;
#339 = STYLED_ITEM ( 'NONE', ( #64 ), #123 ) ;
#340 = DIRECTION ( 'NONE',  ( -1.000000000000000000, 0.000000000000000000, 0.000000000000000000 ) ) ;
#341 = SURFACE_STYLE_USAGE ( .BOTH. , #76 ) ;
#342 = EDGE_CURVE ( 'NONE', #177, #95, #231, .T. ) ;
#343 = CYLINDRICAL_SURFACE ( 'NONE', #194, 12.50000000000000000 ) ;
#344 =( GEOMETRIC_REPRESENTATION_CONTEXT ( 3 ) GLOBAL_UNCERTAINTY_ASSIGNED_CONTEXT ( ( #125 ) ) GLOBAL_UNIT_ASSIGNED_CONTEXT ( ( #167, #326, #274 ) ) REPRESENTATION_CONTEXT ( 'NONE', 'WORKASPACE' ) );
#345 = DIRECTION ( 'NONE',  ( -1.224646799147353454E-16, 0.000000000000000000, -1.000000000000000000 ) ) ;
#346 = PRESENTATION_LAYER_ASSIGNMENT (  '', '', ( #182 ) ) ;
#347 = EDGE_LOOP ( 'NONE', ( #163, #188 ) ) ;
#348 = AXIS2_PLACEMENT_3D ( 'NONE', #324, #169, #25 ) ;
#349 = PLANE ( 'NONE',  #93 ) ;
#350 =( LENGTH_UNIT ( ) NAMED_UNIT ( * ) SI_UNIT ( .MILLI., .METRE. ) );
#351 = SURFACE_STYLE_FILL_AREA ( #53 ) ;
#352 = MECHANICAL_DESIGN_GEOMETRIC_PRESENTATION_REPRESENTATION (  '', ( #339 ), #83 ) ;
#353 = PRESENTATION_LAYER_ASSIGNMENT (  '', '', ( #339 ) ) ;
#354 = SURFACE_STYLE_USAGE ( .BOTH. , #328 ) ;
#355 =( NAMED_UNIT ( * ) PLANE_ANGLE_UNIT ( ) SI_UNIT ( $, .RADIAN. ) );
#356 = PLANE ( 'NONE',  #114 ) ;
#357 = ADVANCED_FACE ( 'NONE', ( #204 ), #366, .T. ) ;
#358 = DIRECTION ( 'NONE',  ( 0.000000000000000000, 0.000000000000000000, -1.000000000000000000 ) ) ;
#359 = STYLED_ITEM ( 'NONE', ( #88 ), #334 ) ;
#360 = AXIS2_PLACEMENT_3D ( 'NONE', #23, #251, #90 ) ;
#361 = ORIENTED_EDGE ( 'NONE', *, *, #162, .T. ) ;
#362 = SURFACE_STYLE_USAGE ( .BOTH. , #150 ) ;
#363 = ADVANCED_FACE ( 'NONE', ( #120 ), #333, .T. ) ;
#364 = FACE_OUTER_BOUND ( 'NONE', #347, .T. ) ;
#365 =( LENGTH_UNIT ( ) NAMED_UNIT ( * ) SI_UNIT ( .MILLI., .METRE. ) );
#366 = CYLINDRICAL_SURFACE ( 'NONE', #136, 12.49999999999999822 ) ;
#367 = PRESENTATION_LAYER_ASSIGNMENT (  '', '', ( #79 ) ) ;
#368 = CIRCLE ( 'NONE', #288, 12.50000000000000000 ) ;
#369 = UNCERTAINTY_MEASURE_WITH_UNIT (LENGTH_MEASURE( 1.000000000000000082E-05 ), #309, 'distance_accuracy_value', 'NONE');
#370 = DIRECTION ( 'NONE',  ( -1.217753221838294133E-16, 1.000000000000000000, -0.000000000000000000 ) ) ;
ENDSEC;
END-ISO-10303-21;
