ISO-10303-21;
HEADER;
FILE_DESCRIPTION (( 'STEP AP214' ),
    '1' );
FILE_NAME ('30752.STEP',
    '2023-06-22T19:11:16',
    ( '' ),
    ( '' ),
    'SwSTEP 2.0',
    'SolidWorks 2023',
    '' );
FILE_SCHEMA (( 'AUTOMOTIVE_DESIGN' ));
ENDSEC;

DATA;
#1 = DIRECTION ( 'NONE',  ( -4.453261087808552747E-17, 1.000000000000000000, 0.000000000000000000 ) ) ;
#2 = EDGE_CURVE ( 'NONE', #230, #51, #121, .T. ) ;
#3 = SURFACE_SIDE_STYLE ('',( #163 ) ) ;
#4 = CARTESIAN_POINT ( 'NONE',  ( 0.000000000000000000, 0.000000000000000000, 0.000000000000000000 ) ) ;
#5 = FILL_AREA_STYLE_COLOUR ( '', #117 ) ;
#6 = CARTESIAN_POINT ( 'NONE',  ( 0.000000000000000000, 0.000000000000000000, 0.000000000000000000 ) ) ;
#7 = DIRECTION ( 'NONE',  ( -4.453261087808552747E-17, 1.000000000000000000, -0.000000000000000000 ) ) ;
#8 = ADVANCED_FACE ( 'NONE', ( #210 ), #206, .F. ) ;
#9 = ORIENTED_EDGE ( 'NONE', *, *, #193, .T. ) ;
#10 = SURFACE_STYLE_USAGE ( .BOTH. , #93 ) ;
#11 = UNCERTAINTY_MEASURE_WITH_UNIT (LENGTH_MEASURE( 1.000000000000000082E-05 ), #44, 'distance_accuracy_value', 'NONE');
#12 = COLOUR_RGB ( '',1.000000000000000000, 0.000000000000000000, 0.000000000000000000 ) ;
#13 = VECTOR ( 'NONE', #109, 39.37007874015748143 ) ;
#14 = LINE ( 'NONE', #167, #13 ) ;
#15 = FILL_AREA_STYLE ('',( #221 ) ) ;
#16 = PRODUCT_DEFINITION_SHAPE ( 'NONE', 'NONE',  #251 ) ;
#17 = CYLINDRICAL_SURFACE ( 'NONE', #68, 0.5000000000000000000 ) ;
#18 = CARTESIAN_POINT ( 'NONE',  ( -1.224646799147351975E-16, 7.000000000000000000, 0.000000000000000000 ) ) ;
#19 = EDGE_LOOP ( 'NONE', ( #66, #114, #61, #156 ) ) ;
#20 = DIRECTION ( 'NONE',  ( -1.000000000000000000, 0.000000000000000000, 0.000000000000000000 ) ) ;
#21 = FILL_AREA_STYLE ('',( #186 ) ) ;
#22 = ORIENTED_EDGE ( 'NONE', *, *, #297, .T. ) ;
#23 = FILL_AREA_STYLE ('',( #203 ) ) ;
#24 = AXIS2_PLACEMENT_3D ( 'NONE', #263, #171, #197 ) ;
#25 = EDGE_CURVE ( 'NONE', #51, #166, #182, .T. ) ;
#26 =( LENGTH_UNIT ( ) NAMED_UNIT ( * ) SI_UNIT ( $, .METRE. ) );
#27 =( LENGTH_UNIT ( ) NAMED_UNIT ( * ) SI_UNIT ( $, .METRE. ) );
#28 = CLOSED_SHELL ( 'NONE', ( #146, #92, #302, #54 ) ) ;
#29 = AXIS2_PLACEMENT_3D ( 'NONE', #288, #67, #34 ) ;
#30 =( CONVERSION_BASED_UNIT ( 'INCH', #32 ) LENGTH_UNIT ( ) NAMED_UNIT ( #139 ) );
#31 = MANIFOLD_SOLID_BREP ( 'Revolve - Cutting Edge', #28 ) ;
#32 = LENGTH_MEASURE_WITH_UNIT ( LENGTH_MEASURE( 0.02539999999999999897 ), #305 );
#33 = VERTEX_POINT ( 'NONE', #53 ) ;
#34 = DIRECTION ( 'NONE',  ( 0.000000000000000000, 0.000000000000000000, -1.000000000000000000 ) ) ;
#35 = CARTESIAN_POINT ( 'NONE',  ( 0.000000000000000000, 4.250000000000000000, 0.000000000000000000 ) ) ;
#36 = DIRECTION ( 'NONE',  ( 0.000000000000000000, 0.000000000000000000, -1.000000000000000000 ) ) ;
#37 =( GEOMETRIC_REPRESENTATION_CONTEXT ( 3 ) GLOBAL_UNCERTAINTY_ASSIGNED_CONTEXT ( ( #113 ) ) GLOBAL_UNIT_ASSIGNED_CONTEXT ( ( #278, #40, #74 ) ) REPRESENTATION_CONTEXT ( 'NONE', 'WORKASPACE' ) );
#38 =( NAMED_UNIT ( * ) SI_UNIT ( $, .STERADIAN. ) SOLID_ANGLE_UNIT ( ) );
#39 = DIMENSIONAL_EXPONENTS ( 1.000000000000000000, 0.000000000000000000, 0.000000000000000000, 0.000000000000000000, 0.000000000000000000, 0.000000000000000000, 0.000000000000000000 ) ;
#40 =( NAMED_UNIT ( * ) PLANE_ANGLE_UNIT ( ) SI_UNIT ( $, .RADIAN. ) );
#41 = VECTOR ( 'NONE', #266, 39.37007874015748143 ) ;
#42 = CARTESIAN_POINT ( 'NONE',  ( 0.5000000000000000000, 7.000000000000000000, 0.000000000000000000 ) ) ;
#43 = APPLICATION_PROTOCOL_DEFINITION ( 'draft international standard', 'automotive_design', 1998, #212 ) ;
#44 =( CONVERSION_BASED_UNIT ( 'INCH', #96 ) LENGTH_UNIT ( ) NAMED_UNIT ( #308 ) );
#45 = FACE_OUTER_BOUND ( 'NONE', #298, .T. ) ;
#46 = STYLED_ITEM ( 'NONE', ( #80 ), #31 ) ;
#47 = APPLICATION_CONTEXT ( 'automotive_design' ) ;
#48 = ORIENTED_EDGE ( 'NONE', *, *, #184, .T. ) ;
#49 = EDGE_CURVE ( 'NONE', #33, #174, #94, .T. ) ;
#50 = SURFACE_STYLE_USAGE ( .BOTH. , #180 ) ;
#51 = VERTEX_POINT ( 'NONE', #86 ) ;
#52 = COLOUR_RGB ( '',1.000000000000000000, 0.000000000000000000, 0.000000000000000000 ) ;
#53 = CARTESIAN_POINT ( 'NONE',  ( 0.5000000000000000000, 4.250000000000000000, 6.123233995736767268E-17 ) ) ;
#54 = ADVANCED_FACE ( 'NONE', ( #164 ), #211, .T. ) ;
#55 =( NAMED_UNIT ( * ) SI_UNIT ( $, .STERADIAN. ) SOLID_ANGLE_UNIT ( ) );
#56 = LENGTH_MEASURE_WITH_UNIT ( LENGTH_MEASURE( 0.02539999999999999897 ), #255 );
#57 =( LENGTH_UNIT ( ) NAMED_UNIT ( * ) SI_UNIT ( $, .METRE. ) );
#58 = ORIENTED_EDGE ( 'NONE', *, *, #49, .F. ) ;
#59 = CIRCLE ( 'NONE', #125, 0.5000000000000000000 ) ;
#60 = COLOUR_RGB ( '',0.7921568627450980005, 0.8196078431372548767, 0.9333333333333333481 ) ;
#61 = ORIENTED_EDGE ( 'NONE', *, *, #76, .T. ) ;
#62 = FACE_OUTER_BOUND ( 'NONE', #19, .T. ) ;
#63 = CARTESIAN_POINT ( 'NONE',  ( -1.224646799147351975E-16, 7.000000000000000000, 0.000000000000000000 ) ) ;
#64 =( NAMED_UNIT ( * ) PLANE_ANGLE_UNIT ( ) SI_UNIT ( $, .RADIAN. ) );
#65 =( NAMED_UNIT ( * ) PLANE_ANGLE_UNIT ( ) SI_UNIT ( $, .RADIAN. ) );
#66 = ORIENTED_EDGE ( 'NONE', *, *, #297, .F. ) ;
#67 = DIRECTION ( 'NONE',  ( -0.000000000000000000, -1.000000000000000000, -0.000000000000000000 ) ) ;
#68 = AXIS2_PLACEMENT_3D ( 'NONE', #122, #98, #191 ) ;
#69 = EDGE_CURVE ( 'NONE', #51, #230, #295, .T. ) ;
#70 = SURFACE_STYLE_USAGE ( .BOTH. , #202 ) ;
#71 = PRESENTATION_STYLE_ASSIGNMENT (( #137 ) ) ;
#72 = AXIS2_PLACEMENT_3D ( 'NONE', #4, #188, #287 ) ;
#73 = AXIS2_PLACEMENT_3D ( 'NONE', #131, #179, #200 ) ;
#74 =( NAMED_UNIT ( * ) SI_UNIT ( $, .STERADIAN. ) SOLID_ANGLE_UNIT ( ) );
#75 = PRODUCT ( '30752', '30752', '', ( #140 ) ) ;
#76 = EDGE_CURVE ( 'NONE', #174, #249, #273, .T. ) ;
#77 = UNCERTAINTY_MEASURE_WITH_UNIT (LENGTH_MEASURE( 1.000000000000000082E-05 ), #286, 'distance_accuracy_value', 'NONE');
#78 = SURFACE_STYLE_FILL_AREA ( #194 ) ;
#79 = MECHANICAL_DESIGN_GEOMETRIC_PRESENTATION_REPRESENTATION (  '', ( #46 ), #208 ) ;
#80 = PRESENTATION_STYLE_ASSIGNMENT (( #236 ) ) ;
#81 = ADVANCED_FACE ( 'NONE', ( #45 ), #227, .T. ) ;
#82 = FACE_OUTER_BOUND ( 'NONE', #234, .T. ) ;
#83 = SURFACE_SIDE_STYLE ('',( #78 ) ) ;
#84 = DIRECTION ( 'NONE',  ( -1.000000000000000000, 0.000000000000000000, 0.000000000000000000 ) ) ;
#85 = COLOUR_RGB ( '',1.000000000000000000, 0.000000000000000000, 0.000000000000000000 ) ;
#86 = CARTESIAN_POINT ( 'NONE',  ( 0.000000000000000000, 4.250000000000000000, -0.5000000000000000000 ) ) ;
#87 = PRESENTATION_STYLE_ASSIGNMENT (( #259 ) ) ;
#88 = CARTESIAN_POINT ( 'NONE',  ( 6.123233995736766036E-17, 0.000000000000000000, 0.5000000000000000000 ) ) ;
#89 = ORIENTED_EDGE ( 'NONE', *, *, #257, .T. ) ;
#90 = LINE ( 'NONE', #294, #41 ) ;
#91 = DIRECTION ( 'NONE',  ( -4.453261087808552747E-17, 1.000000000000000000, -0.000000000000000000 ) ) ;
#92 = ADVANCED_FACE ( 'NONE', ( #306 ), #225, .T. ) ;
#93 = SURFACE_SIDE_STYLE ('',( #269 ) ) ;
#94 = CIRCLE ( 'NONE', #256, 0.5000000000000000000 ) ;
#95 = SHAPE_DEFINITION_REPRESENTATION ( #16, #246 ) ;
#96 = LENGTH_MEASURE_WITH_UNIT ( LENGTH_MEASURE( 0.02539999999999999897 ), #133 );
#97 = AXIS2_PLACEMENT_3D ( 'NONE', #18, #99, #20 ) ;
#98 = DIRECTION ( 'NONE',  ( -0.000000000000000000, -1.000000000000000000, -0.000000000000000000 ) ) ;
#99 = DIRECTION ( 'NONE',  ( -4.453261087808552747E-17, 1.000000000000000000, -0.000000000000000000 ) ) ;
#100 = PRESENTATION_LAYER_ASSIGNMENT (  '', '', ( #173 ) ) ;
#101 = SURFACE_STYLE_FILL_AREA ( #265 ) ;
#102 =( NAMED_UNIT ( * ) PLANE_ANGLE_UNIT ( ) SI_UNIT ( $, .RADIAN. ) );
#103 = ORIENTED_EDGE ( 'NONE', *, *, #25, .T. ) ;
#104 =( GEOMETRIC_REPRESENTATION_CONTEXT ( 3 ) GLOBAL_UNCERTAINTY_ASSIGNED_CONTEXT ( ( #77 ) ) GLOBAL_UNIT_ASSIGNED_CONTEXT ( ( #286, #158, #160 ) ) REPRESENTATION_CONTEXT ( 'NONE', 'WORKASPACE' ) );
#105 =( GEOMETRIC_REPRESENTATION_CONTEXT ( 3 ) GLOBAL_UNCERTAINTY_ASSIGNED_CONTEXT ( ( #153 ) ) GLOBAL_UNIT_ASSIGNED_CONTEXT ( ( #292, #213, #55 ) ) REPRESENTATION_CONTEXT ( 'NONE', 'WORKASPACE' ) );
#106 = FILL_AREA_STYLE_COLOUR ( '', #85 ) ;
#107 = APPLICATION_PROTOCOL_DEFINITION ( 'draft international standard', 'automotive_design', 1998, #47 ) ;
#108 = ORIENTED_EDGE ( 'NONE', *, *, #2, .F. ) ;
#109 = DIRECTION ( 'NONE',  ( -4.453261087808552747E-17, 1.000000000000000000, -0.000000000000000000 ) ) ;
#110 = VECTOR ( 'NONE', #217, 39.37007874015748143 ) ;
#111 = DIRECTION ( 'NONE',  ( 1.000000000000000000, 4.453261087808552747E-17, 0.000000000000000000 ) ) ;
#112 = LENGTH_MEASURE_WITH_UNIT ( LENGTH_MEASURE( 0.02539999999999999897 ), #26 );
#113 = UNCERTAINTY_MEASURE_WITH_UNIT (LENGTH_MEASURE( 1.000000000000000082E-05 ), #278, 'distance_accuracy_value', 'NONE');
#114 = ORIENTED_EDGE ( 'NONE', *, *, #49, .T. ) ;
#115 = FILL_AREA_STYLE_COLOUR ( '', #12 ) ;
#116 = COLOUR_RGB ( '',0.7921568627450980005, 0.8196078431372548767, 0.9333333333333333481 ) ;
#117 = COLOUR_RGB ( '',1.000000000000000000, 0.000000000000000000, 0.000000000000000000 ) ;
#118 = EDGE_LOOP ( 'NONE', ( #199, #89 ) ) ;
#119 = SURFACE_STYLE_FILL_AREA ( #15 ) ;
#120 =( LENGTH_UNIT ( ) NAMED_UNIT ( * ) SI_UNIT ( $, .METRE. ) );
#121 = CIRCLE ( 'NONE', #24, 0.5000000000000000000 ) ;
#122 = CARTESIAN_POINT ( 'NONE',  ( 0.000000000000000000, 0.000000000000000000, 0.000000000000000000 ) ) ;
#123 = PRESENTATION_LAYER_ASSIGNMENT (  '', '', ( #46 ) ) ;
#124 = DIMENSIONAL_EXPONENTS ( 1.000000000000000000, 0.000000000000000000, 0.000000000000000000, 0.000000000000000000, 0.000000000000000000, 0.000000000000000000, 0.000000000000000000 ) ;
#125 = AXIS2_PLACEMENT_3D ( 'NONE', #6, #152, #36 ) ;
#126 = EDGE_LOOP ( 'NONE', ( #307, #196, #103, #277 ) ) ;
#127 = SURFACE_SIDE_STYLE ('',( #101 ) ) ;
#128 = CARTESIAN_POINT ( 'NONE',  ( 0.000000000000000000, 0.000000000000000000, -0.5000000000000000000 ) ) ;
#129 = DIRECTION ( 'NONE',  ( -0.000000000000000000, -1.000000000000000000, -0.000000000000000000 ) ) ;
#130 = FACE_OUTER_BOUND ( 'NONE', #126, .T. ) ;
#131 = CARTESIAN_POINT ( 'NONE',  ( -1.224646799147351975E-16, 7.000000000000000000, 0.000000000000000000 ) ) ;
#132 = ORIENTED_EDGE ( 'NONE', *, *, #69, .T. ) ;
#133 =( LENGTH_UNIT ( ) NAMED_UNIT ( * ) SI_UNIT ( $, .METRE. ) );
#134 = MANIFOLD_SOLID_BREP ( 'Revolve - Tool Body (Straight Shanked)', #244 ) ;
#135 = DIMENSIONAL_EXPONENTS ( 1.000000000000000000, 0.000000000000000000, 0.000000000000000000, 0.000000000000000000, 0.000000000000000000, 0.000000000000000000, 0.000000000000000000 ) ;
#136 = CIRCLE ( 'NONE', #165, 0.5000000000000001110 ) ;
#137 = SURFACE_STYLE_USAGE ( .BOTH. , #83 ) ;
#138 =( NAMED_UNIT ( * ) PLANE_ANGLE_UNIT ( ) SI_UNIT ( $, .RADIAN. ) );
#139 = DIMENSIONAL_EXPONENTS ( 1.000000000000000000, 0.000000000000000000, 0.000000000000000000, 0.000000000000000000, 0.000000000000000000, 0.000000000000000000, 0.000000000000000000 ) ;
#140 = PRODUCT_CONTEXT ( 'NONE', #47, 'mechanical' ) ;
#141 = UNCERTAINTY_MEASURE_WITH_UNIT (LENGTH_MEASURE( 1.000000000000000082E-05 ), #248, 'distance_accuracy_value', 'NONE');
#142 = AXIS2_PLACEMENT_3D ( 'NONE', #258, #1, #285 ) ;
#143 = ORIENTED_EDGE ( 'NONE', *, *, #69, .F. ) ;
#144 = PRESENTATION_STYLE_ASSIGNMENT (( #50 ) ) ;
#145 = MECHANICAL_DESIGN_GEOMETRIC_PRESENTATION_REPRESENTATION (  '', ( #173 ), #104 ) ;
#146 = ADVANCED_FACE ( 'NONE', ( #270 ), #215, .T. ) ;
#147 = DIRECTION ( 'NONE',  ( -0.000000000000000000, -1.000000000000000000, -0.000000000000000000 ) ) ;
#148 = CARTESIAN_POINT ( 'NONE',  ( 0.000000000000000000, 0.000000000000000000, 0.000000000000000000 ) ) ;
#149 = PRESENTATION_LAYER_ASSIGNMENT (  '', '', ( #220 ) ) ;
#150 =( GEOMETRIC_REPRESENTATION_CONTEXT ( 3 ) GLOBAL_UNCERTAINTY_ASSIGNED_CONTEXT ( ( #11 ) ) GLOBAL_UNIT_ASSIGNED_CONTEXT ( ( #44, #138, #226 ) ) REPRESENTATION_CONTEXT ( 'NONE', 'WORKASPACE' ) );
#151 = EDGE_LOOP ( 'NONE', ( #132, #198, #304, #262 ) ) ;
#152 = DIRECTION ( 'NONE',  ( -0.000000000000000000, -1.000000000000000000, -0.000000000000000000 ) ) ;
#153 = UNCERTAINTY_MEASURE_WITH_UNIT (LENGTH_MEASURE( 1.000000000000000082E-05 ), #292, 'distance_accuracy_value', 'NONE');
#154 = CIRCLE ( 'NONE', #73, 0.5000000000000001110 ) ;
#155 = CARTESIAN_POINT ( 'NONE',  ( 0.000000000000000000, 4.250000000000000000, 0.000000000000000000 ) ) ;
#156 = ORIENTED_EDGE ( 'NONE', *, *, #193, .F. ) ;
#157 = PRESENTATION_STYLE_ASSIGNMENT (( #70 ) ) ;
#158 =( NAMED_UNIT ( * ) PLANE_ANGLE_UNIT ( ) SI_UNIT ( $, .RADIAN. ) );
#159 = DIRECTION ( 'NONE',  ( 0.000000000000000000, -0.000000000000000000, 1.000000000000000000 ) ) ;
#160 =( NAMED_UNIT ( * ) SI_UNIT ( $, .STERADIAN. ) SOLID_ANGLE_UNIT ( ) );
#161 = MECHANICAL_DESIGN_GEOMETRIC_PRESENTATION_REPRESENTATION (  '', ( #301 ), #37 ) ;
#162 =( GEOMETRIC_REPRESENTATION_CONTEXT ( 3 ) GLOBAL_UNCERTAINTY_ASSIGNED_CONTEXT ( ( #268 ) ) GLOBAL_UNIT_ASSIGNED_CONTEXT ( ( #30, #65, #261 ) ) REPRESENTATION_CONTEXT ( 'NONE', 'WORKASPACE' ) );
#163 = SURFACE_STYLE_FILL_AREA ( #21 ) ;
#164 = FACE_OUTER_BOUND ( 'NONE', #118, .T. ) ;
#165 = AXIS2_PLACEMENT_3D ( 'NONE', #63, #242, #189 ) ;
#166 = VERTEX_POINT ( 'NONE', #128 ) ;
#167 = CARTESIAN_POINT ( 'NONE',  ( 0.4999999999999999445, 7.000000000000000000, 6.123233995736767268E-17 ) ) ;
#168 = DIRECTION ( 'NONE',  ( -1.000000000000000000, 0.000000000000000000, 0.000000000000000000 ) ) ;
#169 = CARTESIAN_POINT ( 'NONE',  ( 6.123233995736766036E-17, 4.250000000000000000, 0.5000000000000000000 ) ) ;
#170 = CARTESIAN_POINT ( 'NONE',  ( -1.224646799147351975E-16, 7.000000000000000000, 0.000000000000000000 ) ) ;
#171 = DIRECTION ( 'NONE',  ( -0.000000000000000000, -1.000000000000000000, -0.000000000000000000 ) ) ;
#172 = PRESENTATION_STYLE_ASSIGNMENT (( #10 ) ) ;
#173 = STYLED_ITEM ( 'NONE', ( #71 ), #146 ) ;
#174 = VERTEX_POINT ( 'NONE', #289 ) ;
#175 = AXIS2_PLACEMENT_3D ( 'NONE', #239, #147, #238 ) ;
#176 = UNCERTAINTY_MEASURE_WITH_UNIT (LENGTH_MEASURE( 1.000000000000000082E-05 ), #204, 'distance_accuracy_value', 'NONE');
#177 = VERTEX_POINT ( 'NONE', #88 ) ;
#178 = ORIENTED_EDGE ( 'NONE', *, *, #275, .T. ) ;
#179 = DIRECTION ( 'NONE',  ( -4.453261087808552747E-17, 1.000000000000000000, -0.000000000000000000 ) ) ;
#180 = SURFACE_SIDE_STYLE ('',( #303 ) ) ;
#181 = DIMENSIONAL_EXPONENTS ( 1.000000000000000000, 0.000000000000000000, 0.000000000000000000, 0.000000000000000000, 0.000000000000000000, 0.000000000000000000, 0.000000000000000000 ) ;
#182 = LINE ( 'NONE', #254, #290 ) ;
#183 = VERTEX_POINT ( 'NONE', #264 ) ;
#184 = EDGE_CURVE ( 'NONE', #174, #33, #271, .T. ) ;
#185 =( GEOMETRIC_REPRESENTATION_CONTEXT ( 3 ) GLOBAL_UNCERTAINTY_ASSIGNED_CONTEXT ( ( #141 ) ) GLOBAL_UNIT_ASSIGNED_CONTEXT ( ( #248, #64, #38 ) ) REPRESENTATION_CONTEXT ( 'NONE', 'WORKASPACE' ) );
#186 = FILL_AREA_STYLE_COLOUR ( '', #60 ) ;
#187 = LENGTH_MEASURE_WITH_UNIT ( LENGTH_MEASURE( 0.02539999999999999897 ), #27 );
#188 = DIRECTION ( 'NONE',  ( 0.000000000000000000, -1.000000000000000000, -0.000000000000000000 ) ) ;
#189 = DIRECTION ( 'NONE',  ( -1.000000000000000000, 0.000000000000000000, 0.000000000000000000 ) ) ;
#190 = FILL_AREA_STYLE ('',( #5 ) ) ;
#191 = DIRECTION ( 'NONE',  ( 0.000000000000000000, 0.000000000000000000, -1.000000000000000000 ) ) ;
#192 = ORIENTED_EDGE ( 'NONE', *, *, #275, .F. ) ;
#193 = EDGE_CURVE ( 'NONE', #183, #249, #136, .T. ) ;
#194 = FILL_AREA_STYLE ('',( #115 ) ) ;
#195 = PRODUCT_DEFINITION_CONTEXT ( 'detailed design', #212, 'design' ) ;
#196 = ORIENTED_EDGE ( 'NONE', *, *, #2, .T. ) ;
#197 = DIRECTION ( 'NONE',  ( 0.000000000000000000, 0.000000000000000000, -1.000000000000000000 ) ) ;
#198 = ORIENTED_EDGE ( 'NONE', *, *, #218, .T. ) ;
#199 = ORIENTED_EDGE ( 'NONE', *, *, #245, .T. ) ;
#200 = DIRECTION ( 'NONE',  ( -1.000000000000000000, 0.000000000000000000, 0.000000000000000000 ) ) ;
#201 = MECHANICAL_DESIGN_GEOMETRIC_PRESENTATION_REPRESENTATION (  '', ( #220 ), #185 ) ;
#202 = SURFACE_SIDE_STYLE ('',( #119 ) ) ;
#203 = FILL_AREA_STYLE_COLOUR ( '', #52 ) ;
#204 =( CONVERSION_BASED_UNIT ( 'INCH', #56 ) LENGTH_UNIT ( ) NAMED_UNIT ( #124 ) );
#205 = STYLED_ITEM ( 'NONE', ( #87 ), #54 ) ;
#206 = PLANE ( 'NONE',  #142 ) ;
#207 = DIRECTION ( 'NONE',  ( -4.453261087808552747E-17, 1.000000000000000000, -0.000000000000000000 ) ) ;
#208 =( GEOMETRIC_REPRESENTATION_CONTEXT ( 3 ) GLOBAL_UNCERTAINTY_ASSIGNED_CONTEXT ( ( #176 ) ) GLOBAL_UNIT_ASSIGNED_CONTEXT ( ( #204, #102, #279 ) ) REPRESENTATION_CONTEXT ( 'NONE', 'WORKASPACE' ) );
#209 = MECHANICAL_DESIGN_GEOMETRIC_PRESENTATION_REPRESENTATION (  '', ( #233 ), #150 ) ;
#210 = FACE_OUTER_BOUND ( 'NONE', #274, .T. ) ;
#211 = PLANE ( 'NONE',  #72 ) ;
#212 = APPLICATION_CONTEXT ( 'automotive_design' ) ;
#213 =( NAMED_UNIT ( * ) PLANE_ANGLE_UNIT ( ) SI_UNIT ( $, .RADIAN. ) );
#214 = CARTESIAN_POINT ( 'NONE',  ( -0.5000000000000002220, 7.000000000000000000, 0.000000000000000000 ) ) ;
#215 = CYLINDRICAL_SURFACE ( 'NONE', #175, 0.5000000000000000000 ) ;
#216 = AXIS2_PLACEMENT_3D ( 'NONE', #240, #129, #300 ) ;
#217 = DIRECTION ( 'NONE',  ( -4.453261087808552747E-17, 1.000000000000000000, -0.000000000000000000 ) ) ;
#218 = EDGE_CURVE ( 'NONE', #230, #177, #90, .T. ) ;
#219 = PRESENTATION_LAYER_ASSIGNMENT (  '', '', ( #233 ) ) ;
#220 = STYLED_ITEM ( 'NONE', ( #157 ), #134 ) ;
#221 = FILL_AREA_STYLE_COLOUR ( '', #116 ) ;
#222 = DIRECTION ( 'NONE',  ( 1.000000000000000000, 0.000000000000000000, 0.000000000000000000 ) ) ;
#223 = ADVANCED_FACE ( 'NONE', ( #62 ), #241, .T. ) ;
#224 = PLANE ( 'NONE',  #229 ) ;
#225 = PLANE ( 'NONE',  #252 ) ;
#226 =( NAMED_UNIT ( * ) SI_UNIT ( $, .STERADIAN. ) SOLID_ANGLE_UNIT ( ) );
#227 = CYLINDRICAL_SURFACE ( 'NONE', #97, 0.5000000000000001110 ) ;
#228 = DIRECTION ( 'NONE',  ( 4.453261087808552747E-17, -1.000000000000000000, 0.000000000000000000 ) ) ;
#229 = AXIS2_PLACEMENT_3D ( 'NONE', #42, #228, #111 ) ;
#230 = VERTEX_POINT ( 'NONE', #169 ) ;
#231 = DIRECTION ( 'NONE',  ( -0.000000000000000000, -1.000000000000000000, -0.000000000000000000 ) ) ;
#232 = PRESENTATION_LAYER_ASSIGNMENT (  '', '', ( #301 ) ) ;
#233 = STYLED_ITEM ( 'NONE', ( #172 ), #302 ) ;
#234 = EDGE_LOOP ( 'NONE', ( #178, #9 ) ) ;
#235 = EDGE_LOOP ( 'NONE', ( #143, #108 ) ) ;
#236 = SURFACE_STYLE_USAGE ( .BOTH. , #3 ) ;
#237 = LENGTH_MEASURE_WITH_UNIT ( LENGTH_MEASURE( 0.02539999999999999897 ), #57 );
#238 = DIRECTION ( 'NONE',  ( 0.000000000000000000, 0.000000000000000000, -1.000000000000000000 ) ) ;
#239 = CARTESIAN_POINT ( 'NONE',  ( 0.000000000000000000, 0.000000000000000000, 0.000000000000000000 ) ) ;
#240 = CARTESIAN_POINT ( 'NONE',  ( 0.000000000000000000, 4.250000000000000000, 0.000000000000000000 ) ) ;
#241 = CYLINDRICAL_SURFACE ( 'NONE', #253, 0.5000000000000001110 ) ;
#242 = DIRECTION ( 'NONE',  ( -4.453261087808552747E-17, 1.000000000000000000, -0.000000000000000000 ) ) ;
#243 = ORIENTED_EDGE ( 'NONE', *, *, #76, .F. ) ;
#244 = CLOSED_SHELL ( 'NONE', ( #81, #8, #223, #276 ) ) ;
#245 = EDGE_CURVE ( 'NONE', #166, #177, #309, .T. ) ;
#246 = ADVANCED_BREP_SHAPE_REPRESENTATION ( '30752', ( #31, #134, #291 ), #105 ) ;
#247 = DIRECTION ( 'NONE',  ( 0.000000000000000000, 1.000000000000000000, 0.000000000000000000 ) ) ;
#248 =( CONVERSION_BASED_UNIT ( 'INCH', #112 ) LENGTH_UNIT ( ) NAMED_UNIT ( #299 ) );
#249 = VERTEX_POINT ( 'NONE', #214 ) ;
#250 = PRODUCT_RELATED_PRODUCT_CATEGORY ( 'part', '', ( #75 ) ) ;
#251 = PRODUCT_DEFINITION ( 'UNKNOWN', '', #281, #195 ) ;
#252 = AXIS2_PLACEMENT_3D ( 'NONE', #155, #247, #159 ) ;
#253 = AXIS2_PLACEMENT_3D ( 'NONE', #170, #91, #272 ) ;
#254 = CARTESIAN_POINT ( 'NONE',  ( 0.000000000000000000, 0.000000000000000000, -0.5000000000000000000 ) ) ;
#255 =( LENGTH_UNIT ( ) NAMED_UNIT ( * ) SI_UNIT ( $, .METRE. ) );
#256 = AXIS2_PLACEMENT_3D ( 'NONE', #283, #207, #84 ) ;
#257 = EDGE_CURVE ( 'NONE', #177, #166, #59, .T. ) ;
#258 = CARTESIAN_POINT ( 'NONE',  ( 4.957883579047453271E-34, 4.250000000000000000, 0.000000000000000000 ) ) ;
#259 = SURFACE_STYLE_USAGE ( .BOTH. , #127 ) ;
#260 = AXIS2_PLACEMENT_3D ( 'NONE', #35, #7, #168 ) ;
#261 =( NAMED_UNIT ( * ) SI_UNIT ( $, .STERADIAN. ) SOLID_ANGLE_UNIT ( ) );
#262 = ORIENTED_EDGE ( 'NONE', *, *, #25, .F. ) ;
#263 = CARTESIAN_POINT ( 'NONE',  ( 0.000000000000000000, 4.250000000000000000, 0.000000000000000000 ) ) ;
#264 = CARTESIAN_POINT ( 'NONE',  ( 0.5000000000000000000, 7.000000000000000000, 6.123233995736767268E-17 ) ) ;
#265 = FILL_AREA_STYLE ('',( #106 ) ) ;
#266 = DIRECTION ( 'NONE',  ( -0.000000000000000000, -1.000000000000000000, -0.000000000000000000 ) ) ;
#267 = CARTESIAN_POINT ( 'NONE',  ( -0.5000000000000002220, 7.000000000000000000, 0.000000000000000000 ) ) ;
#268 = UNCERTAINTY_MEASURE_WITH_UNIT (LENGTH_MEASURE( 1.000000000000000082E-05 ), #30, 'distance_accuracy_value', 'NONE');
#269 = SURFACE_STYLE_FILL_AREA ( #190 ) ;
#270 = FACE_OUTER_BOUND ( 'NONE', #151, .T. ) ;
#271 = CIRCLE ( 'NONE', #260, 0.5000000000000000000 ) ;
#272 = DIRECTION ( 'NONE',  ( -1.000000000000000000, 0.000000000000000000, 0.000000000000000000 ) ) ;
#273 = LINE ( 'NONE', #267, #110 ) ;
#274 = EDGE_LOOP ( 'NONE', ( #293, #58 ) ) ;
#275 = EDGE_CURVE ( 'NONE', #249, #183, #154, .T. ) ;
#276 = ADVANCED_FACE ( 'NONE', ( #82 ), #224, .F. ) ;
#277 = ORIENTED_EDGE ( 'NONE', *, *, #257, .F. ) ;
#278 =( CONVERSION_BASED_UNIT ( 'INCH', #296 ) LENGTH_UNIT ( ) NAMED_UNIT ( #39 ) );
#279 =( NAMED_UNIT ( * ) SI_UNIT ( $, .STERADIAN. ) SOLID_ANGLE_UNIT ( ) );
#280 = PRESENTATION_LAYER_ASSIGNMENT (  '', '', ( #205 ) ) ;
#281 = PRODUCT_DEFINITION_FORMATION_WITH_SPECIFIED_SOURCE ( 'ANY', '', #75, .NOT_KNOWN. ) ;
#282 = DIRECTION ( 'NONE',  ( 0.000000000000000000, 0.000000000000000000, 1.000000000000000000 ) ) ;
#283 = CARTESIAN_POINT ( 'NONE',  ( 0.000000000000000000, 4.250000000000000000, 0.000000000000000000 ) ) ;
#284 = MECHANICAL_DESIGN_GEOMETRIC_PRESENTATION_REPRESENTATION (  '', ( #205 ), #162 ) ;
#285 = DIRECTION ( 'NONE',  ( -1.000000000000000000, -4.453261087808552747E-17, 0.000000000000000000 ) ) ;
#286 =( CONVERSION_BASED_UNIT ( 'INCH', #187 ) LENGTH_UNIT ( ) NAMED_UNIT ( #181 ) );
#287 = DIRECTION ( 'NONE',  ( 0.000000000000000000, 0.000000000000000000, -1.000000000000000000 ) ) ;
#288 = CARTESIAN_POINT ( 'NONE',  ( 0.000000000000000000, 0.000000000000000000, 0.000000000000000000 ) ) ;
#289 = CARTESIAN_POINT ( 'NONE',  ( -0.5000000000000000000, 4.250000000000000000, 0.000000000000000000 ) ) ;
#290 = VECTOR ( 'NONE', #231, 39.37007874015748143 ) ;
#291 = AXIS2_PLACEMENT_3D ( 'NONE', #148, #282, #222 ) ;
#292 =( CONVERSION_BASED_UNIT ( 'INCH', #237 ) LENGTH_UNIT ( ) NAMED_UNIT ( #135 ) );
#293 = ORIENTED_EDGE ( 'NONE', *, *, #184, .F. ) ;
#294 = CARTESIAN_POINT ( 'NONE',  ( 6.123233995736766036E-17, 0.000000000000000000, 0.5000000000000000000 ) ) ;
#295 = CIRCLE ( 'NONE', #216, 0.5000000000000000000 ) ;
#296 = LENGTH_MEASURE_WITH_UNIT ( LENGTH_MEASURE( 0.02539999999999999897 ), #120 );
#297 = EDGE_CURVE ( 'NONE', #33, #183, #14, .T. ) ;
#298 = EDGE_LOOP ( 'NONE', ( #48, #22, #192, #243 ) ) ;
#299 = DIMENSIONAL_EXPONENTS ( 1.000000000000000000, 0.000000000000000000, 0.000000000000000000, 0.000000000000000000, 0.000000000000000000, 0.000000000000000000, 0.000000000000000000 ) ;
#300 = DIRECTION ( 'NONE',  ( 0.000000000000000000, 0.000000000000000000, -1.000000000000000000 ) ) ;
#301 = STYLED_ITEM ( 'NONE', ( #144 ), #92 ) ;
#302 = ADVANCED_FACE ( 'NONE', ( #130 ), #17, .T. ) ;
#303 = SURFACE_STYLE_FILL_AREA ( #23 ) ;
#304 = ORIENTED_EDGE ( 'NONE', *, *, #245, .F. ) ;
#305 =( LENGTH_UNIT ( ) NAMED_UNIT ( * ) SI_UNIT ( $, .METRE. ) );
#306 = FACE_OUTER_BOUND ( 'NONE', #235, .T. ) ;
#307 = ORIENTED_EDGE ( 'NONE', *, *, #218, .F. ) ;
#308 = DIMENSIONAL_EXPONENTS ( 1.000000000000000000, 0.000000000000000000, 0.000000000000000000, 0.000000000000000000, 0.000000000000000000, 0.000000000000000000, 0.000000000000000000 ) ;
#309 = CIRCLE ( 'NONE', #29, 0.5000000000000000000 ) ;
ENDSEC;
END-ISO-10303-21;
