ISO-10303-21;
HEADER;
FILE_DESCRIPTION (( 'STEP AP214' ),
    '1' );
FILE_NAME ('Micro_BMS-026-2X.STEP',
    '2021-09-03T15:03:44',
    ( '' ),
    ( '' ),
    'SwSTEP 2.0',
    'SolidWorks 2020',
    '' );
FILE_SCHEMA (( 'AUTOMOTIVE_DESIGN' ));
ENDSEC;

DATA;
#1 = CARTESIAN_POINT ( 'NONE',  ( 4.776122516674678488E-18, 0.0000000000000000000, 0.03899999999999999994 ) ) ;
#2 = DIRECTION ( 'NONE',  ( -1.000000000000000000, 0.0000000000000000000, 1.643378952067610433E-16 ) ) ;
#3 = AXIS2_PLACEMENT_3D ( 'NONE', #104, #256, #103 ) ;
#4 = CARTESIAN_POINT ( 'NONE',  ( 3.916447120985434511E-17, 0.0000000000000000000, 0.3198021767347300481 ) ) ;
#5 = APPLICATION_PROTOCOL_DEFINITION ( 'draft international standard', 'automotive_design', 1998, #21 ) ;
#6 = ADVANCED_FACE ( 'NONE', ( #66 ), #175, .T. ) ;
#7 = ORIENTED_EDGE ( 'NONE', *, *, #131, .T. ) ;
#8 = CARTESIAN_POINT ( 'NONE',  ( 0.0000000000000000000, 0.0000000000000000000, 1.500000000000000222 ) ) ;
#9 = ORIENTED_EDGE ( 'NONE', *, *, #80, .T. ) ;
#10 = VECTOR ( 'NONE', #15, 39.37007874015748143 ) ;
#11 = CONICAL_SURFACE ( 'NONE', #64, 0.01298699999999999855, 0.1745329251994339192 ) ;
#12 = DIRECTION ( 'NONE',  ( 1.224646799147353454E-16, 0.0000000000000000000, 1.000000000000000000 ) ) ;
#13 =( LENGTH_UNIT ( ) NAMED_UNIT ( * ) SI_UNIT ( $, .METRE. ) );
#14 = ORIENTED_EDGE ( 'NONE', *, *, #292, .T. ) ;
#15 = DIRECTION ( 'NONE',  ( -1.224646799147353454E-16, -0.0000000000000000000, -1.000000000000000000 ) ) ;
#16 = CONICAL_SURFACE ( 'NONE', #135, 0.01298699999999999855, 0.1745329251994339192 ) ;
#17 = ADVANCED_FACE ( 'NONE', ( #269 ), #319, .T. ) ;
#18 = ORIENTED_EDGE ( 'NONE', *, *, #179, .F. ) ;
#19 = MANIFOLD_SOLID_BREP ( 'Fillet1', #200 ) ;
#20 = VERTEX_POINT ( 'NONE', #196 ) ;
#21 = APPLICATION_CONTEXT ( 'automotive_design' ) ;
#22 =( NAMED_UNIT ( * ) PLANE_ANGLE_UNIT ( ) SI_UNIT ( $, .RADIAN. ) );
#23 = DIRECTION ( 'NONE',  ( -0.1736481776669312194, 2.126576849575783625E-17, 0.9848077530122080203 ) ) ;
#24 = FACE_OUTER_BOUND ( 'NONE', #37, .T. ) ;
#25 = MECHANICAL_DESIGN_GEOMETRIC_PRESENTATION_REPRESENTATION (  '', ( #31 ), #74 ) ;
#26 = EDGE_CURVE ( 'NONE', #209, #87, #148, .T. ) ;
#27 = CARTESIAN_POINT ( 'NONE',  ( 0.01298700000000000201, 0.0000000000000000000, 0.03899999999999999994 ) ) ;
#28 = DIRECTION ( 'NONE',  ( -1.224646799147353454E-16, -0.0000000000000000000, -1.000000000000000000 ) ) ;
#29 = DIRECTION ( 'NONE',  ( -0.0000000000000000000, -0.0000000000000000000, -1.000000000000000000 ) ) ;
#30 = EDGE_CURVE ( 'NONE', #165, #232, #171, .T. ) ;
#31 = STYLED_ITEM ( 'NONE', ( #262 ), #42 ) ;
#32 = DIRECTION ( 'NONE',  ( 1.224646799147353454E-16, 0.0000000000000000000, 1.000000000000000000 ) ) ;
#33 = DIRECTION ( 'NONE',  ( 0.0000000000000000000, 0.0000000000000000000, 1.000000000000000000 ) ) ;
#34 = FACE_OUTER_BOUND ( 'NONE', #259, .T. ) ;
#35 = VECTOR ( 'NONE', #29, 39.37007874015748143 ) ;
#36 = EDGE_CURVE ( 'NONE', #209, #242, #98, .T. ) ;
#37 = EDGE_LOOP ( 'NONE', ( #207, #123 ) ) ;
#38 = ORIENTED_EDGE ( 'NONE', *, *, #125, .F. ) ;
#39 = EDGE_LOOP ( 'NONE', ( #288, #60, #88, #58 ) ) ;
#40 = PRESENTATION_LAYER_ASSIGNMENT (  '', '', ( #31 ) ) ;
#41 = ORIENTED_EDGE ( 'NONE', *, *, #101, .T. ) ;
#42 = ADVANCED_BREP_SHAPE_REPRESENTATION ( 'Micro_BMS-026-2X', ( #19, #117 ), #221 ) ;
#43 = DIRECTION ( 'NONE',  ( 1.000000000000000000, 0.0000000000000000000, -0.0000000000000000000 ) ) ;
#44 =( GEOMETRIC_REPRESENTATION_CONTEXT ( 3 ) GLOBAL_UNCERTAINTY_ASSIGNED_CONTEXT ( ( #141 ) ) GLOBAL_UNIT_ASSIGNED_CONTEXT ( ( #222, #295, #297 ) ) REPRESENTATION_CONTEXT ( 'NONE', 'WORKASPACE' ) );
#45 = ADVANCED_FACE ( 'NONE', ( #266 ), #290, .T. ) ;
#46 = AXIS2_PLACEMENT_3D ( 'NONE', #4, #56, #86 ) ;
#47 =( LENGTH_UNIT ( ) NAMED_UNIT ( * ) SI_UNIT ( $, .METRE. ) );
#48 = DIRECTION ( 'NONE',  ( -1.000000000000000000, 0.0000000000000000000, 0.0000000000000000000 ) ) ;
#49 = CARTESIAN_POINT ( 'NONE',  ( -0.04750000000000064587, 0.0000000000000000000, 1.500000000000000222 ) ) ;
#50 = CIRCLE ( 'NONE', #298, 0.01298699999999999855 ) ;
#51 = CARTESIAN_POINT ( 'NONE',  ( 0.0000000000000000000, 0.0000000000000000000, 1.500000000000000222 ) ) ;
#52 = DIRECTION ( 'NONE',  ( -1.000000000000000000, 1.224646799147353207E-16, 0.0000000000000000000 ) ) ;
#53 = LINE ( 'NONE', #226, #158 ) ;
#54 = AXIS2_PLACEMENT_3D ( 'NONE', #132, #178, #278 ) ;
#55 = CARTESIAN_POINT ( 'NONE',  ( 4.776122516674678488E-18, 0.0000000000000000000, 0.03899999999999999994 ) ) ;
#56 = DIRECTION ( 'NONE',  ( -1.224646799147353454E-16, -0.0000000000000000000, -1.000000000000000000 ) ) ;
#57 = ADVANCED_FACE ( 'NONE', ( #24 ), #299, .T. ) ;
#58 = ORIENTED_EDGE ( 'NONE', *, *, #292, .F. ) ;
#59 = PRESENTATION_LAYER_ASSIGNMENT (  '', '', ( #322 ) ) ;
#60 = ORIENTED_EDGE ( 'NONE', *, *, #188, .T. ) ;
#61 = SURFACE_STYLE_FILL_AREA ( #106 ) ;
#62 = DIRECTION ( 'NONE',  ( 0.0000000000000000000, 0.0000000000000000000, -1.000000000000000000 ) ) ;
#63 = EDGE_LOOP ( 'NONE', ( #139, #239, #9, #309 ) ) ;
#64 = AXIS2_PLACEMENT_3D ( 'NONE', #55, #274, #300 ) ;
#65 = EDGE_LOOP ( 'NONE', ( #293, #118, #107 ) ) ;
#66 = FACE_OUTER_BOUND ( 'NONE', #39, .T. ) ;
#67 = ADVANCED_FACE ( 'NONE', ( #116 ), #204, .T. ) ;
#68 = DIRECTION ( 'NONE',  ( 0.7071067811865456854, 8.659560562354911904E-17, -0.7071067811865493491 ) ) ;
#69 = CARTESIAN_POINT ( 'NONE',  ( -0.01298699999999999334, 1.590448798052667319E-18, 0.03899999999999999994 ) ) ;
#70 = SHAPE_DEFINITION_REPRESENTATION ( #90, #42 ) ;
#71 = EDGE_CURVE ( 'NONE', #232, #286, #263, .T. ) ;
#72 = SURFACE_STYLE_FILL_AREA ( #294 ) ;
#73 = DIRECTION ( 'NONE',  ( 1.000000000000000000, 0.0000000000000000000, 0.0000000000000000000 ) ) ;
#74 =( GEOMETRIC_REPRESENTATION_CONTEXT ( 3 ) GLOBAL_UNCERTAINTY_ASSIGNED_CONTEXT ( ( #211 ) ) GLOBAL_UNIT_ASSIGNED_CONTEXT ( ( #189, #22, #150 ) ) REPRESENTATION_CONTEXT ( 'NONE', 'WORKASPACE' ) );
#75 = DIRECTION ( 'NONE',  ( 0.0000000000000000000, 0.0000000000000000000, -1.000000000000000000 ) ) ;
#76 = CARTESIAN_POINT ( 'NONE',  ( 1.590448798052667897E-18, 0.0000000000000000000, 0.01298700000000000028 ) ) ;
#77 = CARTESIAN_POINT ( 'NONE',  ( 0.04750000000000064587, 6.735557395310482421E-18, 1.500000000000000222 ) ) ;
#78 = CARTESIAN_POINT ( 'NONE',  ( 0.06250000000000004163, 7.654042494670960626E-18, 0.3198021767347300481 ) ) ;
#79 = AXIS2_PLACEMENT_3D ( 'NONE', #205, #136, #306 ) ;
#80 = EDGE_CURVE ( 'NONE', #167, #286, #53, .T. ) ;
#81 = FACE_OUTER_BOUND ( 'NONE', #63, .T. ) ;
#82 = LENGTH_MEASURE_WITH_UNIT ( LENGTH_MEASURE( 0.02539999999999999897 ), #13 );
#83 = ORIENTED_EDGE ( 'NONE', *, *, #36, .F. ) ;
#84 = PRODUCT_DEFINITION_FORMATION_WITH_SPECIFIED_SOURCE ( 'ANY', '', #289, .NOT_KNOWN. ) ;
#85 = EDGE_CURVE ( 'NONE', #165, #167, #257, .T. ) ;
#86 = DIRECTION ( 'NONE',  ( 1.000000000000000000, 0.0000000000000000000, 0.0000000000000000000 ) ) ;
#87 = VERTEX_POINT ( 'NONE', #255 ) ;
#88 = ORIENTED_EDGE ( 'NONE', *, *, #206, .F. ) ;
#89 = ORIENTED_EDGE ( 'NONE', *, *, #26, .T. ) ;
#90 = PRODUCT_DEFINITION_SHAPE ( 'NONE', 'NONE',  #277 ) ;
#91 = VECTOR ( 'NONE', #180, 39.37007874015748143 ) ;
#92 = DIRECTION ( 'NONE',  ( 0.0000000000000000000, 0.0000000000000000000, -1.000000000000000000 ) ) ;
#93 = FILL_AREA_STYLE_COLOUR ( '', #248 ) ;
#94 = AXIS2_PLACEMENT_3D ( 'NONE', #169, #174, #43 ) ;
#95 = CIRCLE ( 'NONE', #3, 0.06250000000000000000 ) ;
#96 = ORIENTED_EDGE ( 'NONE', *, *, #85, .F. ) ;
#97 = PRODUCT_DEFINITION_CONTEXT ( 'detailed design', #182, 'design' ) ;
#98 = LINE ( 'NONE', #177, #10 ) ;
#99 = CARTESIAN_POINT ( 'NONE',  ( 1.590448798052667897E-18, 0.0000000000000000000, 0.01298700000000000028 ) ) ;
#100 = SPHERICAL_SURFACE ( 'NONE', #190, 0.01298700000000000028 ) ;
#101 = EDGE_CURVE ( 'NONE', #193, #20, #185, .T. ) ;
#102 = DIRECTION ( 'NONE',  ( 0.0000000000000000000, 1.000000000000000000, 0.0000000000000000000 ) ) ;
#103 = DIRECTION ( 'NONE',  ( 1.000000000000000000, 0.0000000000000000000, 0.0000000000000000000 ) ) ;
#104 = CARTESIAN_POINT ( 'NONE',  ( 3.916447120985434511E-17, 0.0000000000000000000, 0.3198021767347300481 ) ) ;
#105 = AXIS2_PLACEMENT_3D ( 'NONE', #76, #32, #2 ) ;
#106 = FILL_AREA_STYLE ('',( #231 ) ) ;
#107 = ORIENTED_EDGE ( 'NONE', *, *, #115, .F. ) ;
#108 = SURFACE_STYLE_USAGE ( .BOTH. , #142 ) ;
#109 = ORIENTED_EDGE ( 'NONE', *, *, #30, .T. ) ;
#110 = AXIS2_PLACEMENT_3D ( 'NONE', #194, #303, #203 ) ;
#111 = FACE_OUTER_BOUND ( 'NONE', #120, .T. ) ;
#112 = ORIENTED_EDGE ( 'NONE', *, *, #131, .F. ) ;
#113 =( CONVERSION_BASED_UNIT ( 'INCH', #264 ) LENGTH_UNIT ( ) NAMED_UNIT ( #140 ) );
#114 = EDGE_LOOP ( 'NONE', ( #314, #283, #38 ) ) ;
#115 = EDGE_CURVE ( 'NONE', #20, #242, #254, .T. ) ;
#116 = FACE_OUTER_BOUND ( 'NONE', #114, .T. ) ;
#117 = AXIS2_PLACEMENT_3D ( 'NONE', #176, #173, #246 ) ;
#118 = ORIENTED_EDGE ( 'NONE', *, *, #210, .T. ) ;
#119 = APPLICATION_PROTOCOL_DEFINITION ( 'draft international standard', 'automotive_design', 1998, #182 ) ;
#120 = EDGE_LOOP ( 'NONE', ( #234, #7, #265, #143 ) ) ;
#121 = CARTESIAN_POINT ( 'NONE',  ( 0.04750000000000064587, 5.817072295950006528E-18, 1.500000000000000222 ) ) ;
#122 = VECTOR ( 'NONE', #302, 39.37007874015748143 ) ;
#123 = ORIENTED_EDGE ( 'NONE', *, *, #85, .T. ) ;
#124 = DIRECTION ( 'NONE',  ( -1.224646799147353454E-16, -0.0000000000000000000, -1.000000000000000000 ) ) ;
#125 = EDGE_CURVE ( 'NONE', #242, #20, #144, .T. ) ;
#126 = FACE_OUTER_BOUND ( 'NONE', #65, .T. ) ;
#127 = VECTOR ( 'NONE', #68, 39.37007874015748143 ) ;
#128 = CIRCLE ( 'NONE', #46, 0.06250000000000000000 ) ;
#129 = DIRECTION ( 'NONE',  ( 1.224646799147353454E-16, 0.0000000000000000000, 1.000000000000000000 ) ) ;
#130 = DIRECTION ( 'NONE',  ( -1.000000000000000000, 0.0000000000000000000, 0.0000000000000000000 ) ) ;
#131 = EDGE_CURVE ( 'NONE', #193, #209, #301, .T. ) ;
#132 = CARTESIAN_POINT ( 'NONE',  ( 0.0000000000000000000, 0.0000000000000000000, 1.500000000000000222 ) ) ;
#133 =( LENGTH_UNIT ( ) NAMED_UNIT ( * ) SI_UNIT ( $, .METRE. ) );
#134 = ORIENTED_EDGE ( 'NONE', *, *, #115, .T. ) ;
#135 = AXIS2_PLACEMENT_3D ( 'NONE', #164, #12, #163 ) ;
#136 = DIRECTION ( 'NONE',  ( -1.224646799147353454E-16, -0.0000000000000000000, -1.000000000000000000 ) ) ;
#137 = ORIENTED_EDGE ( 'NONE', *, *, #188, .F. ) ;
#138 = DIRECTION ( 'NONE',  ( -1.224646799147353454E-16, -0.0000000000000000000, -1.000000000000000000 ) ) ;
#139 = ORIENTED_EDGE ( 'NONE', *, *, #30, .F. ) ;
#140 = DIMENSIONAL_EXPONENTS ( 1.000000000000000000, 0.0000000000000000000, 0.0000000000000000000, 0.0000000000000000000, 0.0000000000000000000, 0.0000000000000000000, 0.0000000000000000000 ) ;
#141 = UNCERTAINTY_MEASURE_WITH_UNIT (LENGTH_MEASURE( 1.000000000000000082E-05 ), #222, 'distance_accuracy_value', 'NONE');
#142 = SURFACE_SIDE_STYLE ('',( #61 ) ) ;
#143 = ORIENTED_EDGE ( 'NONE', *, *, #125, .T. ) ;
#144 = CIRCLE ( 'NONE', #105, 0.01298700000000000028 ) ;
#145 = ORIENTED_EDGE ( 'NONE', *, *, #80, .F. ) ;
#146 = EDGE_CURVE ( 'NONE', #209, #193, #50, .T. ) ;
#147 = DIMENSIONAL_EXPONENTS ( 1.000000000000000000, 0.0000000000000000000, 0.0000000000000000000, 0.0000000000000000000, 0.0000000000000000000, 0.0000000000000000000, 0.0000000000000000000 ) ;
#148 = LINE ( 'NONE', #69, #184 ) ;
#149 = AXIS2_PLACEMENT_3D ( 'NONE', #198, #318, #218 ) ;
#150 =( NAMED_UNIT ( * ) SI_UNIT ( $, .STERADIAN. ) SOLID_ANGLE_UNIT ( ) );
#151 = ORIENTED_EDGE ( 'NONE', *, *, #179, .T. ) ;
#152 = EDGE_LOOP ( 'NONE', ( #312, #41, #134, #83 ) ) ;
#153 = AXIS2_PLACEMENT_3D ( 'NONE', #276, #129, #304 ) ;
#154 = CARTESIAN_POINT ( 'NONE',  ( 0.06250000000000000000, 7.654042494670956004E-18, 1.500000000000000222 ) ) ;
#155 = ADVANCED_FACE ( 'NONE', ( #282 ), #11, .T. ) ;
#156 = CARTESIAN_POINT ( 'NONE',  ( 0.01298700000000000201, 0.0000000000000000000, 0.03899999999999999994 ) ) ;
#157 = CARTESIAN_POINT ( 'NONE',  ( 1.590448798052667897E-18, 0.0000000000000000000, 0.01298700000000000028 ) ) ;
#158 = VECTOR ( 'NONE', #159, 39.37007874015748143 ) ;
#159 = DIRECTION ( 'NONE',  ( -0.7071067811865456854, 0.0000000000000000000, -0.7071067811865493491 ) ) ;
#160 = DIRECTION ( 'NONE',  ( 0.0000000000000000000, 0.0000000000000000000, -1.000000000000000000 ) ) ;
#161 = CYLINDRICAL_SURFACE ( 'NONE', #79, 0.01298700000000000028 ) ;
#162 = ORIENTED_EDGE ( 'NONE', *, *, #71, .T. ) ;
#163 = DIRECTION ( 'NONE',  ( 1.000000000000000000, 0.0000000000000000000, 0.0000000000000000000 ) ) ;
#164 = CARTESIAN_POINT ( 'NONE',  ( 4.776122516674678488E-18, 0.0000000000000000000, 0.03899999999999999994 ) ) ;
#165 = VERTEX_POINT ( 'NONE', #77 ) ;
#166 = DIRECTION ( 'NONE',  ( -1.000000000000000000, 0.0000000000000000000, 0.0000000000000000000 ) ) ;
#167 = VERTEX_POINT ( 'NONE', #49 ) ;
#168 = CIRCLE ( 'NONE', #230, 0.01298700000000000028 ) ;
#169 = CARTESIAN_POINT ( 'NONE',  ( 0.0000000000000000000, 0.0000000000000000000, 1.500000000000000222 ) ) ;
#170 = DIMENSIONAL_EXPONENTS ( 1.000000000000000000, 0.0000000000000000000, 0.0000000000000000000, 0.0000000000000000000, 0.0000000000000000000, 0.0000000000000000000, 0.0000000000000000000 ) ;
#171 = LINE ( 'NONE', #121, #127 ) ;
#172 = EDGE_CURVE ( 'NONE', #241, #20, #168, .T. ) ;
#173 = DIRECTION ( 'NONE',  ( 0.0000000000000000000, 0.0000000000000000000, 1.000000000000000000 ) ) ;
#174 = DIRECTION ( 'NONE',  ( 0.0000000000000000000, 0.0000000000000000000, 1.000000000000000000 ) ) ;
#175 = CYLINDRICAL_SURFACE ( 'NONE', #149, 0.06250000000000000000 ) ;
#176 = CARTESIAN_POINT ( 'NONE',  ( 0.0000000000000000000, 0.0000000000000000000, 0.0000000000000000000 ) ) ;
#177 = CARTESIAN_POINT ( 'NONE',  ( -0.01298700000000000028, 0.0000000000000000000, 1.590448798052667897E-18 ) ) ;
#178 = DIRECTION ( 'NONE',  ( 0.0000000000000000000, 0.0000000000000000000, 1.000000000000000000 ) ) ;
#179 = EDGE_CURVE ( 'NONE', #193, #213, #324, .T. ) ;
#180 = DIRECTION ( 'NONE',  ( 0.1736481776669314137, 0.0000000000000000000, 0.9848077530122077983 ) ) ;
#181 = CARTESIAN_POINT ( 'NONE',  ( 1.590448798052667897E-18, 0.0000000000000000000, 0.01298700000000000028 ) ) ;
#182 = APPLICATION_CONTEXT ( 'automotive_design' ) ;
#183 = LINE ( 'NONE', #154, #35 ) ;
#184 = VECTOR ( 'NONE', #23, 39.37007874015747433 ) ;
#185 = LINE ( 'NONE', #201, #122 ) ;
#186 = UNCERTAINTY_MEASURE_WITH_UNIT (LENGTH_MEASURE( 1.000000000000000082E-05 ), #113, 'distance_accuracy_value', 'NONE');
#187 = ORIENTED_EDGE ( 'NONE', *, *, #206, .T. ) ;
#188 = EDGE_CURVE ( 'NONE', #232, #213, #183, .T. ) ;
#189 =( CONVERSION_BASED_UNIT ( 'INCH', #82 ) LENGTH_UNIT ( ) NAMED_UNIT ( #147 ) );
#190 = AXIS2_PLACEMENT_3D ( 'NONE', #157, #252, #308 ) ;
#191 = EDGE_LOOP ( 'NONE', ( #307, #89, #187, #18 ) ) ;
#192 = EDGE_LOOP ( 'NONE', ( #137, #162, #14, #261 ) ) ;
#193 = VERTEX_POINT ( 'NONE', #156 ) ;
#194 = CARTESIAN_POINT ( 'NONE',  ( 0.0000000000000000000, 0.0000000000000000000, 1.485000000000000764 ) ) ;
#195 = CIRCLE ( 'NONE', #310, 0.06250000000000000000 ) ;
#196 = CARTESIAN_POINT ( 'NONE',  ( 0.01298700000000000201, 1.590448798052667705E-18, 0.01298699999999999855 ) ) ;
#197 = EDGE_CURVE ( 'NONE', #286, #232, #195, .T. ) ;
#198 = CARTESIAN_POINT ( 'NONE',  ( 0.0000000000000000000, 0.0000000000000000000, 1.500000000000000222 ) ) ;
#199 = DIRECTION ( 'NONE',  ( 1.224646799147353207E-16, 1.000000000000000000, -0.0000000000000000000 ) ) ;
#200 = CLOSED_SHELL ( 'NONE', ( #229, #284, #155, #45, #6, #17, #57, #325, #316, #243, #67 ) ) ;
#201 = CARTESIAN_POINT ( 'NONE',  ( 0.01298700000000000028, 1.590448798052667705E-18, -1.590448798052667897E-18 ) ) ;
#202 = CARTESIAN_POINT ( 'NONE',  ( 0.0000000000000000000, 0.0000000000000000000, 1.485000000000000764 ) ) ;
#203 = DIRECTION ( 'NONE',  ( 1.000000000000000000, 0.0000000000000000000, 0.0000000000000000000 ) ) ;
#204 = SPHERICAL_SURFACE ( 'NONE', #220, 0.01298700000000000028 ) ;
#205 = CARTESIAN_POINT ( 'NONE',  ( 0.0000000000000000000, 0.0000000000000000000, 0.0000000000000000000 ) ) ;
#206 = EDGE_CURVE ( 'NONE', #87, #213, #95, .T. ) ;
#207 = ORIENTED_EDGE ( 'NONE', *, *, #224, .T. ) ;
#208 =( NAMED_UNIT ( * ) SI_UNIT ( $, .STERADIAN. ) SOLID_ANGLE_UNIT ( ) );
#209 = VERTEX_POINT ( 'NONE', #320 ) ;
#210 = EDGE_CURVE ( 'NONE', #241, #242, #270, .T. ) ;
#211 = UNCERTAINTY_MEASURE_WITH_UNIT (LENGTH_MEASURE( 1.000000000000000082E-05 ), #189, 'distance_accuracy_value', 'NONE');
#212 = CARTESIAN_POINT ( 'NONE',  ( 0.0000000000000000000, 0.0000000000000000000, 0.0000000000000000000 ) ) ;
#213 = VERTEX_POINT ( 'NONE', #78 ) ;
#214 = PRODUCT_CONTEXT ( 'NONE', #21, 'mechanical' ) ;
#215 = ORIENTED_EDGE ( 'NONE', *, *, #26, .F. ) ;
#216 = VECTOR ( 'NONE', #233, 39.37007874015748143 ) ;
#217 = SURFACE_SIDE_STYLE ('',( #72 ) ) ;
#218 = DIRECTION ( 'NONE',  ( -1.000000000000000000, 0.0000000000000000000, 0.0000000000000000000 ) ) ;
#219 = EDGE_LOOP ( 'NONE', ( #96, #109, #285, #145 ) ) ;
#220 = AXIS2_PLACEMENT_3D ( 'NONE', #228, #102, #73 ) ;
#221 =( GEOMETRIC_REPRESENTATION_CONTEXT ( 3 ) GLOBAL_UNCERTAINTY_ASSIGNED_CONTEXT ( ( #186 ) ) GLOBAL_UNIT_ASSIGNED_CONTEXT ( ( #113, #237, #208 ) ) REPRESENTATION_CONTEXT ( 'NONE', 'WORKASPACE' ) );
#222 =( CONVERSION_BASED_UNIT ( 'INCH', #268 ) LENGTH_UNIT ( ) NAMED_UNIT ( #170 ) );
#223 = DIRECTION ( 'NONE',  ( 1.000000000000000000, 0.0000000000000000000, 0.0000000000000000000 ) ) ;
#224 = EDGE_CURVE ( 'NONE', #167, #165, #275, .T. ) ;
#225 = AXIS2_PLACEMENT_3D ( 'NONE', #8, #62, #166 ) ;
#226 = CARTESIAN_POINT ( 'NONE',  ( -0.04750000000000064587, 0.0000000000000000000, 1.500000000000000222 ) ) ;
#227 = DIRECTION ( 'NONE',  ( -1.000000000000000000, 0.0000000000000000000, 0.0000000000000000000 ) ) ;
#228 = CARTESIAN_POINT ( 'NONE',  ( 1.590448798052667897E-18, 0.0000000000000000000, 0.01298700000000000028 ) ) ;
#229 = ADVANCED_FACE ( 'NONE', ( #126 ), #100, .T. ) ;
#230 = AXIS2_PLACEMENT_3D ( 'NONE', #181, #279, #75 ) ;
#231 = FILL_AREA_STYLE_COLOUR ( '', #238 ) ;
#232 = VERTEX_POINT ( 'NONE', #321 ) ;
#233 = DIRECTION ( 'NONE',  ( -0.0000000000000000000, -0.0000000000000000000, -1.000000000000000000 ) ) ;
#234 = ORIENTED_EDGE ( 'NONE', *, *, #101, .F. ) ;
#235 = CARTESIAN_POINT ( 'NONE',  ( -0.06250000000000000000, 0.0000000000000000000, 1.485000000000000764 ) ) ;
#236 = ORIENTED_EDGE ( 'NONE', *, *, #271, .T. ) ;
#237 =( NAMED_UNIT ( * ) PLANE_ANGLE_UNIT ( ) SI_UNIT ( $, .RADIAN. ) );
#238 = COLOUR_RGB ( '',0.7921568627450980005, 0.8196078431372548767, 0.9333333333333333481 ) ;
#239 = ORIENTED_EDGE ( 'NONE', *, *, #224, .F. ) ;
#240 = CARTESIAN_POINT ( 'NONE',  ( -0.06250000000000000000, 0.0000000000000000000, 1.500000000000000222 ) ) ;
#241 = VERTEX_POINT ( 'NONE', #258 ) ;
#242 = VERTEX_POINT ( 'NONE', #260 ) ;
#243 = ADVANCED_FACE ( 'NONE', ( #111 ), #287, .T. ) ;
#244 = DIRECTION ( 'NONE',  ( -0.0000000000000000000, -0.0000000000000000000, -1.000000000000000000 ) ) ;
#245 = CONICAL_SURFACE ( 'NONE', #225, 0.04750000000000064587, 0.7853981633974457255 ) ;
#246 = DIRECTION ( 'NONE',  ( 1.000000000000000000, 0.0000000000000000000, 0.0000000000000000000 ) ) ;
#247 = CARTESIAN_POINT ( 'NONE',  ( 0.0000000000000000000, 0.0000000000000000000, 1.500000000000000222 ) ) ;
#248 = COLOUR_RGB ( '',0.7921568627450980005, 0.8196078431372548767, 0.9333333333333333481 ) ;
#249 = AXIS2_PLACEMENT_3D ( 'NONE', #99, #199, #52 ) ;
#250 = CARTESIAN_POINT ( 'NONE',  ( 4.776122516674678488E-18, 0.0000000000000000000, 0.03899999999999999994 ) ) ;
#251 = DIRECTION ( 'NONE',  ( 1.000000000000000000, 0.0000000000000000000, 0.0000000000000000000 ) ) ;
#252 = DIRECTION ( 'NONE',  ( 0.0000000000000000000, 1.000000000000000000, 0.0000000000000000000 ) ) ;
#253 = AXIS2_PLACEMENT_3D ( 'NONE', #247, #244, #272 ) ;
#254 = CIRCLE ( 'NONE', #153, 0.01298700000000000028 ) ;
#255 = CARTESIAN_POINT ( 'NONE',  ( -0.06249999999999995837, 0.0000000000000000000, 0.3198021767347300481 ) ) ;
#256 = DIRECTION ( 'NONE',  ( -1.224646799147353454E-16, -0.0000000000000000000, -1.000000000000000000 ) ) ;
#257 = CIRCLE ( 'NONE', #54, 0.04750000000000064587 ) ;
#258 = CARTESIAN_POINT ( 'NONE',  ( 2.385673197079001846E-18, 0.0000000000000000000, 0.0000000000000000000 ) ) ;
#259 = EDGE_LOOP ( 'NONE', ( #215, #112, #151, #236 ) ) ;
#260 = CARTESIAN_POINT ( 'NONE',  ( -0.01298699999999999855, 0.0000000000000000000, 0.01298700000000000201 ) ) ;
#261 = ORIENTED_EDGE ( 'NONE', *, *, #271, .F. ) ;
#262 = PRESENTATION_STYLE_ASSIGNMENT (( #108 ) ) ;
#263 = CIRCLE ( 'NONE', #110, 0.06250000000000000000 ) ;
#264 = LENGTH_MEASURE_WITH_UNIT ( LENGTH_MEASURE( 0.02539999999999999897 ), #133 );
#265 = ORIENTED_EDGE ( 'NONE', *, *, #36, .T. ) ;
#266 = FACE_OUTER_BOUND ( 'NONE', #219, .T. ) ;
#267 = PRODUCT_RELATED_PRODUCT_CATEGORY ( 'part', '', ( #289 ) ) ;
#268 = LENGTH_MEASURE_WITH_UNIT ( LENGTH_MEASURE( 0.02539999999999999897 ), #47 );
#269 = FACE_OUTER_BOUND ( 'NONE', #192, .T. ) ;
#270 = CIRCLE ( 'NONE', #249, 0.01298700000000000028 ) ;
#271 = EDGE_CURVE ( 'NONE', #213, #87, #128, .T. ) ;
#272 = DIRECTION ( 'NONE',  ( -1.000000000000000000, 0.0000000000000000000, 0.0000000000000000000 ) ) ;
#273 = CARTESIAN_POINT ( 'NONE',  ( 0.0000000000000000000, 0.0000000000000000000, 1.500000000000000222 ) ) ;
#274 = DIRECTION ( 'NONE',  ( 1.224646799147353454E-16, 0.0000000000000000000, 1.000000000000000000 ) ) ;
#275 = CIRCLE ( 'NONE', #281, 0.04750000000000064587 ) ;
#276 = CARTESIAN_POINT ( 'NONE',  ( 1.590448798052667897E-18, 0.0000000000000000000, 0.01298700000000000028 ) ) ;
#277 = PRODUCT_DEFINITION ( 'UNKNOWN', '', #84, #97 ) ;
#278 = DIRECTION ( 'NONE',  ( 1.000000000000000000, 0.0000000000000000000, 0.0000000000000000000 ) ) ;
#279 = DIRECTION ( 'NONE',  ( 0.0000000000000000000, -1.000000000000000000, 0.0000000000000000000 ) ) ;
#280 = AXIS2_PLACEMENT_3D ( 'NONE', #273, #92, #48 ) ;
#281 = AXIS2_PLACEMENT_3D ( 'NONE', #51, #33, #251 ) ;
#282 = FACE_OUTER_BOUND ( 'NONE', #191, .T. ) ;
#283 = ORIENTED_EDGE ( 'NONE', *, *, #172, .T. ) ;
#284 = ADVANCED_FACE ( 'NONE', ( #305 ), #161, .T. ) ;
#285 = ORIENTED_EDGE ( 'NONE', *, *, #197, .F. ) ;
#286 = VERTEX_POINT ( 'NONE', #235 ) ;
#287 = CYLINDRICAL_SURFACE ( 'NONE', #291, 0.01298700000000000028 ) ;
#288 = ORIENTED_EDGE ( 'NONE', *, *, #197, .T. ) ;
#289 = PRODUCT ( 'Micro_BMS-026-2X', 'Micro_BMS-026-2X', '', ( #214 ) ) ;
#290 = CONICAL_SURFACE ( 'NONE', #280, 0.04750000000000064587, 0.7853981633974457255 ) ;
#291 = AXIS2_PLACEMENT_3D ( 'NONE', #212, #138, #311 ) ;
#292 = EDGE_CURVE ( 'NONE', #286, #87, #313, .T. ) ;
#293 = ORIENTED_EDGE ( 'NONE', *, *, #172, .F. ) ;
#294 = FILL_AREA_STYLE ('',( #93 ) ) ;
#295 =( NAMED_UNIT ( * ) PLANE_ANGLE_UNIT ( ) SI_UNIT ( $, .RADIAN. ) );
#296 = MECHANICAL_DESIGN_GEOMETRIC_PRESENTATION_REPRESENTATION (  '', ( #322 ), #44 ) ;
#297 =( NAMED_UNIT ( * ) SI_UNIT ( $, .STERADIAN. ) SOLID_ANGLE_UNIT ( ) );
#298 = AXIS2_PLACEMENT_3D ( 'NONE', #250, #124, #227 ) ;
#299 = PLANE ( 'NONE',  #94 ) ;
#300 = DIRECTION ( 'NONE',  ( 1.000000000000000000, 0.0000000000000000000, 0.0000000000000000000 ) ) ;
#301 = CIRCLE ( 'NONE', #323, 0.01298699999999999855 ) ;
#302 = DIRECTION ( 'NONE',  ( -1.224646799147353454E-16, -0.0000000000000000000, -1.000000000000000000 ) ) ;
#303 = DIRECTION ( 'NONE',  ( 0.0000000000000000000, 0.0000000000000000000, -1.000000000000000000 ) ) ;
#304 = DIRECTION ( 'NONE',  ( -1.000000000000000000, 0.0000000000000000000, 1.643378952067610433E-16 ) ) ;
#305 = FACE_OUTER_BOUND ( 'NONE', #152, .T. ) ;
#306 = DIRECTION ( 'NONE',  ( -1.000000000000000000, 0.0000000000000000000, 1.224646799147353454E-16 ) ) ;
#307 = ORIENTED_EDGE ( 'NONE', *, *, #146, .F. ) ;
#308 = DIRECTION ( 'NONE',  ( 1.000000000000000000, 0.0000000000000000000, 0.0000000000000000000 ) ) ;
#309 = ORIENTED_EDGE ( 'NONE', *, *, #71, .F. ) ;
#310 = AXIS2_PLACEMENT_3D ( 'NONE', #202, #160, #223 ) ;
#311 = DIRECTION ( 'NONE',  ( -1.000000000000000000, 0.0000000000000000000, 1.224646799147353454E-16 ) ) ;
#312 = ORIENTED_EDGE ( 'NONE', *, *, #146, .T. ) ;
#313 = LINE ( 'NONE', #240, #216 ) ;
#314 = ORIENTED_EDGE ( 'NONE', *, *, #210, .F. ) ;
#315 = PRESENTATION_STYLE_ASSIGNMENT (( #317 ) ) ;
#316 = ADVANCED_FACE ( 'NONE', ( #34 ), #16, .T. ) ;
#317 = SURFACE_STYLE_USAGE ( .BOTH. , #217 ) ;
#318 = DIRECTION ( 'NONE',  ( -0.0000000000000000000, -0.0000000000000000000, -1.000000000000000000 ) ) ;
#319 = CYLINDRICAL_SURFACE ( 'NONE', #253, 0.06250000000000000000 ) ;
#320 = CARTESIAN_POINT ( 'NONE',  ( -0.01298699999999999334, 4.622245646361812721E-18, 0.03899999999999999994 ) ) ;
#321 = CARTESIAN_POINT ( 'NONE',  ( 0.06250000000000000000, 7.654042494670956004E-18, 1.485000000000000764 ) ) ;
#322 = STYLED_ITEM ( 'NONE', ( #315 ), #19 ) ;
#323 = AXIS2_PLACEMENT_3D ( 'NONE', #1, #28, #130 ) ;
#324 = LINE ( 'NONE', #27, #91 ) ;
#325 = ADVANCED_FACE ( 'NONE', ( #81 ), #245, .T. ) ;
ENDSEC;
END-ISO-10303-21;
