ISO-10303-21;
HEADER;
FILE_DESCRIPTION (( 'STEP AP214' ),
    '1' );
FILE_NAME ('00345.STEP',
    '2023-06-22T14:06:24',
    ( '' ),
    ( '' ),
    'SwSTEP 2.0',
    'SolidWorks 2023',
    '' );
FILE_SCHEMA (( 'AUTOMOTIVE_DESIGN' ));
ENDSEC;

DATA;
#1 = DIRECTION ( 'NONE',  ( 0.000000000000000000, 1.000000000000000000, 0.000000000000000000 ) ) ;
#2 = LINE ( 'NONE', #91, #224 ) ;
#3 = UNCERTAINTY_MEASURE_WITH_UNIT (LENGTH_MEASURE( 1.000000000000000082E-05 ), #231, 'distance_accuracy_value', 'NONE');
#4 = LENGTH_MEASURE_WITH_UNIT ( LENGTH_MEASURE( 0.02539999999999999897 ), #263 );
#5 = DIRECTION ( 'NONE',  ( -1.000000000000000000, 0.000000000000000000, 0.000000000000000000 ) ) ;
#6 = AXIS2_PLACEMENT_3D ( 'NONE', #58, #14, #193 ) ;
#7 = SURFACE_STYLE_USAGE ( .BOTH. , #213 ) ;
#8 = FACE_OUTER_BOUND ( 'NONE', #85, .T. ) ;
#9 = AXIS2_PLACEMENT_3D ( 'NONE', #179, #66, #160 ) ;
#10 = DIRECTION ( 'NONE',  ( -0.000000000000000000, -1.000000000000000000, -0.000000000000000000 ) ) ;
#11 = DIRECTION ( 'NONE',  ( -6.123233995736769734E-17, 1.000000000000000000, -0.000000000000000000 ) ) ;
#12 = CARTESIAN_POINT ( 'NONE',  ( 3.032960542342103792E-32, 1.000000000000000000, 0.000000000000000000 ) ) ;
#13 =( GEOMETRIC_REPRESENTATION_CONTEXT ( 3 ) GLOBAL_UNCERTAINTY_ASSIGNED_CONTEXT ( ( #17 ) ) GLOBAL_UNIT_ASSIGNED_CONTEXT ( ( #152, #227, #127 ) ) REPRESENTATION_CONTEXT ( 'NONE', 'WORKASPACE' ) );
#14 = DIRECTION ( 'NONE',  ( -0.000000000000000000, -1.000000000000000000, -0.000000000000000000 ) ) ;
#15 = FACE_OUTER_BOUND ( 'NONE', #200, .T. ) ;
#16 = SURFACE_STYLE_FILL_AREA ( #223 ) ;
#17 = UNCERTAINTY_MEASURE_WITH_UNIT (LENGTH_MEASURE( 1.000000000000000082E-05 ), #152, 'distance_accuracy_value', 'NONE');
#18 = SURFACE_SIDE_STYLE ('',( #196 ) ) ;
#19 = VERTEX_POINT ( 'NONE', #234 ) ;
#20 = SURFACE_STYLE_USAGE ( .BOTH. , #18 ) ;
#21 = EDGE_LOOP ( 'NONE', ( #202, #39 ) ) ;
#22 = SURFACE_SIDE_STYLE ('',( #229 ) ) ;
#23 = EDGE_CURVE ( 'NONE', #286, #180, #277, .T. ) ;
#24 = COLOUR_RGB ( '',1.000000000000000000, 0.000000000000000000, 0.000000000000000000 ) ;
#25 = ORIENTED_EDGE ( 'NONE', *, *, #137, .F. ) ;
#26 = CIRCLE ( 'NONE', #6, 0.1875000000000000278 ) ;
#27 = DIRECTION ( 'NONE',  ( -6.123233995736769734E-17, 1.000000000000000000, -0.000000000000000000 ) ) ;
#28 = DIMENSIONAL_EXPONENTS ( 1.000000000000000000, 0.000000000000000000, 0.000000000000000000, 0.000000000000000000, 0.000000000000000000, 0.000000000000000000, 0.000000000000000000 ) ;
#29 = EDGE_CURVE ( 'NONE', #19, #283, #211, .T. ) ;
#30 = CYLINDRICAL_SURFACE ( 'NONE', #278, 0.1875000000000000278 ) ;
#31 = DIRECTION ( 'NONE',  ( -6.123233995736769734E-17, 1.000000000000000000, -0.000000000000000000 ) ) ;
#32 = SURFACE_STYLE_USAGE ( .BOTH. , #149 ) ;
#33 = VECTOR ( 'NONE', #151, 39.37007874015748143 ) ;
#34 = DIRECTION ( 'NONE',  ( 0.000000000000000000, -1.000000000000000000, -0.000000000000000000 ) ) ;
#35 = CARTESIAN_POINT ( 'NONE',  ( 0.1875000000000000278, 1.000000000000000000, 2.296212748401288650E-17 ) ) ;
#36 = ORIENTED_EDGE ( 'NONE', *, *, #143, .T. ) ;
#37 = AXIS2_PLACEMENT_3D ( 'NONE', #130, #187, #90 ) ;
#38 = LENGTH_MEASURE_WITH_UNIT ( LENGTH_MEASURE( 0.02539999999999999897 ), #59 );
#39 = ORIENTED_EDGE ( 'NONE', *, *, #206, .F. ) ;
#40 = ORIENTED_EDGE ( 'NONE', *, *, #268, .T. ) ;
#41 = APPLICATION_PROTOCOL_DEFINITION ( 'draft international standard', 'automotive_design', 1998, #303 ) ;
#42 = PRESENTATION_STYLE_ASSIGNMENT (( #20 ) ) ;
#43 = VERTEX_POINT ( 'NONE', #48 ) ;
#44 = CIRCLE ( 'NONE', #133, 0.1875000000000000278 ) ;
#45 = CARTESIAN_POINT ( 'NONE',  ( -1.224646799147353700E-16, 3.000000000000000444, 0.000000000000000000 ) ) ;
#46 = DIRECTION ( 'NONE',  ( 0.000000000000000000, 0.000000000000000000, -1.000000000000000000 ) ) ;
#47 = FILL_AREA_STYLE_COLOUR ( '', #145 ) ;
#48 = CARTESIAN_POINT ( 'NONE',  ( 0.1875000000000000278, 3.000000000000000444, 2.296212748401288650E-17 ) ) ;
#49 = PRODUCT_DEFINITION_FORMATION_WITH_SPECIFIED_SOURCE ( 'ANY', '', #264, .NOT_KNOWN. ) ;
#50 = CARTESIAN_POINT ( 'NONE',  ( -0.1875000000000002776, 3.000000000000000444, 0.000000000000000000 ) ) ;
#51 = CYLINDRICAL_SURFACE ( 'NONE', #235, 0.1875000000000000833 ) ;
#52 = EDGE_CURVE ( 'NONE', #283, #114, #110, .T. ) ;
#53 = VECTOR ( 'NONE', #31, 39.37007874015748143 ) ;
#54 = PLANE ( 'NONE',  #272 ) ;
#55 = CARTESIAN_POINT ( 'NONE',  ( 0.1874999999999999445, 3.000000000000000444, 2.296212748401288342E-17 ) ) ;
#56 = PRESENTATION_STYLE_ASSIGNMENT (( #32 ) ) ;
#57 = PRESENTATION_LAYER_ASSIGNMENT (  '', '', ( #297 ) ) ;
#58 = CARTESIAN_POINT ( 'NONE',  ( 0.000000000000000000, 1.000000000000000000, 0.000000000000000000 ) ) ;
#59 =( LENGTH_UNIT ( ) NAMED_UNIT ( * ) SI_UNIT ( $, .METRE. ) );
#60 = PRODUCT_DEFINITION_CONTEXT ( 'detailed design', #303, 'design' ) ;
#61 = ORIENTED_EDGE ( 'NONE', *, *, #52, .F. ) ;
#62 = ADVANCED_FACE ( 'NONE', ( #8 ), #119, .T. ) ;
#63 = CIRCLE ( 'NONE', #94, 0.1875000000000001388 ) ;
#64 = DIRECTION ( 'NONE',  ( -0.000000000000000000, -1.000000000000000000, -0.000000000000000000 ) ) ;
#65 = VERTEX_POINT ( 'NONE', #267 ) ;
#66 = DIRECTION ( 'NONE',  ( 6.123233995736769734E-17, -1.000000000000000000, 0.000000000000000000 ) ) ;
#67 = CARTESIAN_POINT ( 'NONE',  ( -0.1875000000000000278, 1.000000000000000000, 0.000000000000000000 ) ) ;
#68 = STYLED_ITEM ( 'NONE', ( #42 ), #233 ) ;
#69 =( NAMED_UNIT ( * ) SI_UNIT ( $, .STERADIAN. ) SOLID_ANGLE_UNIT ( ) );
#70 = CARTESIAN_POINT ( 'NONE',  ( 0.000000000000000000, 0.000000000000000000, 0.000000000000000000 ) ) ;
#71 =( NAMED_UNIT ( * ) PLANE_ANGLE_UNIT ( ) SI_UNIT ( $, .RADIAN. ) );
#72 = MECHANICAL_DESIGN_GEOMETRIC_PRESENTATION_REPRESENTATION (  '', ( #212 ), #205 ) ;
#73 = SURFACE_SIDE_STYLE ('',( #120 ) ) ;
#74 = DIRECTION ( 'NONE',  ( -0.000000000000000000, -1.000000000000000000, -0.000000000000000000 ) ) ;
#75 = DIMENSIONAL_EXPONENTS ( 1.000000000000000000, 0.000000000000000000, 0.000000000000000000, 0.000000000000000000, 0.000000000000000000, 0.000000000000000000, 0.000000000000000000 ) ;
#76 = DIRECTION ( 'NONE',  ( 0.000000000000000000, 0.000000000000000000, -1.000000000000000000 ) ) ;
#77 = VECTOR ( 'NONE', #74, 39.37007874015748143 ) ;
#78 = STYLED_ITEM ( 'NONE', ( #108 ), #256 ) ;
#79 =( NAMED_UNIT ( * ) PLANE_ANGLE_UNIT ( ) SI_UNIT ( $, .RADIAN. ) );
#80 = UNCERTAINTY_MEASURE_WITH_UNIT (LENGTH_MEASURE( 1.000000000000000082E-05 ), #295, 'distance_accuracy_value', 'NONE');
#81 =( LENGTH_UNIT ( ) NAMED_UNIT ( * ) SI_UNIT ( $, .METRE. ) );
#82 = AXIS2_PLACEMENT_3D ( 'NONE', #12, #11, #146 ) ;
#83 = EDGE_CURVE ( 'NONE', #106, #43, #241, .T. ) ;
#84 =( LENGTH_UNIT ( ) NAMED_UNIT ( * ) SI_UNIT ( $, .METRE. ) );
#85 = EDGE_LOOP ( 'NONE', ( #88, #281, #289, #61 ) ) ;
#86 =( CONVERSION_BASED_UNIT ( 'INCH', #4 ) LENGTH_UNIT ( ) NAMED_UNIT ( #92 ) );
#87 = SURFACE_STYLE_USAGE ( .BOTH. , #22 ) ;
#88 = ORIENTED_EDGE ( 'NONE', *, *, #29, .F. ) ;
#89 = CARTESIAN_POINT ( 'NONE',  ( 0.000000000000000000, 1.000000000000000000, 0.000000000000000000 ) ) ;
#90 = DIRECTION ( 'NONE',  ( -1.000000000000000000, 0.000000000000000000, 0.000000000000000000 ) ) ;
#91 = CARTESIAN_POINT ( 'NONE',  ( 0.000000000000000000, 0.000000000000000000, -0.1875000000000000278 ) ) ;
#92 = DIMENSIONAL_EXPONENTS ( 1.000000000000000000, 0.000000000000000000, 0.000000000000000000, 0.000000000000000000, 0.000000000000000000, 0.000000000000000000, 0.000000000000000000 ) ;
#93 = SHAPE_DEFINITION_REPRESENTATION ( #274, #230 ) ;
#94 = AXIS2_PLACEMENT_3D ( 'NONE', #300, #123, #218 ) ;
#95 = PRODUCT_RELATED_PRODUCT_CATEGORY ( 'part', '', ( #264 ) ) ;
#96 = FACE_OUTER_BOUND ( 'NONE', #228, .T. ) ;
#97 = PRESENTATION_STYLE_ASSIGNMENT (( #7 ) ) ;
#98 = PRESENTATION_LAYER_ASSIGNMENT (  '', '', ( #212 ) ) ;
#99 = DIRECTION ( 'NONE',  ( -6.123233995736769734E-17, 1.000000000000000000, 0.000000000000000000 ) ) ;
#100 = PLANE ( 'NONE',  #301 ) ;
#101 = DIRECTION ( 'NONE',  ( -1.000000000000000000, -6.123233995736769734E-17, 0.000000000000000000 ) ) ;
#102 = FACE_OUTER_BOUND ( 'NONE', #261, .T. ) ;
#103 = CARTESIAN_POINT ( 'NONE',  ( 3.515061990613733472E-34, 1.000000000000000000, 0.000000000000000000 ) ) ;
#104 = MECHANICAL_DESIGN_GEOMETRIC_PRESENTATION_REPRESENTATION (  '', ( #165 ), #13 ) ;
#105 = FACE_OUTER_BOUND ( 'NONE', #183, .T. ) ;
#106 = VERTEX_POINT ( 'NONE', #50 ) ;
#107 = ORIENTED_EDGE ( 'NONE', *, *, #83, .T. ) ;
#108 = PRESENTATION_STYLE_ASSIGNMENT (( #87 ) ) ;
#109 = ORIENTED_EDGE ( 'NONE', *, *, #176, .F. ) ;
#110 = CIRCLE ( 'NONE', #115, 0.1875000000000000278 ) ;
#111 = PRESENTATION_LAYER_ASSIGNMENT (  '', '', ( #68 ) ) ;
#112 = ADVANCED_FACE ( 'NONE', ( #96 ), #30, .T. ) ;
#113 =( CONVERSION_BASED_UNIT ( 'INCH', #236 ) LENGTH_UNIT ( ) NAMED_UNIT ( #75 ) );
#114 = VERTEX_POINT ( 'NONE', #198 ) ;
#115 = AXIS2_PLACEMENT_3D ( 'NONE', #238, #141, #167 ) ;
#116 = COLOUR_RGB ( '',0.7921568627450980005, 0.8196078431372548767, 0.9333333333333333481 ) ;
#117 = ADVANCED_FACE ( 'NONE', ( #15 ), #273, .T. ) ;
#118 = UNCERTAINTY_MEASURE_WITH_UNIT (LENGTH_MEASURE( 1.000000000000000082E-05 ), #113, 'distance_accuracy_value', 'NONE');
#119 = CYLINDRICAL_SURFACE ( 'NONE', #216, 0.1875000000000000278 ) ;
#120 = SURFACE_STYLE_FILL_AREA ( #265 ) ;
#121 =( LENGTH_UNIT ( ) NAMED_UNIT ( * ) SI_UNIT ( $, .METRE. ) );
#122 = DIRECTION ( 'NONE',  ( 0.000000000000000000, 0.000000000000000000, -1.000000000000000000 ) ) ;
#123 = DIRECTION ( 'NONE',  ( -6.123233995736769734E-17, 1.000000000000000000, -0.000000000000000000 ) ) ;
#124 = DIRECTION ( 'NONE',  ( -6.123233995736769734E-17, 1.000000000000000000, -0.000000000000000000 ) ) ;
#125 = EDGE_LOOP ( 'NONE', ( #107, #251 ) ) ;
#126 = STYLED_ITEM ( 'NONE', ( #97 ), #112 ) ;
#127 =( NAMED_UNIT ( * ) SI_UNIT ( $, .STERADIAN. ) SOLID_ANGLE_UNIT ( ) );
#128 = FILL_AREA_STYLE ('',( #182 ) ) ;
#129 = EDGE_CURVE ( 'NONE', #286, #106, #174, .T. ) ;
#130 = CARTESIAN_POINT ( 'NONE',  ( 3.032960542342103792E-32, 1.000000000000000000, 0.000000000000000000 ) ) ;
#131 = ORIENTED_EDGE ( 'NONE', *, *, #52, .T. ) ;
#132 =( GEOMETRIC_REPRESENTATION_CONTEXT ( 3 ) GLOBAL_UNCERTAINTY_ASSIGNED_CONTEXT ( ( #239 ) ) GLOBAL_UNIT_ASSIGNED_CONTEXT ( ( #294, #71, #168 ) ) REPRESENTATION_CONTEXT ( 'NONE', 'WORKASPACE' ) );
#133 = AXIS2_PLACEMENT_3D ( 'NONE', #245, #171, #122 ) ;
#134 =( LENGTH_UNIT ( ) NAMED_UNIT ( * ) SI_UNIT ( $, .METRE. ) );
#135 = DIMENSIONAL_EXPONENTS ( 1.000000000000000000, 0.000000000000000000, 0.000000000000000000, 0.000000000000000000, 0.000000000000000000, 0.000000000000000000, 0.000000000000000000 ) ;
#136 = SURFACE_STYLE_FILL_AREA ( #244 ) ;
#137 = EDGE_CURVE ( 'NONE', #65, #19, #26, .T. ) ;
#138 = CARTESIAN_POINT ( 'NONE',  ( 2.296212748401287726E-17, 0.000000000000000000, 0.1875000000000000278 ) ) ;
#139 = PRESENTATION_LAYER_ASSIGNMENT (  '', '', ( #165 ) ) ;
#140 = DIMENSIONAL_EXPONENTS ( 1.000000000000000000, 0.000000000000000000, 0.000000000000000000, 0.000000000000000000, 0.000000000000000000, 0.000000000000000000, 0.000000000000000000 ) ;
#141 = DIRECTION ( 'NONE',  ( -0.000000000000000000, -1.000000000000000000, -0.000000000000000000 ) ) ;
#142 = DIRECTION ( 'NONE',  ( 0.000000000000000000, 0.000000000000000000, -1.000000000000000000 ) ) ;
#143 = EDGE_CURVE ( 'NONE', #180, #43, #247, .T. ) ;
#144 = CARTESIAN_POINT ( 'NONE',  ( 0.000000000000000000, 0.000000000000000000, 0.000000000000000000 ) ) ;
#145 = COLOUR_RGB ( '',1.000000000000000000, 0.000000000000000000, 0.000000000000000000 ) ;
#146 = DIRECTION ( 'NONE',  ( -1.000000000000000000, 0.000000000000000000, 0.000000000000000000 ) ) ;
#147 = FACE_OUTER_BOUND ( 'NONE', #226, .T. ) ;
#148 = DIRECTION ( 'NONE',  ( -1.000000000000000000, 0.000000000000000000, 0.000000000000000000 ) ) ;
#149 = SURFACE_SIDE_STYLE ('',( #276 ) ) ;
#150 =( GEOMETRIC_REPRESENTATION_CONTEXT ( 3 ) GLOBAL_UNCERTAINTY_ASSIGNED_CONTEXT ( ( #3 ) ) GLOBAL_UNIT_ASSIGNED_CONTEXT ( ( #231, #304, #157 ) ) REPRESENTATION_CONTEXT ( 'NONE', 'WORKASPACE' ) );
#151 = DIRECTION ( 'NONE',  ( -6.123233995736769734E-17, 1.000000000000000000, -0.000000000000000000 ) ) ;
#152 =( CONVERSION_BASED_UNIT ( 'INCH', #38 ) LENGTH_UNIT ( ) NAMED_UNIT ( #288 ) );
#153 = ORIENTED_EDGE ( 'NONE', *, *, #206, .T. ) ;
#154 = PLANE ( 'NONE',  #9 ) ;
#155 = ORIENTED_EDGE ( 'NONE', *, *, #129, .T. ) ;
#156 = DIRECTION ( 'NONE',  ( 1.000000000000000000, 0.000000000000000000, 0.000000000000000000 ) ) ;
#157 =( NAMED_UNIT ( * ) SI_UNIT ( $, .STERADIAN. ) SOLID_ANGLE_UNIT ( ) );
#158 = ORIENTED_EDGE ( 'NONE', *, *, #143, .F. ) ;
#159 =( NAMED_UNIT ( * ) PLANE_ANGLE_UNIT ( ) SI_UNIT ( $, .RADIAN. ) );
#160 = DIRECTION ( 'NONE',  ( 1.000000000000000000, 6.123233995736769734E-17, 0.000000000000000000 ) ) ;
#161 = UNCERTAINTY_MEASURE_WITH_UNIT (LENGTH_MEASURE( 1.000000000000000082E-05 ), #217, 'distance_accuracy_value', 'NONE');
#162 = AXIS2_PLACEMENT_3D ( 'NONE', #70, #305, #156 ) ;
#163 = DIRECTION ( 'NONE',  ( -0.000000000000000000, -1.000000000000000000, -0.000000000000000000 ) ) ;
#164 = COLOUR_RGB ( '',1.000000000000000000, 0.000000000000000000, 0.000000000000000000 ) ;
#165 = STYLED_ITEM ( 'NONE', ( #282 ), #253 ) ;
#166 = ADVANCED_FACE ( 'NONE', ( #102 ), #51, .T. ) ;
#167 = DIRECTION ( 'NONE',  ( 0.000000000000000000, 0.000000000000000000, -1.000000000000000000 ) ) ;
#168 =( NAMED_UNIT ( * ) SI_UNIT ( $, .STERADIAN. ) SOLID_ANGLE_UNIT ( ) );
#169 = CIRCLE ( 'NONE', #219, 0.1875000000000000278 ) ;
#170 = DIRECTION ( 'NONE',  ( -0.000000000000000000, -1.000000000000000000, -0.000000000000000000 ) ) ;
#171 = DIRECTION ( 'NONE',  ( -0.000000000000000000, -1.000000000000000000, -0.000000000000000000 ) ) ;
#172 = MECHANICAL_DESIGN_GEOMETRIC_PRESENTATION_REPRESENTATION (  '', ( #68 ), #150 ) ;
#173 = FACE_OUTER_BOUND ( 'NONE', #21, .T. ) ;
#174 = LINE ( 'NONE', #275, #53 ) ;
#175 = DIRECTION ( 'NONE',  ( 0.000000000000000000, 0.000000000000000000, -1.000000000000000000 ) ) ;
#176 = EDGE_CURVE ( 'NONE', #43, #106, #63, .T. ) ;
#177 = CLOSED_SHELL ( 'NONE', ( #166, #199, #242, #252 ) ) ;
#178 = FILL_AREA_STYLE ('',( #296 ) ) ;
#179 = CARTESIAN_POINT ( 'NONE',  ( 0.1875000000000000278, 3.000000000000000444, 0.000000000000000000 ) ) ;
#180 = VERTEX_POINT ( 'NONE', #35 ) ;
#181 = ORIENTED_EDGE ( 'NONE', *, *, #137, .T. ) ;
#182 = FILL_AREA_STYLE_COLOUR ( '', #309 ) ;
#183 = EDGE_LOOP ( 'NONE', ( #158, #153, #155, #109 ) ) ;
#184 = CARTESIAN_POINT ( 'NONE',  ( 2.296212748401287726E-17, 0.000000000000000000, 0.1875000000000000278 ) ) ;
#185 =( NAMED_UNIT ( * ) SI_UNIT ( $, .STERADIAN. ) SOLID_ANGLE_UNIT ( ) );
#186 = DIRECTION ( 'NONE',  ( 0.000000000000000000, -0.000000000000000000, 1.000000000000000000 ) ) ;
#187 = DIRECTION ( 'NONE',  ( -6.123233995736769734E-17, 1.000000000000000000, -0.000000000000000000 ) ) ;
#188 = CARTESIAN_POINT ( 'NONE',  ( -1.224646799147353700E-16, 3.000000000000000444, 0.000000000000000000 ) ) ;
#189 = AXIS2_PLACEMENT_3D ( 'NONE', #221, #34, #76 ) ;
#190 = LENGTH_MEASURE_WITH_UNIT ( LENGTH_MEASURE( 0.02539999999999999897 ), #121 );
#191 =( NAMED_UNIT ( * ) PLANE_ANGLE_UNIT ( ) SI_UNIT ( $, .RADIAN. ) );
#192 = AXIS2_PLACEMENT_3D ( 'NONE', #45, #254, #257 ) ;
#193 = DIRECTION ( 'NONE',  ( 0.000000000000000000, 0.000000000000000000, -1.000000000000000000 ) ) ;
#194 = AXIS2_PLACEMENT_3D ( 'NONE', #188, #27, #5 ) ;
#195 = FILL_AREA_STYLE ('',( #246 ) ) ;
#196 = SURFACE_STYLE_FILL_AREA ( #195 ) ;
#197 = UNCERTAINTY_MEASURE_WITH_UNIT (LENGTH_MEASURE( 1.000000000000000082E-05 ), #86, 'distance_accuracy_value', 'NONE');
#198 = CARTESIAN_POINT ( 'NONE',  ( 0.000000000000000000, 0.000000000000000000, -0.1875000000000000278 ) ) ;
#199 = ADVANCED_FACE ( 'NONE', ( #173 ), #54, .F. ) ;
#200 = EDGE_LOOP ( 'NONE', ( #40, #131 ) ) ;
#201 = PRODUCT_CONTEXT ( 'NONE', #299, 'mechanical' ) ;
#202 = ORIENTED_EDGE ( 'NONE', *, *, #23, .F. ) ;
#203 = CLOSED_SHELL ( 'NONE', ( #112, #233, #62, #117 ) ) ;
#204 = ORIENTED_EDGE ( 'NONE', *, *, #23, .T. ) ;
#205 =( GEOMETRIC_REPRESENTATION_CONTEXT ( 3 ) GLOBAL_UNCERTAINTY_ASSIGNED_CONTEXT ( ( #80 ) ) GLOBAL_UNIT_ASSIGNED_CONTEXT ( ( #295, #79, #249 ) ) REPRESENTATION_CONTEXT ( 'NONE', 'WORKASPACE' ) );
#206 = EDGE_CURVE ( 'NONE', #180, #286, #248, .T. ) ;
#207 = LENGTH_MEASURE_WITH_UNIT ( LENGTH_MEASURE( 0.02539999999999999897 ), #84 );
#208 = ORIENTED_EDGE ( 'NONE', *, *, #291, .F. ) ;
#209 =( NAMED_UNIT ( * ) SI_UNIT ( $, .STERADIAN. ) SOLID_ANGLE_UNIT ( ) );
#210 = APPLICATION_PROTOCOL_DEFINITION ( 'draft international standard', 'automotive_design', 1998, #299 ) ;
#211 = LINE ( 'NONE', #138, #77 ) ;
#212 = STYLED_ITEM ( 'NONE', ( #56 ), #117 ) ;
#213 = SURFACE_SIDE_STYLE ('',( #136 ) ) ;
#214 = CARTESIAN_POINT ( 'NONE',  ( 0.000000000000000000, 0.000000000000000000, 0.000000000000000000 ) ) ;
#215 = SURFACE_STYLE_USAGE ( .BOTH. , #73 ) ;
#216 = AXIS2_PLACEMENT_3D ( 'NONE', #214, #170, #142 ) ;
#217 =( CONVERSION_BASED_UNIT ( 'INCH', #190 ) LENGTH_UNIT ( ) NAMED_UNIT ( #292 ) );
#218 = DIRECTION ( 'NONE',  ( -1.000000000000000000, 0.000000000000000000, 0.000000000000000000 ) ) ;
#219 = AXIS2_PLACEMENT_3D ( 'NONE', #260, #64, #46 ) ;
#220 = PRESENTATION_LAYER_ASSIGNMENT (  '', '', ( #78 ) ) ;
#221 = CARTESIAN_POINT ( 'NONE',  ( 0.000000000000000000, 0.000000000000000000, 0.000000000000000000 ) ) ;
#222 = EDGE_CURVE ( 'NONE', #19, #65, #44, .T. ) ;
#223 = FILL_AREA_STYLE ('',( #302 ) ) ;
#224 = VECTOR ( 'NONE', #163, 39.37007874015748143 ) ;
#225 = COLOUR_RGB ( '',1.000000000000000000, 0.000000000000000000, 0.000000000000000000 ) ;
#226 = EDGE_LOOP ( 'NONE', ( #25, #258 ) ) ;
#227 =( NAMED_UNIT ( * ) PLANE_ANGLE_UNIT ( ) SI_UNIT ( $, .RADIAN. ) );
#228 = EDGE_LOOP ( 'NONE', ( #181, #307, #259, #208 ) ) ;
#229 = SURFACE_STYLE_FILL_AREA ( #128 ) ;
#230 = ADVANCED_BREP_SHAPE_REPRESENTATION ( '00345', ( #253, #256, #162 ), #290 ) ;
#231 =( CONVERSION_BASED_UNIT ( 'INCH', #207 ) LENGTH_UNIT ( ) NAMED_UNIT ( #135 ) );
#232 = MECHANICAL_DESIGN_GEOMETRIC_PRESENTATION_REPRESENTATION (  '', ( #297 ), #132 ) ;
#233 = ADVANCED_FACE ( 'NONE', ( #147 ), #100, .T. ) ;
#234 = CARTESIAN_POINT ( 'NONE',  ( 2.296212748401287726E-17, 1.000000000000000000, 0.1875000000000000278 ) ) ;
#235 = AXIS2_PLACEMENT_3D ( 'NONE', #250, #124, #148 ) ;
#236 = LENGTH_MEASURE_WITH_UNIT ( LENGTH_MEASURE( 0.02539999999999999897 ), #134 );
#237 = ORIENTED_EDGE ( 'NONE', *, *, #83, .F. ) ;
#238 = CARTESIAN_POINT ( 'NONE',  ( 0.000000000000000000, 0.000000000000000000, 0.000000000000000000 ) ) ;
#239 = UNCERTAINTY_MEASURE_WITH_UNIT (LENGTH_MEASURE( 1.000000000000000082E-05 ), #294, 'distance_accuracy_value', 'NONE');
#240 = LENGTH_MEASURE_WITH_UNIT ( LENGTH_MEASURE( 0.02539999999999999897 ), #271 );
#241 = CIRCLE ( 'NONE', #194, 0.1875000000000001388 ) ;
#242 = ADVANCED_FACE ( 'NONE', ( #105 ), #284, .T. ) ;
#243 = PRESENTATION_STYLE_ASSIGNMENT (( #215 ) ) ;
#244 = FILL_AREA_STYLE ('',( #47 ) ) ;
#245 = CARTESIAN_POINT ( 'NONE',  ( 0.000000000000000000, 1.000000000000000000, 0.000000000000000000 ) ) ;
#246 = FILL_AREA_STYLE_COLOUR ( '', #24 ) ;
#247 = LINE ( 'NONE', #55, #33 ) ;
#248 = CIRCLE ( 'NONE', #82, 0.1875000000000000278 ) ;
#249 =( NAMED_UNIT ( * ) SI_UNIT ( $, .STERADIAN. ) SOLID_ANGLE_UNIT ( ) );
#250 = CARTESIAN_POINT ( 'NONE',  ( -1.224646799147353700E-16, 3.000000000000000444, 0.000000000000000000 ) ) ;
#251 = ORIENTED_EDGE ( 'NONE', *, *, #176, .T. ) ;
#252 = ADVANCED_FACE ( 'NONE', ( #287 ), #154, .F. ) ;
#253 = MANIFOLD_SOLID_BREP ( 'Revolve - Cutting Edge', #203 ) ;
#254 = DIRECTION ( 'NONE',  ( -6.123233995736769734E-17, 1.000000000000000000, -0.000000000000000000 ) ) ;
#255 = MECHANICAL_DESIGN_GEOMETRIC_PRESENTATION_REPRESENTATION (  '', ( #78 ), #270 ) ;
#256 = MANIFOLD_SOLID_BREP ( 'Revolve - Tool Body (Straight Shanked)', #177 ) ;
#257 = DIRECTION ( 'NONE',  ( -1.000000000000000000, 0.000000000000000000, 0.000000000000000000 ) ) ;
#258 = ORIENTED_EDGE ( 'NONE', *, *, #222, .F. ) ;
#259 = ORIENTED_EDGE ( 'NONE', *, *, #268, .F. ) ;
#260 = CARTESIAN_POINT ( 'NONE',  ( 0.000000000000000000, 0.000000000000000000, 0.000000000000000000 ) ) ;
#261 = EDGE_LOOP ( 'NONE', ( #204, #36, #237, #285 ) ) ;
#262 = MECHANICAL_DESIGN_GEOMETRIC_PRESENTATION_REPRESENTATION (  '', ( #126 ), #293 ) ;
#263 =( LENGTH_UNIT ( ) NAMED_UNIT ( * ) SI_UNIT ( $, .METRE. ) );
#264 = PRODUCT ( '00345', '00345', '', ( #201 ) ) ;
#265 = FILL_AREA_STYLE ('',( #269 ) ) ;
#266 = PRODUCT_DEFINITION ( 'UNKNOWN', '', #49, #60 ) ;
#267 = CARTESIAN_POINT ( 'NONE',  ( 0.000000000000000000, 1.000000000000000000, -0.1875000000000000278 ) ) ;
#268 = EDGE_CURVE ( 'NONE', #114, #283, #169, .T. ) ;
#269 = FILL_AREA_STYLE_COLOUR ( '', #164 ) ;
#270 =( GEOMETRIC_REPRESENTATION_CONTEXT ( 3 ) GLOBAL_UNCERTAINTY_ASSIGNED_CONTEXT ( ( #118 ) ) GLOBAL_UNIT_ASSIGNED_CONTEXT ( ( #113, #308, #209 ) ) REPRESENTATION_CONTEXT ( 'NONE', 'WORKASPACE' ) );
#271 =( LENGTH_UNIT ( ) NAMED_UNIT ( * ) SI_UNIT ( $, .METRE. ) );
#272 = AXIS2_PLACEMENT_3D ( 'NONE', #103, #99, #101 ) ;
#273 = PLANE ( 'NONE',  #189 ) ;
#274 = PRODUCT_DEFINITION_SHAPE ( 'NONE', 'NONE',  #266 ) ;
#275 = CARTESIAN_POINT ( 'NONE',  ( -0.1875000000000002220, 3.000000000000000444, 0.000000000000000000 ) ) ;
#276 = SURFACE_STYLE_FILL_AREA ( #178 ) ;
#277 = CIRCLE ( 'NONE', #37, 0.1875000000000000278 ) ;
#278 = AXIS2_PLACEMENT_3D ( 'NONE', #144, #10, #175 ) ;
#279 = LENGTH_MEASURE_WITH_UNIT ( LENGTH_MEASURE( 0.02539999999999999897 ), #81 );
#280 = SURFACE_SIDE_STYLE ('',( #16 ) ) ;
#281 = ORIENTED_EDGE ( 'NONE', *, *, #222, .T. ) ;
#282 = PRESENTATION_STYLE_ASSIGNMENT (( #306 ) ) ;
#283 = VERTEX_POINT ( 'NONE', #184 ) ;
#284 = CYLINDRICAL_SURFACE ( 'NONE', #192, 0.1875000000000000833 ) ;
#285 = ORIENTED_EDGE ( 'NONE', *, *, #129, .F. ) ;
#286 = VERTEX_POINT ( 'NONE', #67 ) ;
#287 = FACE_OUTER_BOUND ( 'NONE', #125, .T. ) ;
#288 = DIMENSIONAL_EXPONENTS ( 1.000000000000000000, 0.000000000000000000, 0.000000000000000000, 0.000000000000000000, 0.000000000000000000, 0.000000000000000000, 0.000000000000000000 ) ;
#289 = ORIENTED_EDGE ( 'NONE', *, *, #291, .T. ) ;
#290 =( GEOMETRIC_REPRESENTATION_CONTEXT ( 3 ) GLOBAL_UNCERTAINTY_ASSIGNED_CONTEXT ( ( #197 ) ) GLOBAL_UNIT_ASSIGNED_CONTEXT ( ( #86, #159, #185 ) ) REPRESENTATION_CONTEXT ( 'NONE', 'WORKASPACE' ) );
#291 = EDGE_CURVE ( 'NONE', #65, #114, #2, .T. ) ;
#292 = DIMENSIONAL_EXPONENTS ( 1.000000000000000000, 0.000000000000000000, 0.000000000000000000, 0.000000000000000000, 0.000000000000000000, 0.000000000000000000, 0.000000000000000000 ) ;
#293 =( GEOMETRIC_REPRESENTATION_CONTEXT ( 3 ) GLOBAL_UNCERTAINTY_ASSIGNED_CONTEXT ( ( #161 ) ) GLOBAL_UNIT_ASSIGNED_CONTEXT ( ( #217, #191, #69 ) ) REPRESENTATION_CONTEXT ( 'NONE', 'WORKASPACE' ) );
#294 =( CONVERSION_BASED_UNIT ( 'INCH', #240 ) LENGTH_UNIT ( ) NAMED_UNIT ( #140 ) );
#295 =( CONVERSION_BASED_UNIT ( 'INCH', #279 ) LENGTH_UNIT ( ) NAMED_UNIT ( #28 ) );
#296 = FILL_AREA_STYLE_COLOUR ( '', #225 ) ;
#297 = STYLED_ITEM ( 'NONE', ( #243 ), #62 ) ;
#298 = PRESENTATION_LAYER_ASSIGNMENT (  '', '', ( #126 ) ) ;
#299 = APPLICATION_CONTEXT ( 'automotive_design' ) ;
#300 = CARTESIAN_POINT ( 'NONE',  ( -1.224646799147353700E-16, 3.000000000000000444, 0.000000000000000000 ) ) ;
#301 = AXIS2_PLACEMENT_3D ( 'NONE', #89, #1, #186 ) ;
#302 = FILL_AREA_STYLE_COLOUR ( '', #116 ) ;
#303 = APPLICATION_CONTEXT ( 'automotive_design' ) ;
#304 =( NAMED_UNIT ( * ) PLANE_ANGLE_UNIT ( ) SI_UNIT ( $, .RADIAN. ) );
#305 = DIRECTION ( 'NONE',  ( 0.000000000000000000, 0.000000000000000000, 1.000000000000000000 ) ) ;
#306 = SURFACE_STYLE_USAGE ( .BOTH. , #280 ) ;
#307 = ORIENTED_EDGE ( 'NONE', *, *, #29, .T. ) ;
#308 =( NAMED_UNIT ( * ) PLANE_ANGLE_UNIT ( ) SI_UNIT ( $, .RADIAN. ) );
#309 = COLOUR_RGB ( '',0.7921568627450980005, 0.8196078431372548767, 0.9333333333333333481 ) ;
ENDSEC;
END-ISO-10303-21;
