ISO-10303-21;
HEADER;
FILE_DESCRIPTION (( 'STEP AP214' ),
    '1' );
FILE_NAME ('Micro_GEM-500-3X.STEP',
    '2021-09-01T20:48:46',
    ( '' ),
    ( '' ),
    'SwSTEP 2.0',
    'SolidWorks 2020',
    '' );
FILE_SCHEMA (( 'AUTOMOTIVE_DESIGN' ));
ENDSEC;

DATA;
#1 = ORIENTED_EDGE ( 'NONE', *, *, #83, .F. ) ;
#2 =( LENGTH_UNIT ( ) NAMED_UNIT ( * ) SI_UNIT ( $, .METRE. ) );
#3 = CARTESIAN_POINT ( 'NONE',  ( 0.2497499999999999998, 3.058555380870514950E-17, -3.058555380870515566E-17 ) ) ;
#4 = DIRECTION ( 'NONE',  ( 1.000000000000000000, 0.0000000000000000000, 0.0000000000000000000 ) ) ;
#5 = DIRECTION ( 'NONE',  ( 1.000000000000000000, 0.0000000000000000000, 0.0000000000000000000 ) ) ;
#6 = ORIENTED_EDGE ( 'NONE', *, *, #19, .F. ) ;
#7 = DIRECTION ( 'NONE',  ( 0.0000000000000000000, 0.0000000000000000000, -1.000000000000000000 ) ) ;
#8 = FACE_OUTER_BOUND ( 'NONE', #84, .T. ) ;
#9 = DIRECTION ( 'NONE',  ( 1.000000000000000000, 0.0000000000000000000, 0.0000000000000000000 ) ) ;
#10 = CIRCLE ( 'NONE', #97, 0.2497499999999999998 ) ;
#11 = CARTESIAN_POINT ( 'NONE',  ( 0.0000000000000000000, 0.0000000000000000000, 3.000000000000000444 ) ) ;
#12 = LINE ( 'NONE', #275, #277 ) ;
#13 = FILL_AREA_STYLE_COLOUR ( '', #234 ) ;
#14 = AXIS2_PLACEMENT_3D ( 'NONE', #261, #140, #122 ) ;
#15 = LINE ( 'NONE', #224, #67 ) ;
#16 = AXIS2_PLACEMENT_3D ( 'NONE', #285, #146, #200 ) ;
#17 = DIRECTION ( 'NONE',  ( 0.0000000000000000000, 0.0000000000000000000, 1.000000000000000000 ) ) ;
#18 = AXIS2_PLACEMENT_3D ( 'NONE', #260, #104, #5 ) ;
#19 = EDGE_CURVE ( 'NONE', #103, #96, #26, .T. ) ;
#20 = ORIENTED_EDGE ( 'NONE', *, *, #108, .F. ) ;
#21 = STYLED_ITEM ( 'NONE', ( #201 ), #156 ) ;
#22 = ADVANCED_FACE ( 'NONE', ( #8 ), #29, .T. ) ;
#23 = ORIENTED_EDGE ( 'NONE', *, *, #187, .T. ) ;
#24 = PRODUCT_DEFINITION ( 'UNKNOWN', '', #248, #98 ) ;
#25 = VERTEX_POINT ( 'NONE', #101 ) ;
#26 = CIRCLE ( 'NONE', #14, 0.2350000000000011524 ) ;
#27 = VECTOR ( 'NONE', #213, 39.37007874015747433 ) ;
#28 = CARTESIAN_POINT ( 'NONE',  ( 0.0000000000000000000, 0.0000000000000000000, 3.000000000000000444 ) ) ;
#29 = CYLINDRICAL_SURFACE ( 'NONE', #293, 0.2500000000000000000 ) ;
#30 = CARTESIAN_POINT ( 'NONE',  ( 0.0000000000000000000, 0.0000000000000000000, 0.0000000000000000000 ) ) ;
#31 = VERTEX_POINT ( 'NONE', #191 ) ;
#32 = DIRECTION ( 'NONE',  ( 0.0000000000000000000, 0.0000000000000000000, -1.000000000000000000 ) ) ;
#33 = ORIENTED_EDGE ( 'NONE', *, *, #116, .T. ) ;
#34 = SHAPE_DEFINITION_REPRESENTATION ( #182, #68 ) ;
#35 = CARTESIAN_POINT ( 'NONE',  ( 0.0000000000000000000, 0.0000000000000000000, 3.000000000000000444 ) ) ;
#36 =( GEOMETRIC_REPRESENTATION_CONTEXT ( 3 ) GLOBAL_UNCERTAINTY_ASSIGNED_CONTEXT ( ( #217 ) ) GLOBAL_UNIT_ASSIGNED_CONTEXT ( ( #279, #65, #284 ) ) REPRESENTATION_CONTEXT ( 'NONE', 'WORKASPACE' ) );
#37 = DIRECTION ( 'NONE',  ( 0.0000000000000000000, 0.0000000000000000000, -1.000000000000000000 ) ) ;
#38 = CARTESIAN_POINT ( 'NONE',  ( 0.2500000000000000000, 3.061616997868382402E-17, 3.000000000000000444 ) ) ;
#39 = DIRECTION ( 'NONE',  ( -1.000000000000000000, 0.0000000000000000000, 0.0000000000000000000 ) ) ;
#40 = DIRECTION ( 'NONE',  ( 1.000000000000000000, 0.0000000000000000000, 0.0000000000000000000 ) ) ;
#41 = SURFACE_STYLE_FILL_AREA ( #178 ) ;
#42 = CIRCLE ( 'NONE', #78, 0.2497499999999999998 ) ;
#43 = CARTESIAN_POINT ( 'NONE',  ( 0.2350000000000011524, 2.969768487932338510E-17, 3.000000000000000444 ) ) ;
#44 = CIRCLE ( 'NONE', #18, 0.2350000000000011524 ) ;
#45 = VERTEX_POINT ( 'NONE', #212 ) ;
#46 = PRESENTATION_LAYER_ASSIGNMENT (  '', '', ( #21 ) ) ;
#47 = AXIS2_PLACEMENT_3D ( 'NONE', #179, #107, #40 ) ;
#48 = ADVANCED_FACE ( 'NONE', ( #73 ), #52, .T. ) ;
#49 = ORIENTED_EDGE ( 'NONE', *, *, #184, .F. ) ;
#50 = LINE ( 'NONE', #245, #27 ) ;
#51 = ORIENTED_EDGE ( 'NONE', *, *, #249, .F. ) ;
#52 = CONICAL_SURFACE ( 'NONE', #197, 0.2497499999999999998, 0.1745329251994339192 ) ;
#53 = FACE_OUTER_BOUND ( 'NONE', #298, .T. ) ;
#54 = CARTESIAN_POINT ( 'NONE',  ( 0.0000000000000000000, 0.0000000000000000000, 0.0000000000000000000 ) ) ;
#55 = CYLINDRICAL_SURFACE ( 'NONE', #143, 0.2500000000000000000 ) ;
#56 = ORIENTED_EDGE ( 'NONE', *, *, #297, .T. ) ;
#57 = DIRECTION ( 'NONE',  ( 0.1736481776669314137, 0.0000000000000000000, 0.9848077530122077983 ) ) ;
#58 = EDGE_LOOP ( 'NONE', ( #259, #243, #149, #240 ) ) ;
#59 = CYLINDRICAL_SURFACE ( 'NONE', #63, 0.2497499999999999998 ) ;
#60 = CIRCLE ( 'NONE', #299, 0.2497499999999999998 ) ;
#61 = DIRECTION ( 'NONE',  ( -0.0000000000000000000, -0.0000000000000000000, -1.000000000000000000 ) ) ;
#62 = CARTESIAN_POINT ( 'NONE',  ( 0.2350000000000011524, 2.877919977996294002E-17, 3.000000000000000444 ) ) ;
#63 = AXIS2_PLACEMENT_3D ( 'NONE', #30, #151, #221 ) ;
#64 = CARTESIAN_POINT ( 'NONE',  ( 0.2497499999999999998, 3.058555380870514950E-17, 0.0000000000000000000 ) ) ;
#65 =( NAMED_UNIT ( * ) PLANE_ANGLE_UNIT ( ) SI_UNIT ( $, .RADIAN. ) );
#66 = VERTEX_POINT ( 'NONE', #106 ) ;
#67 = VECTOR ( 'NONE', #61, 39.37007874015748143 ) ;
#68 = ADVANCED_BREP_SHAPE_REPRESENTATION ( 'Micro_GEM-500-3X', ( #156, #47 ), #36 ) ;
#69 = CIRCLE ( 'NONE', #271, 0.2497499999999999998 ) ;
#70 = EDGE_LOOP ( 'NONE', ( #172, #257, #282, #136 ) ) ;
#71 = LINE ( 'NONE', #218, #262 ) ;
#72 = DIMENSIONAL_EXPONENTS ( 1.000000000000000000, 0.0000000000000000000, 0.0000000000000000000, 0.0000000000000000000, 0.0000000000000000000, 0.0000000000000000000, 0.0000000000000000000 ) ;
#73 = FACE_OUTER_BOUND ( 'NONE', #291, .T. ) ;
#74 = ADVANCED_FACE ( 'NONE', ( #125 ), #264, .F. ) ;
#75 = DIRECTION ( 'NONE',  ( -0.0000000000000000000, -0.0000000000000000000, -1.000000000000000000 ) ) ;
#76 = ORIENTED_EDGE ( 'NONE', *, *, #135, .F. ) ;
#77 = FILL_AREA_STYLE_COLOUR ( '', #247 ) ;
#78 = AXIS2_PLACEMENT_3D ( 'NONE', #82, #91, #181 ) ;
#79 = DIRECTION ( 'NONE',  ( -1.224646799147353454E-16, -0.0000000000000000000, -1.000000000000000000 ) ) ;
#80 = CARTESIAN_POINT ( 'NONE',  ( -0.2497499999999999998, 0.0000000000000000000, 3.058555380870515566E-17 ) ) ;
#81 =( NAMED_UNIT ( * ) SI_UNIT ( $, .STERADIAN. ) SOLID_ANGLE_UNIT ( ) );
#82 = CARTESIAN_POINT ( 'NONE',  ( 3.745650057197990990E-33, 0.0000000000000000000, 3.058555380870515566E-17 ) ) ;
#83 = EDGE_CURVE ( 'NONE', #235, #95, #196, .T. ) ;
#84 = EDGE_LOOP ( 'NONE', ( #199, #120, #216, #128 ) ) ;
#85 = DIRECTION ( 'NONE',  ( -1.000000000000000000, 0.0000000000000000000, 0.0000000000000000000 ) ) ;
#86 = LENGTH_MEASURE_WITH_UNIT ( LENGTH_MEASURE( 0.02539999999999999897 ), #254 );
#87 =( NAMED_UNIT ( * ) PLANE_ANGLE_UNIT ( ) SI_UNIT ( $, .RADIAN. ) );
#88 = CARTESIAN_POINT ( 'NONE',  ( 1.224646799147353454E-16, 0.0000000000000000000, 1.000000000000000000 ) ) ;
#89 =( NAMED_UNIT ( * ) SI_UNIT ( $, .STERADIAN. ) SOLID_ANGLE_UNIT ( ) );
#90 = CIRCLE ( 'NONE', #208, 0.2500000000000000000 ) ;
#91 = DIRECTION ( 'NONE',  ( -1.224646799147353454E-16, -0.0000000000000000000, -1.000000000000000000 ) ) ;
#92 = ORIENTED_EDGE ( 'NONE', *, *, #297, .F. ) ;
#93 = UNCERTAINTY_MEASURE_WITH_UNIT (LENGTH_MEASURE( 1.000000000000000082E-05 ), #203, 'distance_accuracy_value', 'NONE');
#94 = VECTOR ( 'NONE', #75, 39.37007874015748143 ) ;
#95 = VERTEX_POINT ( 'NONE', #152 ) ;
#96 = VERTEX_POINT ( 'NONE', #251 ) ;
#97 = AXIS2_PLACEMENT_3D ( 'NONE', #88, #175, #39 ) ;
#98 = PRODUCT_DEFINITION_CONTEXT ( 'detailed design', #220, 'design' ) ;
#99 = ORIENTED_EDGE ( 'NONE', *, *, #135, .T. ) ;
#100 = DIRECTION ( 'NONE',  ( 1.000000000000000000, 0.0000000000000000000, 0.0000000000000000000 ) ) ;
#101 = CARTESIAN_POINT ( 'NONE',  ( -0.2500000000000000000, 0.0000000000000000000, 2.985000000000001208 ) ) ;
#102 = CARTESIAN_POINT ( 'NONE',  ( 0.2500000000000000000, 3.061616997868382402E-17, 2.985000000000001208 ) ) ;
#103 = VERTEX_POINT ( 'NONE', #43 ) ;
#104 = DIRECTION ( 'NONE',  ( 0.0000000000000000000, 0.0000000000000000000, 1.000000000000000000 ) ) ;
#105 = DIMENSIONAL_EXPONENTS ( 1.000000000000000000, 0.0000000000000000000, 0.0000000000000000000, 0.0000000000000000000, 0.0000000000000000000, 0.0000000000000000000, 0.0000000000000000000 ) ;
#106 = CARTESIAN_POINT ( 'NONE',  ( 0.2500000000000001110, 3.061616997868383634E-17, 1.001417820454904462 ) ) ;
#107 = DIRECTION ( 'NONE',  ( 0.0000000000000000000, 0.0000000000000000000, 1.000000000000000000 ) ) ;
#108 = EDGE_CURVE ( 'NONE', #31, #235, #10, .T. ) ;
#109 = DIRECTION ( 'NONE',  ( 1.000000000000000000, 0.0000000000000000000, -0.0000000000000000000 ) ) ;
#110 = DIRECTION ( 'NONE',  ( -1.000000000000000000, 0.0000000000000000000, 0.0000000000000000000 ) ) ;
#111 = DIRECTION ( 'NONE',  ( -1.224646799147353454E-16, -0.0000000000000000000, -1.000000000000000000 ) ) ;
#112 = CONICAL_SURFACE ( 'NONE', #256, 0.2497499999999999998, 0.1745329251994339192 ) ;
#113 = DIRECTION ( 'NONE',  ( 1.000000000000000000, 0.0000000000000000000, 0.0000000000000000000 ) ) ;
#114 =( NAMED_UNIT ( * ) PLANE_ANGLE_UNIT ( ) SI_UNIT ( $, .RADIAN. ) );
#115 = APPLICATION_CONTEXT ( 'automotive_design' ) ;
#116 = EDGE_CURVE ( 'NONE', #103, #268, #205, .T. ) ;
#117 = ORIENTED_EDGE ( 'NONE', *, *, #184, .T. ) ;
#118 =( GEOMETRIC_REPRESENTATION_CONTEXT ( 3 ) GLOBAL_UNCERTAINTY_ASSIGNED_CONTEXT ( ( #278 ) ) GLOBAL_UNIT_ASSIGNED_CONTEXT ( ( #237, #114, #81 ) ) REPRESENTATION_CONTEXT ( 'NONE', 'WORKASPACE' ) );
#119 = SURFACE_SIDE_STYLE ('',( #168 ) ) ;
#120 = ORIENTED_EDGE ( 'NONE', *, *, #273, .T. ) ;
#121 = EDGE_CURVE ( 'NONE', #25, #45, #15, .T. ) ;
#122 = DIRECTION ( 'NONE',  ( 1.000000000000000000, 0.0000000000000000000, 0.0000000000000000000 ) ) ;
#123 = AXIS2_PLACEMENT_3D ( 'NONE', #226, #153, #113 ) ;
#124 = PRESENTATION_STYLE_ASSIGNMENT (( #210 ) ) ;
#125 = FACE_OUTER_BOUND ( 'NONE', #155, .T. ) ;
#126 = DIRECTION ( 'NONE',  ( -1.224646799147353454E-16, -0.0000000000000000000, -1.000000000000000000 ) ) ;
#127 = DIRECTION ( 'NONE',  ( 1.000000000000000000, 0.0000000000000000000, -0.0000000000000000000 ) ) ;
#128 = ORIENTED_EDGE ( 'NONE', *, *, #121, .F. ) ;
#129 = CIRCLE ( 'NONE', #167, 0.2500000000000000000 ) ;
#130 = SURFACE_STYLE_USAGE ( .BOTH. , #274 ) ;
#131 = DIRECTION ( 'NONE',  ( 1.000000000000000000, 0.0000000000000000000, 0.0000000000000000000 ) ) ;
#132 = ADVANCED_FACE ( 'NONE', ( #180 ), #112, .T. ) ;
#133 = MECHANICAL_DESIGN_GEOMETRIC_PRESENTATION_REPRESENTATION (  '', ( #21 ), #150 ) ;
#134 = FACE_OUTER_BOUND ( 'NONE', #165, .T. ) ;
#135 = EDGE_CURVE ( 'NONE', #96, #25, #12, .T. ) ;
#136 = ORIENTED_EDGE ( 'NONE', *, *, #231, .F. ) ;
#137 = STYLED_ITEM ( 'NONE', ( #124 ), #68 ) ;
#138 = LENGTH_MEASURE_WITH_UNIT ( LENGTH_MEASURE( 0.02539999999999999897 ), #2 );
#139 = EDGE_CURVE ( 'NONE', #45, #66, #280, .T. ) ;
#140 = DIRECTION ( 'NONE',  ( 0.0000000000000000000, 0.0000000000000000000, 1.000000000000000000 ) ) ;
#141 = DIRECTION ( 'NONE',  ( -0.0000000000000000000, -0.0000000000000000000, -1.000000000000000000 ) ) ;
#142 = ORIENTED_EDGE ( 'NONE', *, *, #233, .T. ) ;
#143 = AXIS2_PLACEMENT_3D ( 'NONE', #28, #141, #198 ) ;
#144 = CARTESIAN_POINT ( 'NONE',  ( 0.0000000000000000000, 0.0000000000000000000, 2.985000000000001208 ) ) ;
#145 = DIRECTION ( 'NONE',  ( -0.0000000000000000000, -0.0000000000000000000, -1.000000000000000000 ) ) ;
#146 = DIRECTION ( 'NONE',  ( -1.224646799147353454E-16, -0.0000000000000000000, -1.000000000000000000 ) ) ;
#147 = ORIENTED_EDGE ( 'NONE', *, *, #255, .T. ) ;
#148 = CARTESIAN_POINT ( 'NONE',  ( 1.226383128429217700E-16, 0.0000000000000000000, 1.001417820454904462 ) ) ;
#149 = ORIENTED_EDGE ( 'NONE', *, *, #121, .T. ) ;
#150 =( GEOMETRIC_REPRESENTATION_CONTEXT ( 3 ) GLOBAL_UNCERTAINTY_ASSIGNED_CONTEXT ( ( #93 ) ) GLOBAL_UNIT_ASSIGNED_CONTEXT ( ( #203, #87, #89 ) ) REPRESENTATION_CONTEXT ( 'NONE', 'WORKASPACE' ) );
#151 = DIRECTION ( 'NONE',  ( -1.224646799147353454E-16, -0.0000000000000000000, -1.000000000000000000 ) ) ;
#152 = CARTESIAN_POINT ( 'NONE',  ( -0.2497499999999999998, 0.0000000000000000000, 6.117110761741031132E-17 ) ) ;
#153 = DIRECTION ( 'NONE',  ( -1.224646799147353454E-16, -0.0000000000000000000, -1.000000000000000000 ) ) ;
#154 = ADVANCED_FACE ( 'NONE', ( #177 ), #176, .T. ) ;
#155 = EDGE_LOOP ( 'NONE', ( #56, #289 ) ) ;
#156 = MANIFOLD_SOLID_BREP ( 'Cut-Revolve1', #157 ) ;
#157 = CLOSED_SHELL ( 'NONE', ( #194, #48, #154, #22, #183, #174, #215, #132, #258, #74 ) ) ;
#158 = VECTOR ( 'NONE', #111, 39.37007874015748143 ) ;
#159 = ORIENTED_EDGE ( 'NONE', *, *, #116, .F. ) ;
#160 = VERTEX_POINT ( 'NONE', #64 ) ;
#161 = AXIS2_PLACEMENT_3D ( 'NONE', #246, #37, #110 ) ;
#162 =( LENGTH_UNIT ( ) NAMED_UNIT ( * ) SI_UNIT ( $, .METRE. ) );
#163 = ORIENTED_EDGE ( 'NONE', *, *, #281, .F. ) ;
#164 = CARTESIAN_POINT ( 'NONE',  ( 0.0000000000000000000, 0.0000000000000000000, 2.985000000000001208 ) ) ;
#165 = EDGE_LOOP ( 'NONE', ( #23, #238 ) ) ;
#166 = DIRECTION ( 'NONE',  ( 1.224646799147353454E-16, 0.0000000000000000000, 1.000000000000000000 ) ) ;
#167 = AXIS2_PLACEMENT_3D ( 'NONE', #164, #7, #9 ) ;
#168 = SURFACE_STYLE_FILL_AREA ( #236 ) ;
#169 = CARTESIAN_POINT ( 'NONE',  ( -0.2497499999999998888, 3.060086189369449292E-17, 1.000000000000000000 ) ) ;
#170 = DIRECTION ( 'NONE',  ( -1.000000000000000000, 0.0000000000000000000, 0.0000000000000000000 ) ) ;
#171 = FACE_OUTER_BOUND ( 'NONE', #222, .T. ) ;
#172 = ORIENTED_EDGE ( 'NONE', *, *, #276, .F. ) ;
#173 = DIRECTION ( 'NONE',  ( -1.224646799147353454E-16, -0.0000000000000000000, -1.000000000000000000 ) ) ;
#174 = ADVANCED_FACE ( 'NONE', ( #134 ), #229, .T. ) ;
#175 = DIRECTION ( 'NONE',  ( -1.224646799147353454E-16, -0.0000000000000000000, -1.000000000000000000 ) ) ;
#176 = CONICAL_SURFACE ( 'NONE', #161, 0.2350000000000011524, 0.7853981633974380649 ) ;
#177 = FACE_OUTER_BOUND ( 'NONE', #186, .T. ) ;
#178 = FILL_AREA_STYLE ('',( #13 ) ) ;
#179 = CARTESIAN_POINT ( 'NONE',  ( 0.0000000000000000000, 0.0000000000000000000, 0.0000000000000000000 ) ) ;
#180 = FACE_OUTER_BOUND ( 'NONE', #219, .T. ) ;
#181 = DIRECTION ( 'NONE',  ( -1.000000000000000000, 0.0000000000000000000, 1.224646799147353700E-16 ) ) ;
#182 = PRODUCT_DEFINITION_SHAPE ( 'NONE', 'NONE',  #24 ) ;
#183 = ADVANCED_FACE ( 'NONE', ( #190 ), #55, .T. ) ;
#184 = EDGE_CURVE ( 'NONE', #235, #45, #50, .T. ) ;
#185 = AXIS2_PLACEMENT_3D ( 'NONE', #54, #242, #127 ) ;
#186 = EDGE_LOOP ( 'NONE', ( #6, #33, #51, #76 ) ) ;
#187 = EDGE_CURVE ( 'NONE', #96, #103, #44, .T. ) ;
#188 = AXIS2_PLACEMENT_3D ( 'NONE', #144, #32, #265 ) ;
#189 = ORIENTED_EDGE ( 'NONE', *, *, #255, .F. ) ;
#190 = FACE_OUTER_BOUND ( 'NONE', #58, .T. ) ;
#191 = CARTESIAN_POINT ( 'NONE',  ( 0.2497500000000001386, 0.0000000000000000000, 1.000000000000000000 ) ) ;
#192 = FACE_OUTER_BOUND ( 'NONE', #70, .T. ) ;
#193 = ORIENTED_EDGE ( 'NONE', *, *, #139, .T. ) ;
#194 = ADVANCED_FACE ( 'NONE', ( #171 ), #250, .T. ) ;
#195 = DIRECTION ( 'NONE',  ( -1.000000000000000000, 0.0000000000000000000, 1.224646799147353700E-16 ) ) ;
#196 = LINE ( 'NONE', #80, #158 ) ;
#197 = AXIS2_PLACEMENT_3D ( 'NONE', #288, #166, #4 ) ;
#198 = DIRECTION ( 'NONE',  ( -1.000000000000000000, 0.0000000000000000000, 0.0000000000000000000 ) ) ;
#199 = ORIENTED_EDGE ( 'NONE', *, *, #249, .T. ) ;
#200 = DIRECTION ( 'NONE',  ( -1.000000000000000000, 0.0000000000000000000, 1.224646799147353700E-16 ) ) ;
#201 = PRESENTATION_STYLE_ASSIGNMENT (( #130 ) ) ;
#202 = AXIS2_PLACEMENT_3D ( 'NONE', #35, #292, #85 ) ;
#203 =( CONVERSION_BASED_UNIT ( 'INCH', #86 ) LENGTH_UNIT ( ) NAMED_UNIT ( #72 ) );
#204 = APPLICATION_PROTOCOL_DEFINITION ( 'draft international standard', 'automotive_design', 1998, #220 ) ;
#205 = LINE ( 'NONE', #62, #206 ) ;
#206 = VECTOR ( 'NONE', #270, 39.37007874015748854 ) ;
#207 = ORIENTED_EDGE ( 'NONE', *, *, #281, .T. ) ;
#208 = AXIS2_PLACEMENT_3D ( 'NONE', #148, #173, #100 ) ;
#209 = ORIENTED_EDGE ( 'NONE', *, *, #187, .F. ) ;
#210 = SURFACE_STYLE_USAGE ( .BOTH. , #119 ) ;
#211 = LINE ( 'NONE', #3, #253 ) ;
#212 = CARTESIAN_POINT ( 'NONE',  ( -0.2499999999999998612, 0.0000000000000000000, 1.001417820454904462 ) ) ;
#213 = DIRECTION ( 'NONE',  ( -0.1736481776669312194, 2.126576849575783625E-17, 0.9848077530122080203 ) ) ;
#214 = DIMENSIONAL_EXPONENTS ( 1.000000000000000000, 0.0000000000000000000, 0.0000000000000000000, 0.0000000000000000000, 0.0000000000000000000, 0.0000000000000000000, 0.0000000000000000000 ) ;
#215 = ADVANCED_FACE ( 'NONE', ( #53 ), #223, .T. ) ;
#216 = ORIENTED_EDGE ( 'NONE', *, *, #139, .F. ) ;
#217 = UNCERTAINTY_MEASURE_WITH_UNIT (LENGTH_MEASURE( 1.000000000000000082E-05 ), #279, 'distance_accuracy_value', 'NONE');
#218 = CARTESIAN_POINT ( 'NONE',  ( 0.2497500000000001386, 0.0000000000000000000, 1.000000000000000000 ) ) ;
#219 = EDGE_LOOP ( 'NONE', ( #49, #20, #207, #142 ) ) ;
#220 = APPLICATION_CONTEXT ( 'automotive_design' ) ;
#221 = DIRECTION ( 'NONE',  ( -1.000000000000000000, 0.0000000000000000000, 1.224646799147353700E-16 ) ) ;
#222 = EDGE_LOOP ( 'NONE', ( #147, #266, #92, #1 ) ) ;
#223 = CONICAL_SURFACE ( 'NONE', #202, 0.2350000000000011524, 0.7853981633974380649 ) ;
#224 = CARTESIAN_POINT ( 'NONE',  ( -0.2500000000000000000, 0.0000000000000000000, 3.000000000000000444 ) ) ;
#225 = PRODUCT_RELATED_PRODUCT_CATEGORY ( 'part', '', ( #230 ) ) ;
#226 = CARTESIAN_POINT ( 'NONE',  ( 1.226383128429217700E-16, 0.0000000000000000000, 1.001417820454904462 ) ) ;
#227 = DIRECTION ( 'NONE',  ( -0.7071067811865402453, 0.0000000000000000000, -0.7071067811865546782 ) ) ;
#228 = CIRCLE ( 'NONE', #188, 0.2500000000000000000 ) ;
#229 = PLANE ( 'NONE',  #239 ) ;
#230 = PRODUCT ( 'Micro_GEM-500-3X', 'Micro_GEM-500-3X', '', ( #244 ) ) ;
#231 = EDGE_CURVE ( 'NONE', #160, #95, #69, .T. ) ;
#232 = PRESENTATION_LAYER_ASSIGNMENT (  '', '', ( #137 ) ) ;
#233 = EDGE_CURVE ( 'NONE', #66, #45, #90, .T. ) ;
#234 = COLOUR_RGB ( '',0.7921568627450980005, 0.8196078431372548767, 0.9333333333333333481 ) ;
#235 = VERTEX_POINT ( 'NONE', #169 ) ;
#236 = FILL_AREA_STYLE ('',( #77 ) ) ;
#237 =( CONVERSION_BASED_UNIT ( 'INCH', #138 ) LENGTH_UNIT ( ) NAMED_UNIT ( #105 ) );
#238 = ORIENTED_EDGE ( 'NONE', *, *, #19, .T. ) ;
#239 = AXIS2_PLACEMENT_3D ( 'NONE', #272, #17, #109 ) ;
#240 = ORIENTED_EDGE ( 'NONE', *, *, #233, .F. ) ;
#241 = DIRECTION ( 'NONE',  ( -1.224646799147353454E-16, -0.0000000000000000000, -1.000000000000000000 ) ) ;
#242 = DIRECTION ( 'NONE',  ( 0.0000000000000000000, 0.0000000000000000000, 1.000000000000000000 ) ) ;
#243 = ORIENTED_EDGE ( 'NONE', *, *, #294, .T. ) ;
#244 = PRODUCT_CONTEXT ( 'NONE', #115, 'mechanical' ) ;
#245 = CARTESIAN_POINT ( 'NONE',  ( -0.2497499999999998888, 3.058555380870514950E-17, 1.000000000000000000 ) ) ;
#246 = CARTESIAN_POINT ( 'NONE',  ( 0.0000000000000000000, 0.0000000000000000000, 3.000000000000000444 ) ) ;
#247 = COLOUR_RGB ( '',0.7921568627450980005, 0.8196078431372548767, 0.9333333333333333481 ) ;
#248 = PRODUCT_DEFINITION_FORMATION_WITH_SPECIFIED_SOURCE ( 'ANY', '', #230, .NOT_KNOWN. ) ;
#249 = EDGE_CURVE ( 'NONE', #25, #268, #228, .T. ) ;
#250 = CYLINDRICAL_SURFACE ( 'NONE', #16, 0.2497499999999999998 ) ;
#251 = CARTESIAN_POINT ( 'NONE',  ( -0.2350000000000011524, 0.0000000000000000000, 3.000000000000000444 ) ) ;
#252 = CARTESIAN_POINT ( 'NONE',  ( 1.224646799147353454E-16, 0.0000000000000000000, 1.000000000000000000 ) ) ;
#253 = VECTOR ( 'NONE', #126, 39.37007874015748143 ) ;
#254 =( LENGTH_UNIT ( ) NAMED_UNIT ( * ) SI_UNIT ( $, .METRE. ) );
#255 = EDGE_CURVE ( 'NONE', #235, #31, #60, .T. ) ;
#256 = AXIS2_PLACEMENT_3D ( 'NONE', #252, #295, #131 ) ;
#257 = ORIENTED_EDGE ( 'NONE', *, *, #108, .T. ) ;
#258 = ADVANCED_FACE ( 'NONE', ( #192 ), #59, .T. ) ;
#259 = ORIENTED_EDGE ( 'NONE', *, *, #273, .F. ) ;
#260 = CARTESIAN_POINT ( 'NONE',  ( 0.0000000000000000000, 0.0000000000000000000, 3.000000000000000444 ) ) ;
#261 = CARTESIAN_POINT ( 'NONE',  ( 0.0000000000000000000, 0.0000000000000000000, 3.000000000000000444 ) ) ;
#262 = VECTOR ( 'NONE', #57, 39.37007874015748143 ) ;
#263 = MECHANICAL_DESIGN_GEOMETRIC_PRESENTATION_REPRESENTATION (  '', ( #137 ), #118 ) ;
#264 = PLANE ( 'NONE',  #185 ) ;
#265 = DIRECTION ( 'NONE',  ( 1.000000000000000000, 0.0000000000000000000, 0.0000000000000000000 ) ) ;
#266 = ORIENTED_EDGE ( 'NONE', *, *, #276, .T. ) ;
#267 = CARTESIAN_POINT ( 'NONE',  ( 3.745650057197990990E-33, 0.0000000000000000000, 3.058555380870515566E-17 ) ) ;
#268 = VERTEX_POINT ( 'NONE', #102 ) ;
#269 = DIRECTION ( 'NONE',  ( -1.000000000000000000, 0.0000000000000000000, 0.0000000000000000000 ) ) ;
#270 = DIRECTION ( 'NONE',  ( 0.7071067811865402453, 8.659560562354845344E-17, -0.7071067811865546782 ) ) ;
#271 = AXIS2_PLACEMENT_3D ( 'NONE', #267, #79, #195 ) ;
#272 = CARTESIAN_POINT ( 'NONE',  ( 0.0000000000000000000, 0.0000000000000000000, 3.000000000000000444 ) ) ;
#273 = EDGE_CURVE ( 'NONE', #268, #66, #287, .T. ) ;
#274 = SURFACE_SIDE_STYLE ('',( #41 ) ) ;
#275 = CARTESIAN_POINT ( 'NONE',  ( -0.2350000000000011524, 0.0000000000000000000, 3.000000000000000444 ) ) ;
#276 = EDGE_CURVE ( 'NONE', #31, #160, #211, .T. ) ;
#277 = VECTOR ( 'NONE', #227, 39.37007874015748854 ) ;
#278 = UNCERTAINTY_MEASURE_WITH_UNIT (LENGTH_MEASURE( 1.000000000000000082E-05 ), #237, 'distance_accuracy_value', 'NONE');
#279 =( CONVERSION_BASED_UNIT ( 'INCH', #296 ) LENGTH_UNIT ( ) NAMED_UNIT ( #214 ) );
#280 = CIRCLE ( 'NONE', #123, 0.2500000000000000000 ) ;
#281 = EDGE_CURVE ( 'NONE', #31, #66, #71, .T. ) ;
#282 = ORIENTED_EDGE ( 'NONE', *, *, #83, .T. ) ;
#283 = APPLICATION_PROTOCOL_DEFINITION ( 'draft international standard', 'automotive_design', 1998, #115 ) ;
#284 =( NAMED_UNIT ( * ) SI_UNIT ( $, .STERADIAN. ) SOLID_ANGLE_UNIT ( ) );
#285 = CARTESIAN_POINT ( 'NONE',  ( 0.0000000000000000000, 0.0000000000000000000, 0.0000000000000000000 ) ) ;
#286 = ORIENTED_EDGE ( 'NONE', *, *, #294, .F. ) ;
#287 = LINE ( 'NONE', #38, #94 ) ;
#288 = CARTESIAN_POINT ( 'NONE',  ( 1.224646799147353454E-16, 0.0000000000000000000, 1.000000000000000000 ) ) ;
#289 = ORIENTED_EDGE ( 'NONE', *, *, #231, .T. ) ;
#290 = CARTESIAN_POINT ( 'NONE',  ( 1.224646799147353454E-16, 0.0000000000000000000, 1.000000000000000000 ) ) ;
#291 = EDGE_LOOP ( 'NONE', ( #189, #117, #193, #163 ) ) ;
#292 = DIRECTION ( 'NONE',  ( 0.0000000000000000000, 0.0000000000000000000, -1.000000000000000000 ) ) ;
#293 = AXIS2_PLACEMENT_3D ( 'NONE', #11, #145, #170 ) ;
#294 = EDGE_CURVE ( 'NONE', #268, #25, #129, .T. ) ;
#295 = DIRECTION ( 'NONE',  ( 1.224646799147353454E-16, 0.0000000000000000000, 1.000000000000000000 ) ) ;
#296 = LENGTH_MEASURE_WITH_UNIT ( LENGTH_MEASURE( 0.02539999999999999897 ), #162 );
#297 = EDGE_CURVE ( 'NONE', #95, #160, #42, .T. ) ;
#298 = EDGE_LOOP ( 'NONE', ( #159, #209, #99, #286 ) ) ;
#299 = AXIS2_PLACEMENT_3D ( 'NONE', #290, #241, #269 ) ;
ENDSEC;
END-ISO-10303-21;
