ISO-10303-21;
HEADER;
FILE_DESCRIPTION (( 'STEP AP214' ),
    '1' );
FILE_NAME ('59755.STEP',
    '2023-07-24T15:34:18',
    ( '' ),
    ( '' ),
    'SwSTEP 2.0',
    'SolidWorks 2023',
    '' );
FILE_SCHEMA (( 'AUTOMOTIVE_DESIGN' ));
ENDSEC;

DATA;
#1 = CLOSED_SHELL ( 'NONE', ( #250, #115, #137, #16 ) ) ;
#2 = CARTESIAN_POINT ( 'NONE',  ( 8.000000000000000000, 32.00000000000000000, 9.797174393178825657E-16 ) ) ;
#3 = ORIENTED_EDGE ( 'NONE', *, *, #65, .T. ) ;
#4 = PRESENTATION_LAYER_ASSIGNMENT (  '', '', ( #78 ) ) ;
#5 = TOROIDAL_SURFACE ( 'NONE', #288, 7.000000000000000000, 1.000000000000000000 ) ;
#6 = SURFACE_STYLE_USAGE ( .BOTH. , #261 ) ;
#7 = SURFACE_STYLE_USAGE ( .BOTH. , #215 ) ;
#8 = PRODUCT ( '59755', '59755', '', ( #314 ) ) ;
#9 = DIRECTION ( 'NONE',  ( 0.000000000000000000, -0.000000000000000000, 1.000000000000000000 ) ) ;
#10 = ORIENTED_EDGE ( 'NONE', *, *, #201, .F. ) ;
#11 = DIRECTION ( 'NONE',  ( 0.000000000000000000, 0.000000000000000000, -1.000000000000000000 ) ) ;
#12 = ORIENTED_EDGE ( 'NONE', *, *, #180, .F. ) ;
#13 = AXIS2_PLACEMENT_3D ( 'NONE', #291, #160, #242 ) ;
#14 =( NAMED_UNIT ( * ) SI_UNIT ( $, .STERADIAN. ) SOLID_ANGLE_UNIT ( ) );
#15 = DIRECTION ( 'NONE',  ( -1.213802797673107944E-16, 1.000000000000000000, -0.000000000000000000 ) ) ;
#16 = ADVANCED_FACE ( 'NONE', ( #243 ), #294, .F. ) ;
#17 = FACE_OUTER_BOUND ( 'NONE', #322, .T. ) ;
#18 = DIRECTION ( 'NONE',  ( 0.000000000000000000, 0.000000000000000000, -1.000000000000000000 ) ) ;
#19 =( NAMED_UNIT ( * ) PLANE_ANGLE_UNIT ( ) SI_UNIT ( $, .RADIAN. ) );
#20 = AXIS2_PLACEMENT_3D ( 'NONE', #346, #99, #72 ) ;
#21 = AXIS2_PLACEMENT_3D ( 'NONE', #283, #34, #318 ) ;
#22 = CARTESIAN_POINT ( 'NONE',  ( 0.000000000000000000, 0.000000000000000000, 0.000000000000000000 ) ) ;
#23 = CARTESIAN_POINT ( 'NONE',  ( 5.204170427930421283E-15, 32.00000000000000000, 0.000000000000000000 ) ) ;
#24 = CARTESIAN_POINT ( 'NONE',  ( 8.572527594031473190E-16, 1.000000000000000000, 7.000000000000000000 ) ) ;
#25 = SURFACE_STYLE_USAGE ( .BOTH. , #360 ) ;
#26 = DIRECTION ( 'NONE',  ( -1.213802797673107944E-16, 1.000000000000000000, -0.000000000000000000 ) ) ;
#27 = AXIS2_PLACEMENT_3D ( 'NONE', #297, #15, #365 ) ;
#28 =( GEOMETRIC_REPRESENTATION_CONTEXT ( 3 ) GLOBAL_UNCERTAINTY_ASSIGNED_CONTEXT ( ( #168 ) ) GLOBAL_UNIT_ASSIGNED_CONTEXT ( ( #171, #353, #111 ) ) REPRESENTATION_CONTEXT ( 'NONE', 'WORKASPACE' ) );
#29 = CARTESIAN_POINT ( 'NONE',  ( 0.000000000000000000, 0.000000000000000000, 0.000000000000000000 ) ) ;
#30 = CARTESIAN_POINT ( 'NONE',  ( 7.999999999999996447, 89.00000000000000000, 9.797174393178823685E-16 ) ) ;
#31 = DIRECTION ( 'NONE',  ( 1.000000000000000000, 0.000000000000000000, 0.000000000000000000 ) ) ;
#32 = PRODUCT_DEFINITION_FORMATION_WITH_SPECIFIED_SOURCE ( 'ANY', '', #8, .NOT_KNOWN. ) ;
#33 = STYLED_ITEM ( 'NONE', ( #240 ), #52 ) ;
#34 = DIRECTION ( 'NONE',  ( 1.213802797673107944E-16, -1.000000000000000000, 0.000000000000000000 ) ) ;
#35 = FILL_AREA_STYLE ('',( #43 ) ) ;
#36 = AXIS2_PLACEMENT_3D ( 'NONE', #59, #146, #227 ) ;
#37 = DIRECTION ( 'NONE',  ( 0.000000000000000000, 1.000000000000000000, 0.000000000000000000 ) ) ;
#38 = STYLED_ITEM ( 'NONE', ( #191 ), #296 ) ;
#39 = VERTEX_POINT ( 'NONE', #2 ) ;
#40 = FILL_AREA_STYLE ('',( #232 ) ) ;
#41 = EDGE_CURVE ( 'NONE', #292, #363, #278, .T. ) ;
#42 = FILL_AREA_STYLE ('',( #68 ) ) ;
#43 = FILL_AREA_STYLE_COLOUR ( '', #327 ) ;
#44 = FILL_AREA_STYLE ('',( #220 ) ) ;
#45 = PRESENTATION_STYLE_ASSIGNMENT (( #7 ) ) ;
#46 = SURFACE_STYLE_FILL_AREA ( #42 ) ;
#47 = SURFACE_SIDE_STYLE ('',( #244 ) ) ;
#48 = DIRECTION ( 'NONE',  ( -1.224646799147353454E-16, 0.000000000000000000, -1.000000000000000000 ) ) ;
#49 = MECHANICAL_DESIGN_GEOMETRIC_PRESENTATION_REPRESENTATION (  '', ( #90 ), #28 ) ;
#50 = DIRECTION ( 'NONE',  ( -0.000000000000000000, -1.000000000000000000, -0.000000000000000000 ) ) ;
#51 =( NAMED_UNIT ( * ) SI_UNIT ( $, .STERADIAN. ) SOLID_ANGLE_UNIT ( ) );
#52 = ADVANCED_FACE ( 'NONE', ( #344 ), #350, .T. ) ;
#53 = SURFACE_STYLE_USAGE ( .BOTH. , #270 ) ;
#54 = AXIS2_PLACEMENT_3D ( 'NONE', #228, #148, #303 ) ;
#55 = FACE_OUTER_BOUND ( 'NONE', #92, .T. ) ;
#56 = ADVANCED_FACE ( 'NONE', ( #359 ), #139, .T. ) ;
#57 = CARTESIAN_POINT ( 'NONE',  ( 0.000000000000000000, 1.000000000000000000, 0.000000000000000000 ) ) ;
#58 = PLANE ( 'NONE',  #181 ) ;
#59 = CARTESIAN_POINT ( 'NONE',  ( 0.000000000000000000, 1.000000000000000000, -7.000000000000000000 ) ) ;
#60 = DIRECTION ( 'NONE',  ( -1.000000000000000000, -1.213802797673107944E-16, 0.000000000000000000 ) ) ;
#61 = EDGE_LOOP ( 'NONE', ( #259, #205 ) ) ;
#62 =( GEOMETRIC_REPRESENTATION_CONTEXT ( 3 ) GLOBAL_UNCERTAINTY_ASSIGNED_CONTEXT ( ( #198 ) ) GLOBAL_UNIT_ASSIGNED_CONTEXT ( ( #234, #125, #255 ) ) REPRESENTATION_CONTEXT ( 'NONE', 'WORKASPACE' ) );
#63 = MANIFOLD_SOLID_BREP ( 'Revolve - Tool Body (Straight Shanked)', #1 ) ;
#64 = AXIS2_PLACEMENT_3D ( 'NONE', #57, #357, #221 ) ;
#65 = EDGE_CURVE ( 'NONE', #98, #134, #163, .T. ) ;
#66 = ORIENTED_EDGE ( 'NONE', *, *, #253, .F. ) ;
#67 = ORIENTED_EDGE ( 'NONE', *, *, #87, .F. ) ;
#68 = FILL_AREA_STYLE_COLOUR ( '', #174 ) ;
#69 = EDGE_CURVE ( 'NONE', #133, #71, #249, .T. ) ;
#70 = MECHANICAL_DESIGN_GEOMETRIC_PRESENTATION_REPRESENTATION (  '', ( #299 ), #223 ) ;
#71 = VERTEX_POINT ( 'NONE', #114 ) ;
#72 = DIRECTION ( 'NONE',  ( -1.000000000000000000, 0.000000000000000000, 0.000000000000000000 ) ) ;
#73 = ORIENTED_EDGE ( 'NONE', *, *, #258, .F. ) ;
#74 = FACE_OUTER_BOUND ( 'NONE', #347, .T. ) ;
#75 = CARTESIAN_POINT ( 'NONE',  ( 0.000000000000000000, 0.000000000000000000, 0.000000000000000000 ) ) ;
#76 = DIRECTION ( 'NONE',  ( -0.000000000000000000, -1.000000000000000000, -0.000000000000000000 ) ) ;
#77 = UNCERTAINTY_MEASURE_WITH_UNIT (LENGTH_MEASURE( 1.000000000000000082E-05 ), #186, 'distance_accuracy_value', 'NONE');
#78 = STYLED_ITEM ( 'NONE', ( #45 ), #162 ) ;
#79 = TOROIDAL_SURFACE ( 'NONE', #64, 7.000000000000000000, 1.000000000000000000 ) ;
#80 = SURFACE_STYLE_USAGE ( .BOTH. , #47 ) ;
#81 = FILL_AREA_STYLE_COLOUR ( '', #364 ) ;
#82 = UNCERTAINTY_MEASURE_WITH_UNIT (LENGTH_MEASURE( 1.000000000000000082E-05 ), #158, 'distance_accuracy_value', 'NONE');
#83 = DIRECTION ( 'NONE',  ( -0.000000000000000000, -1.000000000000000000, -0.000000000000000000 ) ) ;
#84 = SURFACE_SIDE_STYLE ('',( #194 ) ) ;
#85 = PRODUCT_DEFINITION_CONTEXT ( 'detailed design', #335, 'design' ) ;
#86 = DIRECTION ( 'NONE',  ( -1.213802797673107944E-16, 1.000000000000000000, -0.000000000000000000 ) ) ;
#87 = EDGE_CURVE ( 'NONE', #132, #292, #219, .T. ) ;
#88 = EDGE_LOOP ( 'NONE', ( #120, #241, #73, #351 ) ) ;
#89 = APPLICATION_PROTOCOL_DEFINITION ( 'draft international standard', 'automotive_design', 1998, #335 ) ;
#90 = STYLED_ITEM ( 'NONE', ( #305 ), #63 ) ;
#91 = FACE_OUTER_BOUND ( 'NONE', #192, .T. ) ;
#92 = EDGE_LOOP ( 'NONE', ( #184, #128, #233, #66 ) ) ;
#93 = APPLICATION_CONTEXT ( 'automotive_design' ) ;
#94 = EDGE_CURVE ( 'NONE', #363, #292, #252, .T. ) ;
#95 = VERTEX_POINT ( 'NONE', #202 ) ;
#96 = VECTOR ( 'NONE', #355, 1000.000000000000000 ) ;
#97 = AXIS2_PLACEMENT_3D ( 'NONE', #154, #320, #328 ) ;
#98 = VERTEX_POINT ( 'NONE', #254 ) ;
#99 = DIRECTION ( 'NONE',  ( -1.213802797673107944E-16, 1.000000000000000000, -0.000000000000000000 ) ) ;
#100 = CARTESIAN_POINT ( 'NONE',  ( 0.000000000000000000, 32.00000000000000000, 0.000000000000000000 ) ) ;
#101 = ORIENTED_EDGE ( 'NONE', *, *, #170, .F. ) ;
#102 =( NAMED_UNIT ( * ) PLANE_ANGLE_UNIT ( ) SI_UNIT ( $, .RADIAN. ) );
#103 = CARTESIAN_POINT ( 'NONE',  ( 0.000000000000000000, 32.00000000000000000, -8.000000000000000000 ) ) ;
#104 = ORIENTED_EDGE ( 'NONE', *, *, #207, .F. ) ;
#105 = PRESENTATION_LAYER_ASSIGNMENT (  '', '', ( #38 ) ) ;
#106 = COLOUR_RGB ( '',0.7921568627450980005, 0.8196078431372548767, 0.9333333333333333481 ) ;
#107 = ORIENTED_EDGE ( 'NONE', *, *, #201, .T. ) ;
#108 =( NAMED_UNIT ( * ) PLANE_ANGLE_UNIT ( ) SI_UNIT ( $, .RADIAN. ) );
#109 = CARTESIAN_POINT ( 'NONE',  ( -8.000000000000003553, 89.00000000000000000, 0.000000000000000000 ) ) ;
#110 = CARTESIAN_POINT ( 'NONE',  ( 9.797174393178825657E-16, 1.000000000000000000, 8.000000000000000000 ) ) ;
#111 =( NAMED_UNIT ( * ) SI_UNIT ( $, .STERADIAN. ) SOLID_ANGLE_UNIT ( ) );
#112 = FILL_AREA_STYLE ('',( #81 ) ) ;
#113 = AXIS2_PLACEMENT_3D ( 'NONE', #22, #76, #147 ) ;
#114 = CARTESIAN_POINT ( 'NONE',  ( 0.000000000000000000, 1.000000000000000000, -8.000000000000000000 ) ) ;
#115 = ADVANCED_FACE ( 'NONE', ( #179 ), #58, .F. ) ;
#116 = CARTESIAN_POINT ( 'NONE',  ( 0.000000000000000000, 0.000000000000000000, 0.000000000000000000 ) ) ;
#117 = PRESENTATION_STYLE_ASSIGNMENT (( #25 ) ) ;
#118 =( GEOMETRIC_REPRESENTATION_CONTEXT ( 3 ) GLOBAL_UNCERTAINTY_ASSIGNED_CONTEXT ( ( #272 ) ) GLOBAL_UNIT_ASSIGNED_CONTEXT ( ( #152, #108, #348 ) ) REPRESENTATION_CONTEXT ( 'NONE', 'WORKASPACE' ) );
#119 = STYLED_ITEM ( 'NONE', ( #117 ), #304 ) ;
#120 = ORIENTED_EDGE ( 'NONE', *, *, #180, .T. ) ;
#121 = DIRECTION ( 'NONE',  ( -0.000000000000000000, -1.000000000000000000, -0.000000000000000000 ) ) ;
#122 = CARTESIAN_POINT ( 'NONE',  ( 0.000000000000000000, 32.00000000000000000, 0.000000000000000000 ) ) ;
#123 = EDGE_CURVE ( 'NONE', #39, #363, #367, .T. ) ;
#124 = PLANE ( 'NONE',  #127 ) ;
#125 =( NAMED_UNIT ( * ) PLANE_ANGLE_UNIT ( ) SI_UNIT ( $, .RADIAN. ) );
#126 = PRESENTATION_STYLE_ASSIGNMENT (( #369 ) ) ;
#127 = AXIS2_PLACEMENT_3D ( 'NONE', #100, #37, #9 ) ;
#128 = ORIENTED_EDGE ( 'NONE', *, *, #170, .T. ) ;
#129 = ORIENTED_EDGE ( 'NONE', *, *, #94, .F. ) ;
#130 = MECHANICAL_DESIGN_GEOMETRIC_PRESENTATION_REPRESENTATION (  '', ( #273 ), #118 ) ;
#131 = ADVANCED_FACE ( 'NONE', ( #91 ), #124, .T. ) ;
#132 = VERTEX_POINT ( 'NONE', #349 ) ;
#133 = VERTEX_POINT ( 'NONE', #103 ) ;
#134 = VERTEX_POINT ( 'NONE', #110 ) ;
#135 =( LENGTH_UNIT ( ) NAMED_UNIT ( * ) SI_UNIT ( .MILLI., .METRE. ) );
#136 = MECHANICAL_DESIGN_GEOMETRIC_PRESENTATION_REPRESENTATION (  '', ( #119 ), #316 ) ;
#137 = ADVANCED_FACE ( 'NONE', ( #321 ), #189, .T. ) ;
#138 = CARTESIAN_POINT ( 'NONE',  ( 9.797174393178825657E-16, 0.000000000000000000, 8.000000000000000000 ) ) ;
#139 = CYLINDRICAL_SURFACE ( 'NONE', #345, 8.000000000000000000 ) ;
#140 = EDGE_CURVE ( 'NONE', #71, #95, #230, .T. ) ;
#141 = UNCERTAINTY_MEASURE_WITH_UNIT (LENGTH_MEASURE( 1.000000000000000082E-05 ), #135, 'distance_accuracy_value', 'NONE');
#142 = AXIS2_PLACEMENT_3D ( 'NONE', #167, #268, #18 ) ;
#143 = PRESENTATION_LAYER_ASSIGNMENT (  '', '', ( #119 ) ) ;
#144 =( NAMED_UNIT ( * ) PLANE_ANGLE_UNIT ( ) SI_UNIT ( $, .RADIAN. ) );
#145 = CARTESIAN_POINT ( 'NONE',  ( 0.000000000000000000, 1.000000000000000000, 0.000000000000000000 ) ) ;
#146 = DIRECTION ( 'NONE',  ( -1.000000000000000000, 0.000000000000000000, 0.000000000000000000 ) ) ;
#147 = DIRECTION ( 'NONE',  ( 0.000000000000000000, 0.000000000000000000, -1.000000000000000000 ) ) ;
#148 = DIRECTION ( 'NONE',  ( -0.000000000000000000, -1.000000000000000000, -0.000000000000000000 ) ) ;
#149 =( LENGTH_UNIT ( ) NAMED_UNIT ( * ) SI_UNIT ( .MILLI., .METRE. ) );
#150 = CIRCLE ( 'NONE', #343, 1.000000000000000000 ) ;
#151 = SURFACE_SIDE_STYLE ('',( #312 ) ) ;
#152 =( LENGTH_UNIT ( ) NAMED_UNIT ( * ) SI_UNIT ( .MILLI., .METRE. ) );
#153 = AXIS2_PLACEMENT_3D ( 'NONE', #212, #159, #156 ) ;
#154 = CARTESIAN_POINT ( 'NONE',  ( -1.714505518806293849E-15, 89.00000000000000000, 0.000000000000000000 ) ) ;
#155 = EDGE_LOOP ( 'NONE', ( #342, #209 ) ) ;
#156 = DIRECTION ( 'NONE',  ( -1.000000000000000000, 0.000000000000000000, 0.000000000000000000 ) ) ;
#157 = ORIENTED_EDGE ( 'NONE', *, *, #41, .T. ) ;
#158 =( LENGTH_UNIT ( ) NAMED_UNIT ( * ) SI_UNIT ( .MILLI., .METRE. ) );
#159 = DIRECTION ( 'NONE',  ( -1.213802797673107944E-16, 1.000000000000000000, -0.000000000000000000 ) ) ;
#160 = DIRECTION ( 'NONE',  ( -1.213802797673107944E-16, 1.000000000000000000, -0.000000000000000000 ) ) ;
#161 = ORIENTED_EDGE ( 'NONE', *, *, #123, .T. ) ;
#162 = ADVANCED_FACE ( 'NONE', ( #361 ), #79, .T. ) ;
#163 = LINE ( 'NONE', #138, #211 ) ;
#164 = PRESENTATION_LAYER_ASSIGNMENT (  '', '', ( #299 ) ) ;
#165 = COLOUR_RGB ( '',1.000000000000000000, 0.000000000000000000, 0.000000000000000000 ) ;
#166 = CARTESIAN_POINT ( 'NONE',  ( 9.184850993605147944E-16, 0.000000000000000000, 7.000000000000000000 ) ) ;
#167 = CARTESIAN_POINT ( 'NONE',  ( 0.000000000000000000, 0.000000000000000000, 0.000000000000000000 ) ) ;
#168 = UNCERTAINTY_MEASURE_WITH_UNIT (LENGTH_MEASURE( 1.000000000000000082E-05 ), #171, 'distance_accuracy_value', 'NONE');
#169 = FILL_AREA_STYLE_COLOUR ( '', #262 ) ;
#170 = EDGE_CURVE ( 'NONE', #98, #133, #208, .T. ) ;
#171 =( LENGTH_UNIT ( ) NAMED_UNIT ( * ) SI_UNIT ( .MILLI., .METRE. ) );
#172 =( NAMED_UNIT ( * ) PLANE_ANGLE_UNIT ( ) SI_UNIT ( $, .RADIAN. ) );
#173 = CIRCLE ( 'NONE', #54, 8.000000000000000000 ) ;
#174 = COLOUR_RGB ( '',1.000000000000000000, 0.000000000000000000, 0.000000000000000000 ) ;
#175 = DIRECTION ( 'NONE',  ( 0.000000000000000000, 0.000000000000000000, -1.000000000000000000 ) ) ;
#176 = SURFACE_STYLE_FILL_AREA ( #358 ) ;
#177 = VECTOR ( 'NONE', #264, 1000.000000000000000 ) ;
#178 = PRESENTATION_LAYER_ASSIGNMENT (  '', '', ( #33 ) ) ;
#179 = FACE_OUTER_BOUND ( 'NONE', #61, .T. ) ;
#180 = EDGE_CURVE ( 'NONE', #71, #134, #315, .T. ) ;
#181 = AXIS2_PLACEMENT_3D ( 'NONE', #23, #204, #60 ) ;
#182 = EDGE_LOOP ( 'NONE', ( #263, #218, #310, #129 ) ) ;
#183 = ADVANCED_FACE ( 'NONE', ( #55 ), #275, .T. ) ;
#184 = ORIENTED_EDGE ( 'NONE', *, *, #65, .F. ) ;
#185 = SURFACE_SIDE_STYLE ('',( #46 ) ) ;
#186 =( LENGTH_UNIT ( ) NAMED_UNIT ( * ) SI_UNIT ( .MILLI., .METRE. ) );
#187 = MECHANICAL_DESIGN_GEOMETRIC_PRESENTATION_REPRESENTATION (  '', ( #311 ), #300 ) ;
#188 = CIRCLE ( 'NONE', #256, 7.999999999999994671 ) ;
#189 = CYLINDRICAL_SURFACE ( 'NONE', #13, 7.999999999999998224 ) ;
#190 = EDGE_LOOP ( 'NONE', ( #157, #260 ) ) ;
#191 = PRESENTATION_STYLE_ASSIGNMENT (( #286 ) ) ;
#192 = EDGE_LOOP ( 'NONE', ( #10, #101 ) ) ;
#193 = VECTOR ( 'NONE', #26, 1000.000000000000000 ) ;
#194 = SURFACE_STYLE_FILL_AREA ( #269 ) ;
#195 = SURFACE_STYLE_FILL_AREA ( #112 ) ;
#196 = PRESENTATION_STYLE_ASSIGNMENT (( #53 ) ) ;
#197 = DIRECTION ( 'NONE',  ( 0.000000000000000000, 0.000000000000000000, -1.000000000000000000 ) ) ;
#198 = UNCERTAINTY_MEASURE_WITH_UNIT (LENGTH_MEASURE( 1.000000000000000082E-05 ), #234, 'distance_accuracy_value', 'NONE');
#199 = AXIS2_PLACEMENT_3D ( 'NONE', #29, #339, #31 ) ;
#200 = DIRECTION ( 'NONE',  ( 0.000000000000000000, 0.000000000000000000, -1.000000000000000000 ) ) ;
#201 = EDGE_CURVE ( 'NONE', #133, #98, #173, .T. ) ;
#202 = CARTESIAN_POINT ( 'NONE',  ( 0.000000000000000000, 0.000000000000000000, -7.000000000000000000 ) ) ;
#203 = DIRECTION ( 'NONE',  ( 0.000000000000000000, 0.000000000000000000, -1.000000000000000000 ) ) ;
#204 = DIRECTION ( 'NONE',  ( -1.213802797673107944E-16, 1.000000000000000000, 0.000000000000000000 ) ) ;
#205 = ORIENTED_EDGE ( 'NONE', *, *, #282, .F. ) ;
#206 = CIRCLE ( 'NONE', #142, 7.000000000000000000 ) ;
#207 = EDGE_CURVE ( 'NONE', #134, #237, #150, .T. ) ;
#208 = CIRCLE ( 'NONE', #265, 8.000000000000000000 ) ;
#209 = ORIENTED_EDGE ( 'NONE', *, *, #313, .T. ) ;
#210 = APPLICATION_PROTOCOL_DEFINITION ( 'draft international standard', 'automotive_design', 1998, #93 ) ;
#211 = VECTOR ( 'NONE', #329, 1000.000000000000000 ) ;
#212 = CARTESIAN_POINT ( 'NONE',  ( -1.714505518806293652E-15, 89.00000000000000000, 0.000000000000000000 ) ) ;
#213 = EDGE_LOOP ( 'NONE', ( #107, #3, #12, #341 ) ) ;
#214 = SURFACE_STYLE_FILL_AREA ( #35 ) ;
#215 = SURFACE_SIDE_STYLE ('',( #289 ) ) ;
#216 = CIRCLE ( 'NONE', #20, 7.999999999999994671 ) ;
#217 = AXIS2_PLACEMENT_3D ( 'NONE', #319, #229, #200 ) ;
#218 = ORIENTED_EDGE ( 'NONE', *, *, #282, .T. ) ;
#219 = LINE ( 'NONE', #325, #177 ) ;
#220 = FILL_AREA_STYLE_COLOUR ( '', #165 ) ;
#221 = DIRECTION ( 'NONE',  ( 0.000000000000000000, 0.000000000000000000, -1.000000000000000000 ) ) ;
#222 = CIRCLE ( 'NONE', #217, 7.000000000000000000 ) ;
#223 =( GEOMETRIC_REPRESENTATION_CONTEXT ( 3 ) GLOBAL_UNCERTAINTY_ASSIGNED_CONTEXT ( ( #301 ) ) GLOBAL_UNIT_ASSIGNED_CONTEXT ( ( #267, #144, #14 ) ) REPRESENTATION_CONTEXT ( 'NONE', 'WORKASPACE' ) );
#224 = DIRECTION ( 'NONE',  ( 0.000000000000000000, -1.000000000000000000, -0.000000000000000000 ) ) ;
#225 = UNCERTAINTY_MEASURE_WITH_UNIT (LENGTH_MEASURE( 1.000000000000000082E-05 ), #306, 'distance_accuracy_value', 'NONE');
#226 =( NAMED_UNIT ( * ) SI_UNIT ( $, .STERADIAN. ) SOLID_ANGLE_UNIT ( ) );
#227 = DIRECTION ( 'NONE',  ( 0.000000000000000000, 0.000000000000000000, 1.000000000000000000 ) ) ;
#228 = CARTESIAN_POINT ( 'NONE',  ( 0.000000000000000000, 32.00000000000000000, 0.000000000000000000 ) ) ;
#229 = DIRECTION ( 'NONE',  ( -0.000000000000000000, -1.000000000000000000, -0.000000000000000000 ) ) ;
#230 = CIRCLE ( 'NONE', #36, 1.000000000000000000 ) ;
#231 = ADVANCED_BREP_SHAPE_REPRESENTATION ( '59755', ( #304, #63, #199 ), #62 ) ;
#232 = FILL_AREA_STYLE_COLOUR ( '', #247 ) ;
#233 = ORIENTED_EDGE ( 'NONE', *, *, #69, .T. ) ;
#234 =( LENGTH_UNIT ( ) NAMED_UNIT ( * ) SI_UNIT ( .MILLI., .METRE. ) );
#235 = FILL_AREA_STYLE ('',( #281 ) ) ;
#236 =( GEOMETRIC_REPRESENTATION_CONTEXT ( 3 ) GLOBAL_UNCERTAINTY_ASSIGNED_CONTEXT ( ( #77 ) ) GLOBAL_UNIT_ASSIGNED_CONTEXT ( ( #186, #19, #51 ) ) REPRESENTATION_CONTEXT ( 'NONE', 'WORKASPACE' ) );
#237 = VERTEX_POINT ( 'NONE', #166 ) ;
#238 = ORIENTED_EDGE ( 'NONE', *, *, #313, .F. ) ;
#239 =( GEOMETRIC_REPRESENTATION_CONTEXT ( 3 ) GLOBAL_UNCERTAINTY_ASSIGNED_CONTEXT ( ( #141 ) ) GLOBAL_UNIT_ASSIGNED_CONTEXT ( ( #135, #295, #285 ) ) REPRESENTATION_CONTEXT ( 'NONE', 'WORKASPACE' ) );
#240 = PRESENTATION_STYLE_ASSIGNMENT (( #6 ) ) ;
#241 = ORIENTED_EDGE ( 'NONE', *, *, #207, .T. ) ;
#242 = DIRECTION ( 'NONE',  ( -1.000000000000000000, 0.000000000000000000, 0.000000000000000000 ) ) ;
#243 = FACE_OUTER_BOUND ( 'NONE', #190, .T. ) ;
#244 = SURFACE_STYLE_FILL_AREA ( #44 ) ;
#245 = SURFACE_STYLE_USAGE ( .BOTH. , #84 ) ;
#246 = DIRECTION ( 'NONE',  ( -0.000000000000000000, -1.000000000000000000, -0.000000000000000000 ) ) ;
#247 = COLOUR_RGB ( '',1.000000000000000000, 0.000000000000000000, 0.000000000000000000 ) ;
#248 = MECHANICAL_DESIGN_GEOMETRIC_PRESENTATION_REPRESENTATION (  '', ( #33 ), #236 ) ;
#249 = LINE ( 'NONE', #251, #96 ) ;
#250 = ADVANCED_FACE ( 'NONE', ( #17 ), #337, .T. ) ;
#251 = CARTESIAN_POINT ( 'NONE',  ( 0.000000000000000000, 0.000000000000000000, -8.000000000000000000 ) ) ;
#252 = CIRCLE ( 'NONE', #27, 8.000000000000001776 ) ;
#253 = EDGE_CURVE ( 'NONE', #134, #71, #370, .T. ) ;
#254 = CARTESIAN_POINT ( 'NONE',  ( 9.797174393178825657E-16, 32.00000000000000000, 8.000000000000000000 ) ) ;
#255 =( NAMED_UNIT ( * ) SI_UNIT ( $, .STERADIAN. ) SOLID_ANGLE_UNIT ( ) );
#256 = AXIS2_PLACEMENT_3D ( 'NONE', #309, #86, #276 ) ;
#257 = SHAPE_DEFINITION_REPRESENTATION ( #280, #231 ) ;
#258 = EDGE_CURVE ( 'NONE', #95, #237, #206, .T. ) ;
#259 = ORIENTED_EDGE ( 'NONE', *, *, #352, .F. ) ;
#260 = ORIENTED_EDGE ( 'NONE', *, *, #94, .T. ) ;
#261 = SURFACE_SIDE_STYLE ('',( #214 ) ) ;
#262 = COLOUR_RGB ( '',0.7921568627450980005, 0.8196078431372548767, 0.9333333333333333481 ) ;
#263 = ORIENTED_EDGE ( 'NONE', *, *, #123, .F. ) ;
#264 = DIRECTION ( 'NONE',  ( -1.213802797673107944E-16, 1.000000000000000000, -0.000000000000000000 ) ) ;
#265 = AXIS2_PLACEMENT_3D ( 'NONE', #122, #307, #175 ) ;
#266 = MECHANICAL_DESIGN_GEOMETRIC_PRESENTATION_REPRESENTATION (  '', ( #38 ), #274 ) ;
#267 =( LENGTH_UNIT ( ) NAMED_UNIT ( * ) SI_UNIT ( .MILLI., .METRE. ) );
#268 = DIRECTION ( 'NONE',  ( -0.000000000000000000, -1.000000000000000000, -0.000000000000000000 ) ) ;
#269 = FILL_AREA_STYLE ('',( #169 ) ) ;
#270 = SURFACE_SIDE_STYLE ('',( #195 ) ) ;
#271 =( NAMED_UNIT ( * ) SI_UNIT ( $, .STERADIAN. ) SOLID_ANGLE_UNIT ( ) );
#272 = UNCERTAINTY_MEASURE_WITH_UNIT (LENGTH_MEASURE( 1.000000000000000082E-05 ), #152, 'distance_accuracy_value', 'NONE');
#273 = STYLED_ITEM ( 'NONE', ( #126 ), #131 ) ;
#274 =( GEOMETRIC_REPRESENTATION_CONTEXT ( 3 ) GLOBAL_UNCERTAINTY_ASSIGNED_CONTEXT ( ( #82 ) ) GLOBAL_UNIT_ASSIGNED_CONTEXT ( ( #158, #102, #290 ) ) REPRESENTATION_CONTEXT ( 'NONE', 'WORKASPACE' ) );
#275 = CYLINDRICAL_SURFACE ( 'NONE', #113, 8.000000000000000000 ) ;
#276 = DIRECTION ( 'NONE',  ( -1.000000000000000000, 0.000000000000000000, 0.000000000000000000 ) ) ;
#277 = AXIS2_PLACEMENT_3D ( 'NONE', #145, #246, #330 ) ;
#278 = CIRCLE ( 'NONE', #153, 8.000000000000001776 ) ;
#279 = MECHANICAL_DESIGN_GEOMETRIC_PRESENTATION_REPRESENTATION (  '', ( #78 ), #239 ) ;
#280 = PRODUCT_DEFINITION_SHAPE ( 'NONE', 'NONE',  #362 ) ;
#281 = FILL_AREA_STYLE_COLOUR ( '', #340 ) ;
#282 = EDGE_CURVE ( 'NONE', #39, #132, #216, .T. ) ;
#283 = CARTESIAN_POINT ( 'NONE',  ( 8.000000000000000000, 89.00000000000000000, 0.000000000000000000 ) ) ;
#284 = ORIENTED_EDGE ( 'NONE', *, *, #253, .T. ) ;
#285 =( NAMED_UNIT ( * ) SI_UNIT ( $, .STERADIAN. ) SOLID_ANGLE_UNIT ( ) );
#286 = SURFACE_STYLE_USAGE ( .BOTH. , #185 ) ;
#287 = PRESENTATION_LAYER_ASSIGNMENT (  '', '', ( #311 ) ) ;
#288 = AXIS2_PLACEMENT_3D ( 'NONE', #293, #121, #203 ) ;
#289 = SURFACE_STYLE_FILL_AREA ( #40 ) ;
#290 =( NAMED_UNIT ( * ) SI_UNIT ( $, .STERADIAN. ) SOLID_ANGLE_UNIT ( ) );
#291 = CARTESIAN_POINT ( 'NONE',  ( -1.714505518806293849E-15, 89.00000000000000000, 0.000000000000000000 ) ) ;
#292 = VERTEX_POINT ( 'NONE', #109 ) ;
#293 = CARTESIAN_POINT ( 'NONE',  ( 0.000000000000000000, 1.000000000000000000, 0.000000000000000000 ) ) ;
#294 = PLANE ( 'NONE',  #21 ) ;
#295 =( NAMED_UNIT ( * ) PLANE_ANGLE_UNIT ( ) SI_UNIT ( $, .RADIAN. ) );
#296 = ADVANCED_FACE ( 'NONE', ( #74 ), #5, .T. ) ;
#297 = CARTESIAN_POINT ( 'NONE',  ( -1.714505518806293652E-15, 89.00000000000000000, 0.000000000000000000 ) ) ;
#298 = DIRECTION ( 'NONE',  ( 1.000000000000000000, 0.000000000000000000, -1.224646799147353207E-16 ) ) ;
#299 = STYLED_ITEM ( 'NONE', ( #354 ), #56 ) ;
#300 =( GEOMETRIC_REPRESENTATION_CONTEXT ( 3 ) GLOBAL_UNCERTAINTY_ASSIGNED_CONTEXT ( ( #225 ) ) GLOBAL_UNIT_ASSIGNED_CONTEXT ( ( #306, #172, #226 ) ) REPRESENTATION_CONTEXT ( 'NONE', 'WORKASPACE' ) );
#301 = UNCERTAINTY_MEASURE_WITH_UNIT (LENGTH_MEASURE( 1.000000000000000082E-05 ), #267, 'distance_accuracy_value', 'NONE');
#302 = DIRECTION ( 'NONE',  ( 0.000000000000000000, 0.000000000000000000, -1.000000000000000000 ) ) ;
#303 = DIRECTION ( 'NONE',  ( 0.000000000000000000, 0.000000000000000000, -1.000000000000000000 ) ) ;
#304 = MANIFOLD_SOLID_BREP ( 'Revolve - Cutting Edge', #323 ) ;
#305 = PRESENTATION_STYLE_ASSIGNMENT (( #245 ) ) ;
#306 =( LENGTH_UNIT ( ) NAMED_UNIT ( * ) SI_UNIT ( .MILLI., .METRE. ) );
#307 = DIRECTION ( 'NONE',  ( -0.000000000000000000, -1.000000000000000000, -0.000000000000000000 ) ) ;
#308 = CARTESIAN_POINT ( 'NONE',  ( 8.000000000000000000, 89.00000000000000000, 9.797174393178825657E-16 ) ) ;
#309 = CARTESIAN_POINT ( 'NONE',  ( 5.204170427930421283E-15, 32.00000000000000000, 0.000000000000000000 ) ) ;
#310 = ORIENTED_EDGE ( 'NONE', *, *, #87, .T. ) ;
#311 = STYLED_ITEM ( 'NONE', ( #196 ), #183 ) ;
#312 = SURFACE_STYLE_FILL_AREA ( #235 ) ;
#313 = EDGE_CURVE ( 'NONE', #237, #95, #222, .T. ) ;
#314 = PRODUCT_CONTEXT ( 'NONE', #93, 'mechanical' ) ;
#315 = CIRCLE ( 'NONE', #277, 8.000000000000000000 ) ;
#316 =( GEOMETRIC_REPRESENTATION_CONTEXT ( 3 ) GLOBAL_UNCERTAINTY_ASSIGNED_CONTEXT ( ( #332 ) ) GLOBAL_UNIT_ASSIGNED_CONTEXT ( ( #149, #331, #271 ) ) REPRESENTATION_CONTEXT ( 'NONE', 'WORKASPACE' ) );
#317 = ORIENTED_EDGE ( 'NONE', *, *, #140, .T. ) ;
#318 = DIRECTION ( 'NONE',  ( 1.000000000000000000, 1.213802797673107944E-16, 0.000000000000000000 ) ) ;
#319 = CARTESIAN_POINT ( 'NONE',  ( 0.000000000000000000, 0.000000000000000000, 0.000000000000000000 ) ) ;
#320 = DIRECTION ( 'NONE',  ( -1.213802797673107944E-16, 1.000000000000000000, -0.000000000000000000 ) ) ;
#321 = FACE_OUTER_BOUND ( 'NONE', #182, .T. ) ;
#322 = EDGE_LOOP ( 'NONE', ( #324, #161, #338, #67 ) ) ;
#323 = CLOSED_SHELL ( 'NONE', ( #56, #162, #52, #296, #183, #131 ) ) ;
#324 = ORIENTED_EDGE ( 'NONE', *, *, #352, .T. ) ;
#325 = CARTESIAN_POINT ( 'NONE',  ( -8.000000000000000000, 89.00000000000000000, 0.000000000000000000 ) ) ;
#326 = PRESENTATION_LAYER_ASSIGNMENT (  '', '', ( #90 ) ) ;
#327 = COLOUR_RGB ( '',1.000000000000000000, 0.000000000000000000, 0.000000000000000000 ) ;
#328 = DIRECTION ( 'NONE',  ( -1.000000000000000000, 0.000000000000000000, 0.000000000000000000 ) ) ;
#329 = DIRECTION ( 'NONE',  ( -0.000000000000000000, -1.000000000000000000, -0.000000000000000000 ) ) ;
#330 = DIRECTION ( 'NONE',  ( 0.000000000000000000, 0.000000000000000000, -1.000000000000000000 ) ) ;
#331 =( NAMED_UNIT ( * ) PLANE_ANGLE_UNIT ( ) SI_UNIT ( $, .RADIAN. ) );
#332 = UNCERTAINTY_MEASURE_WITH_UNIT (LENGTH_MEASURE( 1.000000000000000082E-05 ), #149, 'distance_accuracy_value', 'NONE');
#333 = PRESENTATION_LAYER_ASSIGNMENT (  '', '', ( #273 ) ) ;
#334 = AXIS2_PLACEMENT_3D ( 'NONE', #75, #224, #302 ) ;
#335 = APPLICATION_CONTEXT ( 'automotive_design' ) ;
#336 = FILL_AREA_STYLE_COLOUR ( '', #106 ) ;
#337 = CYLINDRICAL_SURFACE ( 'NONE', #97, 7.999999999999998224 ) ;
#338 = ORIENTED_EDGE ( 'NONE', *, *, #41, .F. ) ;
#339 = DIRECTION ( 'NONE',  ( 0.000000000000000000, 0.000000000000000000, 1.000000000000000000 ) ) ;
#340 = COLOUR_RGB ( '',1.000000000000000000, 0.000000000000000000, 0.000000000000000000 ) ;
#341 = ORIENTED_EDGE ( 'NONE', *, *, #69, .F. ) ;
#342 = ORIENTED_EDGE ( 'NONE', *, *, #258, .T. ) ;
#343 = AXIS2_PLACEMENT_3D ( 'NONE', #24, #298, #48 ) ;
#344 = FACE_OUTER_BOUND ( 'NONE', #155, .T. ) ;
#345 = AXIS2_PLACEMENT_3D ( 'NONE', #116, #83, #197 ) ;
#346 = CARTESIAN_POINT ( 'NONE',  ( 5.204170427930421283E-15, 32.00000000000000000, 0.000000000000000000 ) ) ;
#347 = EDGE_LOOP ( 'NONE', ( #104, #284, #317, #238 ) ) ;
#348 =( NAMED_UNIT ( * ) SI_UNIT ( $, .STERADIAN. ) SOLID_ANGLE_UNIT ( ) );
#349 = CARTESIAN_POINT ( 'NONE',  ( -7.999999999999989342, 32.00000000000000000, 0.000000000000000000 ) ) ;
#350 = PLANE ( 'NONE',  #334 ) ;
#351 = ORIENTED_EDGE ( 'NONE', *, *, #140, .F. ) ;
#352 = EDGE_CURVE ( 'NONE', #132, #39, #188, .T. ) ;
#353 =( NAMED_UNIT ( * ) PLANE_ANGLE_UNIT ( ) SI_UNIT ( $, .RADIAN. ) );
#354 = PRESENTATION_STYLE_ASSIGNMENT (( #80 ) ) ;
#355 = DIRECTION ( 'NONE',  ( -0.000000000000000000, -1.000000000000000000, -0.000000000000000000 ) ) ;
#356 = AXIS2_PLACEMENT_3D ( 'NONE', #366, #50, #11 ) ;
#357 = DIRECTION ( 'NONE',  ( -0.000000000000000000, -1.000000000000000000, -0.000000000000000000 ) ) ;
#358 = FILL_AREA_STYLE ('',( #336 ) ) ;
#359 = FACE_OUTER_BOUND ( 'NONE', #213, .T. ) ;
#360 = SURFACE_SIDE_STYLE ('',( #176 ) ) ;
#361 = FACE_OUTER_BOUND ( 'NONE', #88, .T. ) ;
#362 = PRODUCT_DEFINITION ( 'UNKNOWN', '', #32, #85 ) ;
#363 = VERTEX_POINT ( 'NONE', #308 ) ;
#364 = COLOUR_RGB ( '',1.000000000000000000, 0.000000000000000000, 0.000000000000000000 ) ;
#365 = DIRECTION ( 'NONE',  ( -1.000000000000000000, 0.000000000000000000, 0.000000000000000000 ) ) ;
#366 = CARTESIAN_POINT ( 'NONE',  ( 0.000000000000000000, 1.000000000000000000, 0.000000000000000000 ) ) ;
#367 = LINE ( 'NONE', #30, #193 ) ;
#368 = PRODUCT_RELATED_PRODUCT_CATEGORY ( 'part', '', ( #8 ) ) ;
#369 = SURFACE_STYLE_USAGE ( .BOTH. , #151 ) ;
#370 = CIRCLE ( 'NONE', #356, 8.000000000000000000 ) ;
ENDSEC;
END-ISO-10303-21;
