ISO-10303-21;
HEADER;
FILE_DESCRIPTION (( 'STEP AP214' ),
    '1' );
FILE_NAME ('06438.STEP',
    '2023-07-05T16:03:00',
    ( '' ),
    ( '' ),
    'SwSTEP 2.0',
    'SolidWorks 2023',
    '' );
FILE_SCHEMA (( 'AUTOMOTIVE_DESIGN' ));
ENDSEC;

DATA;
#1 = DIRECTION ( 'NONE',  ( -1.000000000000000000, 0.000000000000000000, 0.000000000000000000 ) ) ;
#2 = AXIS2_PLACEMENT_3D ( 'NONE', #126, #227, #22 ) ;
#3 = CARTESIAN_POINT ( 'NONE',  ( 0.000000000000000000, 39.37007874015748143, 0.000000000000000000 ) ) ;
#4 = EDGE_CURVE ( 'NONE', #220, #140, #107, .T. ) ;
#5 = VECTOR ( 'NONE', #90, 39.37007874015748854 ) ;
#6 =( NAMED_UNIT ( * ) PLANE_ANGLE_UNIT ( ) SI_UNIT ( $, .RADIAN. ) );
#7 =( NAMED_UNIT ( * ) SI_UNIT ( $, .STERADIAN. ) SOLID_ANGLE_UNIT ( ) );
#8 = AXIS2_PLACEMENT_3D ( 'NONE', #52, #155, #30 ) ;
#9 =( LENGTH_UNIT ( ) NAMED_UNIT ( * ) SI_UNIT ( $, .METRE. ) );
#10 = VERTEX_POINT ( 'NONE', #238 ) ;
#11 = CARTESIAN_POINT ( 'NONE',  ( 0.000000000000000000, 0.000000000000000000, 0.000000000000000000 ) ) ;
#12 = CARTESIAN_POINT ( 'NONE',  ( 0.000000000000000000, 0.000000000000000000, 0.000000000000000000 ) ) ;
#13 = DIRECTION ( 'NONE',  ( -1.000000000000000000, -1.365923996832134074E-16, 0.000000000000000000 ) ) ;
#14 = ORIENTED_EDGE ( 'NONE', *, *, #195, .F. ) ;
#15 = DIMENSIONAL_EXPONENTS ( 1.000000000000000000, 0.000000000000000000, 0.000000000000000000, 0.000000000000000000, 0.000000000000000000, 0.000000000000000000, 0.000000000000000000 ) ;
#16 = FACE_OUTER_BOUND ( 'NONE', #112, .T. ) ;
#17 = VECTOR ( 'NONE', #123, 39.37007874015748143 ) ;
#18 = DIMENSIONAL_EXPONENTS ( 1.000000000000000000, 0.000000000000000000, 0.000000000000000000, 0.000000000000000000, 0.000000000000000000, 0.000000000000000000, 0.000000000000000000 ) ;
#19 = ORIENTED_EDGE ( 'NONE', *, *, #97, .T. ) ;
#20 = FACE_OUTER_BOUND ( 'NONE', #242, .T. ) ;
#21 = PRESENTATION_LAYER_ASSIGNMENT (  '', '', ( #219 ) ) ;
#22 = DIRECTION ( 'NONE',  ( 0.000000000000000000, 0.000000000000000000, -1.000000000000000000 ) ) ;
#23 = DIRECTION ( 'NONE',  ( 0.000000000000000000, 1.000000000000000000, 0.000000000000000000 ) ) ;
#24 = CARTESIAN_POINT ( 'NONE',  ( 0.000000000000000000, 0.07216878364870282780, 0.000000000000000000 ) ) ;
#25 = PRESENTATION_LAYER_ASSIGNMENT (  '', '', ( #44 ) ) ;
#26 = EDGE_CURVE ( 'NONE', #168, #199, #191, .T. ) ;
#27 = CARTESIAN_POINT ( 'NONE',  ( 0.000000000000000000, 0.07216878364870282780, 0.000000000000000000 ) ) ;
#28 = CARTESIAN_POINT ( 'NONE',  ( 2.347681869555226296E-16, 0.07216878364870271678, 0.000000000000000000 ) ) ;
#29 = SURFACE_STYLE_USAGE ( .BOTH. , #234 ) ;
#30 = DIRECTION ( 'NONE',  ( -1.000000000000000000, 0.000000000000000000, 0.000000000000000000 ) ) ;
#31 = AXIS2_PLACEMENT_3D ( 'NONE', #28, #106, #13 ) ;
#32 = DIRECTION ( 'NONE',  ( 1.000000000000000000, 0.000000000000000000, 0.000000000000000000 ) ) ;
#33 = DIRECTION ( 'NONE',  ( -1.219197302182064860E-16, 1.000000000000000000, -0.000000000000000000 ) ) ;
#34 = DIRECTION ( 'NONE',  ( 0.000000000000000000, 0.4999999999999979461, 0.8660254037844397068 ) ) ;
#35 = DIMENSIONAL_EXPONENTS ( 1.000000000000000000, 0.000000000000000000, 0.000000000000000000, 0.000000000000000000, 0.000000000000000000, 0.000000000000000000, 0.000000000000000000 ) ;
#36 = DIRECTION ( 'NONE',  ( 0.000000000000000000, 0.000000000000000000, 1.000000000000000000 ) ) ;
#37 = AXIS2_PLACEMENT_3D ( 'NONE', #231, #45, #130 ) ;
#38 =( NAMED_UNIT ( * ) SI_UNIT ( $, .STERADIAN. ) SOLID_ANGLE_UNIT ( ) );
#39 = ADVANCED_FACE ( 'NONE', ( #89 ), #137, .T. ) ;
#40 = LENGTH_MEASURE_WITH_UNIT ( LENGTH_MEASURE( 0.02539999999999999897 ), #156 );
#41 = CIRCLE ( 'NONE', #2, 0.1249999999999999861 ) ;
#42 = FILL_AREA_STYLE_COLOUR ( '', #212 ) ;
#43 = UNCERTAINTY_MEASURE_WITH_UNIT (LENGTH_MEASURE( 1.000000000000000082E-05 ), #211, 'distance_accuracy_value', 'NONE');
#44 = STYLED_ITEM ( 'NONE', ( #167 ), #200 ) ;
#45 = DIRECTION ( 'NONE',  ( -1.219197302182064860E-16, 1.000000000000000000, -0.000000000000000000 ) ) ;
#46 = CARTESIAN_POINT ( 'NONE',  ( 0.000000000000000000, 0.000000000000000000, 0.000000000000000000 ) ) ;
#47 = MECHANICAL_DESIGN_GEOMETRIC_PRESENTATION_REPRESENTATION (  '', ( #44 ), #98 ) ;
#48 = ADVANCED_BREP_SHAPE_REPRESENTATION ( '06438', ( #200, #205, #171 ), #60 ) ;
#49 = FILL_AREA_STYLE_COLOUR ( '', #68 ) ;
#50 = EDGE_LOOP ( 'NONE', ( #241, #218, #75 ) ) ;
#51 = VECTOR ( 'NONE', #34, 39.37007874015748854 ) ;
#52 = CARTESIAN_POINT ( 'NONE',  ( -6.123233995736766036E-17, 2.500000000000000000, 0.000000000000000000 ) ) ;
#53 = ORIENTED_EDGE ( 'NONE', *, *, #4, .T. ) ;
#54 =( LENGTH_UNIT ( ) NAMED_UNIT ( * ) SI_UNIT ( $, .METRE. ) );
#55 = LENGTH_MEASURE_WITH_UNIT ( LENGTH_MEASURE( 0.02539999999999999897 ), #54 );
#56 = ORIENTED_EDGE ( 'NONE', *, *, #189, .F. ) ;
#57 = DIRECTION ( 'NONE',  ( -1.219197302182064860E-16, 1.000000000000000000, 0.000000000000000000 ) ) ;
#58 = PLANE ( 'NONE',  #59 ) ;
#59 = AXIS2_PLACEMENT_3D ( 'NONE', #244, #57, #142 ) ;
#60 =( GEOMETRIC_REPRESENTATION_CONTEXT ( 3 ) GLOBAL_UNCERTAINTY_ASSIGNED_CONTEXT ( ( #43 ) ) GLOBAL_UNIT_ASSIGNED_CONTEXT ( ( #211, #217, #87 ) ) REPRESENTATION_CONTEXT ( 'NONE', 'WORKASPACE' ) );
#61 =( NAMED_UNIT ( * ) SI_UNIT ( $, .STERADIAN. ) SOLID_ANGLE_UNIT ( ) );
#62 = CARTESIAN_POINT ( 'NONE',  ( 0.1249999999999999861, 2.500000000000000000, 1.530808498934191201E-17 ) ) ;
#63 = COLOUR_RGB ( '',1.000000000000000000, 0.000000000000000000, 0.000000000000000000 ) ;
#64 = DIRECTION ( 'NONE',  ( -1.219197302182064860E-16, 1.000000000000000000, -0.000000000000000000 ) ) ;
#65 = ADVANCED_FACE ( 'NONE', ( #20 ), #161, .T. ) ;
#66 = DIRECTION ( 'NONE',  ( -1.000000000000000000, 0.000000000000000000, 0.000000000000000000 ) ) ;
#67 = CARTESIAN_POINT ( 'NONE',  ( 0.000000000000000000, 0.07216878364870282780, 0.1250000000000000000 ) ) ;
#68 = COLOUR_RGB ( '',1.000000000000000000, 0.000000000000000000, 0.000000000000000000 ) ;
#69 = SURFACE_SIDE_STYLE ('',( #252 ) ) ;
#70 = SHAPE_DEFINITION_REPRESENTATION ( #192, #48 ) ;
#71 = SURFACE_STYLE_FILL_AREA ( #216 ) ;
#72 = PRESENTATION_LAYER_ASSIGNMENT (  '', '', ( #131 ) ) ;
#73 = VERTEX_POINT ( 'NONE', #125 ) ;
#74 = ADVANCED_FACE ( 'NONE', ( #176 ), #160, .F. ) ;
#75 = ORIENTED_EDGE ( 'NONE', *, *, #189, .T. ) ;
#76 =( LENGTH_UNIT ( ) NAMED_UNIT ( * ) SI_UNIT ( $, .METRE. ) );
#77 = ADVANCED_FACE ( 'NONE', ( #265 ), #58, .F. ) ;
#78 = LINE ( 'NONE', #221, #17 ) ;
#79 = PRESENTATION_STYLE_ASSIGNMENT (( #177 ) ) ;
#80 = COLOUR_RGB ( '',0.7921568627450980005, 0.8196078431372548767, 0.9333333333333333481 ) ;
#81 =( NAMED_UNIT ( * ) SI_UNIT ( $, .STERADIAN. ) SOLID_ANGLE_UNIT ( ) );
#82 = AXIS2_PLACEMENT_3D ( 'NONE', #115, #214, #36 ) ;
#83 =( CONVERSION_BASED_UNIT ( 'INCH', #185 ) LENGTH_UNIT ( ) NAMED_UNIT ( #18 ) );
#84 = CARTESIAN_POINT ( 'NONE',  ( -0.1249999999999999861, 2.500000000000000000, 0.000000000000000000 ) ) ;
#85 = PRODUCT ( '06438', '06438', '', ( #258 ) ) ;
#86 =( GEOMETRIC_REPRESENTATION_CONTEXT ( 3 ) GLOBAL_UNCERTAINTY_ASSIGNED_CONTEXT ( ( #225 ) ) GLOBAL_UNIT_ASSIGNED_CONTEXT ( ( #94, #257, #113 ) ) REPRESENTATION_CONTEXT ( 'NONE', 'WORKASPACE' ) );
#87 =( NAMED_UNIT ( * ) SI_UNIT ( $, .STERADIAN. ) SOLID_ANGLE_UNIT ( ) );
#88 = ORIENTED_EDGE ( 'NONE', *, *, #250, .T. ) ;
#89 = FACE_OUTER_BOUND ( 'NONE', #158, .T. ) ;
#90 = DIRECTION ( 'NONE',  ( 1.060575238724908024E-16, 0.4999999999999979461, -0.8660254037844397068 ) ) ;
#91 = ORIENTED_EDGE ( 'NONE', *, *, #226, .T. ) ;
#92 = ORIENTED_EDGE ( 'NONE', *, *, #226, .F. ) ;
#93 = DIMENSIONAL_EXPONENTS ( 1.000000000000000000, 0.000000000000000000, 0.000000000000000000, 0.000000000000000000, 0.000000000000000000, 0.000000000000000000, 0.000000000000000000 ) ;
#94 =( CONVERSION_BASED_UNIT ( 'INCH', #55 ) LENGTH_UNIT ( ) NAMED_UNIT ( #35 ) );
#95 = ORIENTED_EDGE ( 'NONE', *, *, #149, .F. ) ;
#96 =( CONVERSION_BASED_UNIT ( 'INCH', #40 ) LENGTH_UNIT ( ) NAMED_UNIT ( #256 ) );
#97 = EDGE_CURVE ( 'NONE', #73, #199, #41, .T. ) ;
#98 =( GEOMETRIC_REPRESENTATION_CONTEXT ( 3 ) GLOBAL_UNCERTAINTY_ASSIGNED_CONTEXT ( ( #162 ) ) GLOBAL_UNIT_ASSIGNED_CONTEXT ( ( #83, #148, #7 ) ) REPRESENTATION_CONTEXT ( 'NONE', 'WORKASPACE' ) );
#99 = DIRECTION ( 'NONE',  ( 0.000000000000000000, -0.000000000000000000, 1.000000000000000000 ) ) ;
#100 = LENGTH_MEASURE_WITH_UNIT ( LENGTH_MEASURE( 0.02539999999999999897 ), #76 );
#101 = SURFACE_STYLE_FILL_AREA ( #202 ) ;
#102 = STYLED_ITEM ( 'NONE', ( #208 ), #205 ) ;
#103 =( NAMED_UNIT ( * ) PLANE_ANGLE_UNIT ( ) SI_UNIT ( $, .RADIAN. ) );
#104 = PRODUCT_DEFINITION_CONTEXT ( 'detailed design', #261, 'design' ) ;
#105 = DIRECTION ( 'NONE',  ( -1.219197302182064860E-16, 1.000000000000000000, -0.000000000000000000 ) ) ;
#106 = DIRECTION ( 'NONE',  ( -1.219197302182064860E-16, 1.000000000000000000, -0.000000000000000000 ) ) ;
#107 = CIRCLE ( 'NONE', #118, 0.1249999999999997780 ) ;
#108 = VECTOR ( 'NONE', #105, 39.37007874015748143 ) ;
#109 = FILL_AREA_STYLE_COLOUR ( '', #80 ) ;
#110 = DIRECTION ( 'NONE',  ( -0.000000000000000000, -1.000000000000000000, -0.000000000000000000 ) ) ;
#111 = DIRECTION ( 'NONE',  ( 0.000000000000000000, 0.000000000000000000, 1.000000000000000000 ) ) ;
#112 = EDGE_LOOP ( 'NONE', ( #133, #88, #19 ) ) ;
#113 =( NAMED_UNIT ( * ) SI_UNIT ( $, .STERADIAN. ) SOLID_ANGLE_UNIT ( ) );
#114 = DIRECTION ( 'NONE',  ( -1.000000000000000000, -1.365923996832134074E-16, 0.000000000000000000 ) ) ;
#115 = CARTESIAN_POINT ( 'NONE',  ( 0.000000000000000000, 39.37007874015748143, 0.000000000000000000 ) ) ;
#116 = SURFACE_STYLE_USAGE ( .BOTH. , #135 ) ;
#117 = ORIENTED_EDGE ( 'NONE', *, *, #195, .T. ) ;
#118 = AXIS2_PLACEMENT_3D ( 'NONE', #254, #33, #114 ) ;
#119 = MECHANICAL_DESIGN_GEOMETRIC_PRESENTATION_REPRESENTATION (  '', ( #131 ), #124 ) ;
#120 = EDGE_LOOP ( 'NONE', ( #255, #196 ) ) ;
#121 = DIRECTION ( 'NONE',  ( 0.000000000000000000, 1.000000000000000000, 0.000000000000000000 ) ) ;
#122 = ADVANCED_FACE ( 'NONE', ( #246 ), #163, .T. ) ;
#123 = DIRECTION ( 'NONE',  ( -1.219197302182064860E-16, 1.000000000000000000, -0.000000000000000000 ) ) ;
#124 =( GEOMETRIC_REPRESENTATION_CONTEXT ( 3 ) GLOBAL_UNCERTAINTY_ASSIGNED_CONTEXT ( ( #179 ) ) GLOBAL_UNIT_ASSIGNED_CONTEXT ( ( #260, #103, #38 ) ) REPRESENTATION_CONTEXT ( 'NONE', 'WORKASPACE' ) );
#125 = CARTESIAN_POINT ( 'NONE',  ( 1.530808498934191509E-17, 0.07216878364870282780, -0.1250000000000000000 ) ) ;
#126 = CARTESIAN_POINT ( 'NONE',  ( 0.000000000000000000, 0.07216878364870282780, 0.000000000000000000 ) ) ;
#127 = CARTESIAN_POINT ( 'NONE',  ( 0.1250000000000000000, 2.500000000000000000, 0.000000000000000000 ) ) ;
#128 = LENGTH_MEASURE_WITH_UNIT ( LENGTH_MEASURE( 0.02539999999999999897 ), #184 );
#129 =( CONVERSION_BASED_UNIT ( 'INCH', #128 ) LENGTH_UNIT ( ) NAMED_UNIT ( #152 ) );
#130 = DIRECTION ( 'NONE',  ( -1.000000000000000000, 0.000000000000000000, 0.000000000000000000 ) ) ;
#131 = STYLED_ITEM ( 'NONE', ( #79 ), #122 ) ;
#132 = FILL_AREA_STYLE ('',( #109 ) ) ;
#133 = ORIENTED_EDGE ( 'NONE', *, *, #26, .F. ) ;
#134 = AXIS2_PLACEMENT_3D ( 'NONE', #3, #121, #141 ) ;
#135 = SURFACE_SIDE_STYLE ('',( #71 ) ) ;
#136 = FILL_AREA_STYLE ('',( #49 ) ) ;
#137 = PLANE ( 'NONE',  #262 ) ;
#138 = MECHANICAL_DESIGN_GEOMETRIC_PRESENTATION_REPRESENTATION (  '', ( #219 ), #86 ) ;
#139 = CONICAL_SURFACE ( 'NONE', #82, 68.19097667594041923, 1.047197551196600074 ) ;
#140 = VERTEX_POINT ( 'NONE', #144 ) ;
#141 = DIRECTION ( 'NONE',  ( 0.000000000000000000, 0.000000000000000000, 1.000000000000000000 ) ) ;
#142 = DIRECTION ( 'NONE',  ( -1.000000000000000000, -1.219197302182064860E-16, 0.000000000000000000 ) ) ;
#143 = PRESENTATION_LAYER_ASSIGNMENT (  '', '', ( #102 ) ) ;
#144 = CARTESIAN_POINT ( 'NONE',  ( 0.1250000000000000278, 0.07216878364870273066, 1.530808498934191201E-17 ) ) ;
#145 = CARTESIAN_POINT ( 'NONE',  ( -6.123233995736766036E-17, 2.500000000000000000, 0.000000000000000000 ) ) ;
#146 = AXIS2_PLACEMENT_3D ( 'NONE', #27, #110, #166 ) ;
#147 = FACE_OUTER_BOUND ( 'NONE', #173, .T. ) ;
#148 =( NAMED_UNIT ( * ) PLANE_ANGLE_UNIT ( ) SI_UNIT ( $, .RADIAN. ) );
#149 = EDGE_CURVE ( 'NONE', #140, #213, #78, .T. ) ;
#150 = FILL_AREA_STYLE ('',( #209 ) ) ;
#151 =( GEOMETRIC_REPRESENTATION_CONTEXT ( 3 ) GLOBAL_UNCERTAINTY_ASSIGNED_CONTEXT ( ( #207 ) ) GLOBAL_UNIT_ASSIGNED_CONTEXT ( ( #129, #6, #81 ) ) REPRESENTATION_CONTEXT ( 'NONE', 'WORKASPACE' ) );
#152 = DIMENSIONAL_EXPONENTS ( 1.000000000000000000, 0.000000000000000000, 0.000000000000000000, 0.000000000000000000, 0.000000000000000000, 0.000000000000000000, 0.000000000000000000 ) ;
#153 = SURFACE_STYLE_USAGE ( .BOTH. , #239 ) ;
#154 = ORIENTED_EDGE ( 'NONE', *, *, #180, .F. ) ;
#155 = DIRECTION ( 'NONE',  ( -1.219197302182064860E-16, 1.000000000000000000, -0.000000000000000000 ) ) ;
#156 =( LENGTH_UNIT ( ) NAMED_UNIT ( * ) SI_UNIT ( $, .METRE. ) );
#157 = LENGTH_MEASURE_WITH_UNIT ( LENGTH_MEASURE( 0.02539999999999999897 ), #9 );
#158 = EDGE_LOOP ( 'NONE', ( #56, #259 ) ) ;
#159 = CIRCLE ( 'NONE', #31, 0.1249999999999997780 ) ;
#160 = PLANE ( 'NONE',  #230 ) ;
#161 = CYLINDRICAL_SURFACE ( 'NONE', #198, 0.1249999999999999167 ) ;
#162 = UNCERTAINTY_MEASURE_WITH_UNIT (LENGTH_MEASURE( 1.000000000000000082E-05 ), #83, 'distance_accuracy_value', 'NONE');
#163 = CONICAL_SURFACE ( 'NONE', #134, 68.19097667594041923, 1.047197551196600074 ) ;
#164 = DIRECTION ( 'NONE',  ( -1.219197302182064860E-16, 1.000000000000000000, -0.000000000000000000 ) ) ;
#165 = LINE ( 'NONE', #84, #108 ) ;
#166 = DIRECTION ( 'NONE',  ( 0.000000000000000000, 0.000000000000000000, -1.000000000000000000 ) ) ;
#167 = PRESENTATION_STYLE_ASSIGNMENT (( #29 ) ) ;
#168 = VERTEX_POINT ( 'NONE', #46 ) ;
#169 = APPLICATION_PROTOCOL_DEFINITION ( 'draft international standard', 'automotive_design', 1998, #261 ) ;
#170 = FILL_AREA_STYLE_COLOUR ( '', #63 ) ;
#171 = AXIS2_PLACEMENT_3D ( 'NONE', #210, #111, #32 ) ;
#172 = PRESENTATION_STYLE_ASSIGNMENT (( #153 ) ) ;
#173 = EDGE_LOOP ( 'NONE', ( #53, #188, #154, #14 ) ) ;
#174 = EDGE_LOOP ( 'NONE', ( #240, #92 ) ) ;
#175 = MECHANICAL_DESIGN_GEOMETRIC_PRESENTATION_REPRESENTATION (  '', ( #102 ), #151 ) ;
#176 = FACE_OUTER_BOUND ( 'NONE', #120, .T. ) ;
#177 = SURFACE_STYLE_USAGE ( .BOTH. , #247 ) ;
#178 = CIRCLE ( 'NONE', #8, 0.1250000000000000555 ) ;
#179 = UNCERTAINTY_MEASURE_WITH_UNIT (LENGTH_MEASURE( 1.000000000000000082E-05 ), #260, 'distance_accuracy_value', 'NONE');
#180 = EDGE_CURVE ( 'NONE', #10, #213, #251, .T. ) ;
#181 = CLOSED_SHELL ( 'NONE', ( #215, #77, #65, #74 ) ) ;
#182 = PRESENTATION_LAYER_ASSIGNMENT (  '', '', ( #245 ) ) ;
#183 = SURFACE_STYLE_FILL_AREA ( #150 ) ;
#184 =( LENGTH_UNIT ( ) NAMED_UNIT ( * ) SI_UNIT ( $, .METRE. ) );
#185 = LENGTH_MEASURE_WITH_UNIT ( LENGTH_MEASURE( 0.02539999999999999897 ), #232 );
#186 = APPLICATION_CONTEXT ( 'automotive_design' ) ;
#187 = AXIS2_PLACEMENT_3D ( 'NONE', #249, #64, #66 ) ;
#188 = ORIENTED_EDGE ( 'NONE', *, *, #149, .T. ) ;
#189 = EDGE_CURVE ( 'NONE', #199, #73, #223, .T. ) ;
#190 = SURFACE_STYLE_FILL_AREA ( #136 ) ;
#191 = LINE ( 'NONE', #12, #51 ) ;
#192 = PRODUCT_DEFINITION_SHAPE ( 'NONE', 'NONE',  #235 ) ;
#193 = LINE ( 'NONE', #11, #5 ) ;
#194 = PRESENTATION_STYLE_ASSIGNMENT (( #116 ) ) ;
#195 = EDGE_CURVE ( 'NONE', #220, #10, #165, .T. ) ;
#196 = ORIENTED_EDGE ( 'NONE', *, *, #243, .T. ) ;
#197 = CLOSED_SHELL ( 'NONE', ( #248, #39, #122 ) ) ;
#198 = AXIS2_PLACEMENT_3D ( 'NONE', #145, #164, #1 ) ;
#199 = VERTEX_POINT ( 'NONE', #67 ) ;
#200 = MANIFOLD_SOLID_BREP ( 'Revolve - Cutting Edge', #197 ) ;
#201 = COLOUR_RGB ( '',0.7921568627450980005, 0.8196078431372548767, 0.9333333333333333481 ) ;
#202 = FILL_AREA_STYLE ('',( #42 ) ) ;
#203 = DIRECTION ( 'NONE',  ( 1.000000000000000000, 1.219197302182064860E-16, 0.000000000000000000 ) ) ;
#204 = CYLINDRICAL_SURFACE ( 'NONE', #37, 0.1249999999999999167 ) ;
#205 = MANIFOLD_SOLID_BREP ( 'Revolve - Tool Body (Pointed)', #181 ) ;
#206 = CARTESIAN_POINT ( 'NONE',  ( -0.1249999999999995420, 0.07216878364870270290, 0.000000000000000000 ) ) ;
#207 = UNCERTAINTY_MEASURE_WITH_UNIT (LENGTH_MEASURE( 1.000000000000000082E-05 ), #129, 'distance_accuracy_value', 'NONE');
#208 = PRESENTATION_STYLE_ASSIGNMENT (( #228 ) ) ;
#209 = FILL_AREA_STYLE_COLOUR ( '', #201 ) ;
#210 = CARTESIAN_POINT ( 'NONE',  ( 0.000000000000000000, 0.000000000000000000, 0.000000000000000000 ) ) ;
#211 =( CONVERSION_BASED_UNIT ( 'INCH', #157 ) LENGTH_UNIT ( ) NAMED_UNIT ( #93 ) );
#212 = COLOUR_RGB ( '',1.000000000000000000, 0.000000000000000000, 0.000000000000000000 ) ;
#213 = VERTEX_POINT ( 'NONE', #62 ) ;
#214 = DIRECTION ( 'NONE',  ( 0.000000000000000000, 1.000000000000000000, 0.000000000000000000 ) ) ;
#215 = ADVANCED_FACE ( 'NONE', ( #147 ), #204, .T. ) ;
#216 = FILL_AREA_STYLE ('',( #170 ) ) ;
#217 =( NAMED_UNIT ( * ) PLANE_ANGLE_UNIT ( ) SI_UNIT ( $, .RADIAN. ) );
#218 = ORIENTED_EDGE ( 'NONE', *, *, #26, .T. ) ;
#219 = STYLED_ITEM ( 'NONE', ( #172 ), #248 ) ;
#220 = VERTEX_POINT ( 'NONE', #206 ) ;
#221 = CARTESIAN_POINT ( 'NONE',  ( 0.1249999999999998473, 2.500000000000000000, 1.530808498934190276E-17 ) ) ;
#222 = DIRECTION ( 'NONE',  ( 1.219197302182064860E-16, -1.000000000000000000, 0.000000000000000000 ) ) ;
#223 = CIRCLE ( 'NONE', #146, 0.1249999999999999861 ) ;
#224 =( NAMED_UNIT ( * ) PLANE_ANGLE_UNIT ( ) SI_UNIT ( $, .RADIAN. ) );
#225 = UNCERTAINTY_MEASURE_WITH_UNIT (LENGTH_MEASURE( 1.000000000000000082E-05 ), #94, 'distance_accuracy_value', 'NONE');
#226 = EDGE_CURVE ( 'NONE', #140, #220, #159, .T. ) ;
#227 = DIRECTION ( 'NONE',  ( -0.000000000000000000, -1.000000000000000000, -0.000000000000000000 ) ) ;
#228 = SURFACE_STYLE_USAGE ( .BOTH. , #69 ) ;
#229 = UNCERTAINTY_MEASURE_WITH_UNIT (LENGTH_MEASURE( 1.000000000000000082E-05 ), #96, 'distance_accuracy_value', 'NONE');
#230 = AXIS2_PLACEMENT_3D ( 'NONE', #127, #222, #203 ) ;
#231 = CARTESIAN_POINT ( 'NONE',  ( -6.123233995736766036E-17, 2.500000000000000000, 0.000000000000000000 ) ) ;
#232 =( LENGTH_UNIT ( ) NAMED_UNIT ( * ) SI_UNIT ( $, .METRE. ) );
#233 = MECHANICAL_DESIGN_GEOMETRIC_PRESENTATION_REPRESENTATION (  '', ( #245 ), #237 ) ;
#234 = SURFACE_SIDE_STYLE ('',( #183 ) ) ;
#235 = PRODUCT_DEFINITION ( 'UNKNOWN', '', #263, #104 ) ;
#236 = ORIENTED_EDGE ( 'NONE', *, *, #243, .F. ) ;
#237 =( GEOMETRIC_REPRESENTATION_CONTEXT ( 3 ) GLOBAL_UNCERTAINTY_ASSIGNED_CONTEXT ( ( #229 ) ) GLOBAL_UNIT_ASSIGNED_CONTEXT ( ( #96, #224, #61 ) ) REPRESENTATION_CONTEXT ( 'NONE', 'WORKASPACE' ) );
#238 = CARTESIAN_POINT ( 'NONE',  ( -0.1250000000000001388, 2.500000000000000000, 0.000000000000000000 ) ) ;
#239 = SURFACE_SIDE_STYLE ('',( #190 ) ) ;
#240 = ORIENTED_EDGE ( 'NONE', *, *, #4, .F. ) ;
#241 = ORIENTED_EDGE ( 'NONE', *, *, #250, .F. ) ;
#242 = EDGE_LOOP ( 'NONE', ( #95, #91, #117, #236 ) ) ;
#243 = EDGE_CURVE ( 'NONE', #213, #10, #178, .T. ) ;
#244 = CARTESIAN_POINT ( 'NONE',  ( 2.347681869555226296E-16, 0.07216878364870282780, 0.000000000000000000 ) ) ;
#245 = STYLED_ITEM ( 'NONE', ( #194 ), #39 ) ;
#246 = FACE_OUTER_BOUND ( 'NONE', #50, .T. ) ;
#247 = SURFACE_SIDE_STYLE ('',( #101 ) ) ;
#248 = ADVANCED_FACE ( 'NONE', ( #16 ), #139, .T. ) ;
#249 = CARTESIAN_POINT ( 'NONE',  ( -6.123233995736766036E-17, 2.500000000000000000, 0.000000000000000000 ) ) ;
#250 = EDGE_CURVE ( 'NONE', #168, #73, #193, .T. ) ;
#251 = CIRCLE ( 'NONE', #187, 0.1250000000000000555 ) ;
#252 = SURFACE_STYLE_FILL_AREA ( #132 ) ;
#253 = APPLICATION_PROTOCOL_DEFINITION ( 'draft international standard', 'automotive_design', 1998, #186 ) ;
#254 = CARTESIAN_POINT ( 'NONE',  ( 2.347681869555226296E-16, 0.07216878364870271678, 0.000000000000000000 ) ) ;
#255 = ORIENTED_EDGE ( 'NONE', *, *, #180, .T. ) ;
#256 = DIMENSIONAL_EXPONENTS ( 1.000000000000000000, 0.000000000000000000, 0.000000000000000000, 0.000000000000000000, 0.000000000000000000, 0.000000000000000000, 0.000000000000000000 ) ;
#257 =( NAMED_UNIT ( * ) PLANE_ANGLE_UNIT ( ) SI_UNIT ( $, .RADIAN. ) );
#258 = PRODUCT_CONTEXT ( 'NONE', #186, 'mechanical' ) ;
#259 = ORIENTED_EDGE ( 'NONE', *, *, #97, .F. ) ;
#260 =( CONVERSION_BASED_UNIT ( 'INCH', #100 ) LENGTH_UNIT ( ) NAMED_UNIT ( #15 ) );
#261 = APPLICATION_CONTEXT ( 'automotive_design' ) ;
#262 = AXIS2_PLACEMENT_3D ( 'NONE', #24, #23, #99 ) ;
#263 = PRODUCT_DEFINITION_FORMATION_WITH_SPECIFIED_SOURCE ( 'ANY', '', #85, .NOT_KNOWN. ) ;
#264 = PRODUCT_RELATED_PRODUCT_CATEGORY ( 'part', '', ( #85 ) ) ;
#265 = FACE_OUTER_BOUND ( 'NONE', #174, .T. ) ;
ENDSEC;
END-ISO-10303-21;
