ISO-10303-21;
HEADER;
FILE_DESCRIPTION (( 'STEP AP214' ),
    '1' );
FILE_NAME ('82254.STEP',
    '2023-06-23T04:16:04',
    ( '' ),
    ( '' ),
    'SwSTEP 2.0',
    'SolidWorks 2023',
    '' );
FILE_SCHEMA (( 'AUTOMOTIVE_DESIGN' ));
ENDSEC;

DATA;
#1 = CONICAL_SURFACE ( 'NONE', #120, 0.07810000000000000275, 0.3490658503988654515 ) ;
#2 = ORIENTED_EDGE ( 'NONE', *, *, #95, .T. ) ;
#3 = ORIENTED_EDGE ( 'NONE', *, *, #94, .T. ) ;
#4 = UNCERTAINTY_MEASURE_WITH_UNIT (LENGTH_MEASURE( 1.000000000000000082E-05 ), #353, 'distance_accuracy_value', 'NONE');
#5 = CIRCLE ( 'NONE', #321, 0.09375000000000001388 ) ;
#6 = PRESENTATION_LAYER_ASSIGNMENT (  '', '', ( #55 ) ) ;
#7 = APPLICATION_CONTEXT ( 'automotive_design' ) ;
#8 = VERTEX_POINT ( 'NONE', #338 ) ;
#9 = APPLICATION_PROTOCOL_DEFINITION ( 'draft international standard', 'automotive_design', 1998, #163 ) ;
#10 = ORIENTED_EDGE ( 'NONE', *, *, #310, .F. ) ;
#11 = DIRECTION ( 'NONE',  ( -1.000000000000000000, 0.000000000000000000, 0.000000000000000000 ) ) ;
#12 = DIRECTION ( 'NONE',  ( 3.498990854706726443E-17, 1.000000000000000000, -0.000000000000000000 ) ) ;
#13 = UNCERTAINTY_MEASURE_WITH_UNIT (LENGTH_MEASURE( 1.000000000000000082E-05 ), #264, 'distance_accuracy_value', 'NONE');
#14 = CARTESIAN_POINT ( 'NONE',  ( 0.000000000000000000, 0.7500000000000001110, 0.000000000000000000 ) ) ;
#15 = DIRECTION ( 'NONE',  ( 3.498990854706726443E-17, 1.000000000000000000, -0.000000000000000000 ) ) ;
#16 =( CONVERSION_BASED_UNIT ( 'INCH', #150 ) LENGTH_UNIT ( ) NAMED_UNIT ( #324 ) );
#17 = DIRECTION ( 'NONE',  ( 0.000000000000000000, -0.000000000000000000, 1.000000000000000000 ) ) ;
#18 = CARTESIAN_POINT ( 'NONE',  ( 6.123233995736772199E-17, 2.500000000000000000, 0.000000000000000000 ) ) ;
#19 = DIRECTION ( 'NONE',  ( -1.000000000000000000, 0.000000000000000000, 0.000000000000000000 ) ) ;
#20 = FACE_OUTER_BOUND ( 'NONE', #135, .T. ) ;
#21 = DIMENSIONAL_EXPONENTS ( 1.000000000000000000, 0.000000000000000000, 0.000000000000000000, 0.000000000000000000, 0.000000000000000000, 0.000000000000000000, 0.000000000000000000 ) ;
#22 = DIRECTION ( 'NONE',  ( 3.498990854706726443E-17, 1.000000000000000000, -0.000000000000000000 ) ) ;
#23 = DIRECTION ( 'NONE',  ( 3.498990854706726443E-17, 1.000000000000000000, -0.000000000000000000 ) ) ;
#24 = CIRCLE ( 'NONE', #242, 0.07810000000000000275 ) ;
#25 = CARTESIAN_POINT ( 'NONE',  ( 0.000000000000000000, 0.000000000000000000, 0.000000000000000000 ) ) ;
#26 = FACE_OUTER_BOUND ( 'NONE', #195, .T. ) ;
#27 = AXIS2_PLACEMENT_3D ( 'NONE', #29, #47, #292 ) ;
#28 = FACE_OUTER_BOUND ( 'NONE', #167, .T. ) ;
#29 = CARTESIAN_POINT ( 'NONE',  ( 0.000000000000000000, 0.7499999999999998890, 0.000000000000000000 ) ) ;
#30 =( CONVERSION_BASED_UNIT ( 'INCH', #191 ) LENGTH_UNIT ( ) NAMED_UNIT ( #21 ) );
#31 = SURFACE_STYLE_USAGE ( .BOTH. , #58 ) ;
#32 = DIRECTION ( 'NONE',  ( 1.000000000000000000, -3.498990854706726443E-17, 0.000000000000000000 ) ) ;
#33 = SURFACE_STYLE_FILL_AREA ( #216 ) ;
#34 = VERTEX_POINT ( 'NONE', #346 ) ;
#35 = EDGE_CURVE ( 'NONE', #8, #205, #24, .T. ) ;
#36 = STYLED_ITEM ( 'NONE', ( #237 ), #66 ) ;
#37 = ORIENTED_EDGE ( 'NONE', *, *, #91, .T. ) ;
#38 = DIRECTION ( 'NONE',  ( 0.000000000000000000, 0.000000000000000000, -1.000000000000000000 ) ) ;
#39 = DIRECTION ( 'NONE',  ( 0.000000000000000000, 0.000000000000000000, -1.000000000000000000 ) ) ;
#40 = UNCERTAINTY_MEASURE_WITH_UNIT (LENGTH_MEASURE( 1.000000000000000082E-05 ), #56, 'distance_accuracy_value', 'NONE');
#41 = DIMENSIONAL_EXPONENTS ( 1.000000000000000000, 0.000000000000000000, 0.000000000000000000, 0.000000000000000000, 0.000000000000000000, 0.000000000000000000, 0.000000000000000000 ) ;
#42 = DIRECTION ( 'NONE',  ( -0.000000000000000000, -1.000000000000000000, -0.000000000000000000 ) ) ;
#43 = SURFACE_STYLE_USAGE ( .BOTH. , #228 ) ;
#44 = CARTESIAN_POINT ( 'NONE',  ( -0.09374999999999995837, 2.500000000000000000, 0.000000000000000000 ) ) ;
#45 = LINE ( 'NONE', #356, #90 ) ;
#46 = DIRECTION ( 'NONE',  ( 0.000000000000000000, 1.000000000000000000, 0.000000000000000000 ) ) ;
#47 = DIRECTION ( 'NONE',  ( 3.498990854706726443E-17, 1.000000000000000000, -0.000000000000000000 ) ) ;
#48 = PRESENTATION_LAYER_ASSIGNMENT (  '', '', ( #77 ) ) ;
#49 = CARTESIAN_POINT ( 'NONE',  ( 0.000000000000000000, 0.7499999999999998890, 0.000000000000000000 ) ) ;
#50 = DIRECTION ( 'NONE',  ( -1.000000000000000000, 0.000000000000000000, 0.000000000000000000 ) ) ;
#51 =( CONVERSION_BASED_UNIT ( 'INCH', #268 ) LENGTH_UNIT ( ) NAMED_UNIT ( #235 ) );
#52 = DIRECTION ( 'NONE',  ( -0.000000000000000000, -1.000000000000000000, -0.000000000000000000 ) ) ;
#53 = CARTESIAN_POINT ( 'NONE',  ( 0.07810000000000000275, 0.7499999999999998890, 9.564491501340828324E-18 ) ) ;
#54 = AXIS2_PLACEMENT_3D ( 'NONE', #262, #15, #124 ) ;
#55 = STYLED_ITEM ( 'NONE', ( #231 ), #358 ) ;
#56 =( CONVERSION_BASED_UNIT ( 'INCH', #325 ) LENGTH_UNIT ( ) NAMED_UNIT ( #41 ) );
#57 = ORIENTED_EDGE ( 'NONE', *, *, #247, .F. ) ;
#58 = SURFACE_SIDE_STYLE ('',( #306 ) ) ;
#59 = ORIENTED_EDGE ( 'NONE', *, *, #220, .T. ) ;
#60 = COLOUR_RGB ( '',0.7921568627450980005, 0.8196078431372548767, 0.9333333333333333481 ) ;
#61 = ORIENTED_EDGE ( 'NONE', *, *, #95, .F. ) ;
#62 = EDGE_LOOP ( 'NONE', ( #37, #250, #117, #61 ) ) ;
#63 =( GEOMETRIC_REPRESENTATION_CONTEXT ( 3 ) GLOBAL_UNCERTAINTY_ASSIGNED_CONTEXT ( ( #13 ) ) GLOBAL_UNIT_ASSIGNED_CONTEXT ( ( #264, #174, #198 ) ) REPRESENTATION_CONTEXT ( 'NONE', 'WORKASPACE' ) );
#64 = PRESENTATION_LAYER_ASSIGNMENT (  '', '', ( #186 ) ) ;
#65 = CARTESIAN_POINT ( 'NONE',  ( 6.123233995736772199E-17, 2.500000000000000000, 0.000000000000000000 ) ) ;
#66 = ADVANCED_FACE ( 'NONE', ( #180 ), #126, .T. ) ;
#67 = DIRECTION ( 'NONE',  ( 0.000000000000000000, -1.000000000000000000, -0.000000000000000000 ) ) ;
#68 = FILL_AREA_STYLE ('',( #96 ) ) ;
#69 = CARTESIAN_POINT ( 'NONE',  ( 0.000000000000000000, 0.000000000000000000, 0.000000000000000000 ) ) ;
#70 = AXIS2_PLACEMENT_3D ( 'NONE', #313, #286, #342 ) ;
#71 = VECTOR ( 'NONE', #76, 39.37007874015748143 ) ;
#72 = LENGTH_MEASURE_WITH_UNIT ( LENGTH_MEASURE( 0.02539999999999999897 ), #122 );
#73 = SURFACE_STYLE_USAGE ( .BOTH. , #183 ) ;
#74 = CARTESIAN_POINT ( 'NONE',  ( -0.07810000000000000275, 0.7499999999999998890, 0.000000000000000000 ) ) ;
#75 = DIMENSIONAL_EXPONENTS ( 1.000000000000000000, 0.000000000000000000, 0.000000000000000000, 0.000000000000000000, 0.000000000000000000, 0.000000000000000000, 0.000000000000000000 ) ;
#76 = DIRECTION ( 'NONE',  ( 3.498990854706726443E-17, 1.000000000000000000, -0.000000000000000000 ) ) ;
#77 = STYLED_ITEM ( 'NONE', ( #261 ), #299 ) ;
#78 = FILL_AREA_STYLE_COLOUR ( '', #354 ) ;
#79 = VECTOR ( 'NONE', #245, 39.37007874015748143 ) ;
#80 = CIRCLE ( 'NONE', #347, 0.09375000000000004163 ) ;
#81 =( NAMED_UNIT ( * ) PLANE_ANGLE_UNIT ( ) SI_UNIT ( $, .RADIAN. ) );
#82 = ADVANCED_FACE ( 'NONE', ( #259 ), #93, .T. ) ;
#83 = VERTEX_POINT ( 'NONE', #142 ) ;
#84 = ORIENTED_EDGE ( 'NONE', *, *, #177, .T. ) ;
#85 = COLOUR_RGB ( '',0.7921568627450980005, 0.8196078431372548767, 0.9333333333333333481 ) ;
#86 = EDGE_CURVE ( 'NONE', #145, #169, #105, .T. ) ;
#87 = ORIENTED_EDGE ( 'NONE', *, *, #160, .F. ) ;
#88 = ORIENTED_EDGE ( 'NONE', *, *, #316, .F. ) ;
#89 =( LENGTH_UNIT ( ) NAMED_UNIT ( * ) SI_UNIT ( $, .METRE. ) );
#90 = VECTOR ( 'NONE', #102, 39.37007874015748143 ) ;
#91 = EDGE_CURVE ( 'NONE', #234, #34, #311, .T. ) ;
#92 = DIRECTION ( 'NONE',  ( 3.498990854706726443E-17, 1.000000000000000000, -0.000000000000000000 ) ) ;
#93 = CYLINDRICAL_SURFACE ( 'NONE', #140, 0.09375000000000002776 ) ;
#94 = EDGE_CURVE ( 'NONE', #193, #312, #5, .T. ) ;
#95 = EDGE_CURVE ( 'NONE', #234, #169, #178, .T. ) ;
#96 = FILL_AREA_STYLE_COLOUR ( '', #172 ) ;
#97 =( NAMED_UNIT ( * ) PLANE_ANGLE_UNIT ( ) SI_UNIT ( $, .RADIAN. ) );
#98 = EDGE_CURVE ( 'NONE', #205, #8, #209, .T. ) ;
#99 = DIRECTION ( 'NONE',  ( -0.000000000000000000, -1.000000000000000000, -0.000000000000000000 ) ) ;
#100 = DIRECTION ( 'NONE',  ( -1.000000000000000000, 3.498990854706726443E-17, 0.000000000000000000 ) ) ;
#101 =( NAMED_UNIT ( * ) PLANE_ANGLE_UNIT ( ) SI_UNIT ( $, .RADIAN. ) );
#102 = DIRECTION ( 'NONE',  ( 3.498990854706726443E-17, 1.000000000000000000, -0.000000000000000000 ) ) ;
#103 = DIRECTION ( 'NONE',  ( 3.498990854706726443E-17, 1.000000000000000000, -0.000000000000000000 ) ) ;
#104 = FILL_AREA_STYLE_COLOUR ( '', #340 ) ;
#105 = CIRCLE ( 'NONE', #70, 0.07810000000000000275 ) ;
#106 = ORIENTED_EDGE ( 'NONE', *, *, #304, .T. ) ;
#107 = PRODUCT_DEFINITION_FORMATION_WITH_SPECIFIED_SOURCE ( 'ANY', '', #339, .NOT_KNOWN. ) ;
#108 = PRESENTATION_STYLE_ASSIGNMENT (( #31 ) ) ;
#109 = ORIENTED_EDGE ( 'NONE', *, *, #269, .T. ) ;
#110 = ORIENTED_EDGE ( 'NONE', *, *, #310, .T. ) ;
#111 = AXIS2_PLACEMENT_3D ( 'NONE', #14, #42, #121 ) ;
#112 = AXIS2_PLACEMENT_3D ( 'NONE', #18, #12, #285 ) ;
#113 = CARTESIAN_POINT ( 'NONE',  ( 0.09375000000000006939, 2.500000000000000000, 1.148106374200644171E-17 ) ) ;
#114 = EDGE_LOOP ( 'NONE', ( #280, #309, #110, #254 ) ) ;
#115 = ADVANCED_BREP_SHAPE_REPRESENTATION ( '82254', ( #299, #168, #240 ), #302 ) ;
#116 = CARTESIAN_POINT ( 'NONE',  ( 0.000000000000000000, 0.7499999999999998890, 0.000000000000000000 ) ) ;
#117 = ORIENTED_EDGE ( 'NONE', *, *, #320, .F. ) ;
#118 = DIRECTION ( 'NONE',  ( -0.000000000000000000, -1.000000000000000000, -0.000000000000000000 ) ) ;
#119 = MECHANICAL_DESIGN_GEOMETRIC_PRESENTATION_REPRESENTATION (  '', ( #251 ), #171 ) ;
#120 = AXIS2_PLACEMENT_3D ( 'NONE', #49, #266, #50 ) ;
#121 = DIRECTION ( 'NONE',  ( 0.000000000000000000, 0.000000000000000000, -1.000000000000000000 ) ) ;
#122 =( LENGTH_UNIT ( ) NAMED_UNIT ( * ) SI_UNIT ( $, .METRE. ) );
#123 = UNCERTAINTY_MEASURE_WITH_UNIT (LENGTH_MEASURE( 1.000000000000000082E-05 ), #16, 'distance_accuracy_value', 'NONE');
#124 = DIRECTION ( 'NONE',  ( -1.000000000000000000, 0.000000000000000000, 0.000000000000000000 ) ) ;
#125 = DIRECTION ( 'NONE',  ( -0.3420201433256683243, 0.9396926207859085389, 0.000000000000000000 ) ) ;
#126 = PLANE ( 'NONE',  #223 ) ;
#127 = CARTESIAN_POINT ( 'NONE',  ( 0.000000000000000000, 0.000000000000000000, 0.000000000000000000 ) ) ;
#128 = FACE_OUTER_BOUND ( 'NONE', #334, .T. ) ;
#129 = PRESENTATION_LAYER_ASSIGNMENT (  '', '', ( #36 ) ) ;
#130 = AXIS2_PLACEMENT_3D ( 'NONE', #329, #103, #100 ) ;
#131 = FILL_AREA_STYLE ('',( #104 ) ) ;
#132 = LINE ( 'NONE', #303, #79 ) ;
#133 = EDGE_LOOP ( 'NONE', ( #335, #249 ) ) ;
#134 = CARTESIAN_POINT ( 'NONE',  ( 9.564491501340828324E-18, 0.000000000000000000, 0.07810000000000000275 ) ) ;
#135 = EDGE_LOOP ( 'NONE', ( #106, #3 ) ) ;
#136 = AXIS2_PLACEMENT_3D ( 'NONE', #152, #206, #39 ) ;
#137 = PRESENTATION_STYLE_ASSIGNMENT (( #273 ) ) ;
#138 = ORIENTED_EDGE ( 'NONE', *, *, #316, .T. ) ;
#139 = EDGE_LOOP ( 'NONE', ( #281, #252, #57, #10 ) ) ;
#140 = AXIS2_PLACEMENT_3D ( 'NONE', #65, #175, #196 ) ;
#141 = MECHANICAL_DESIGN_GEOMETRIC_PRESENTATION_REPRESENTATION (  '', ( #186 ), #314 ) ;
#142 = CARTESIAN_POINT ( 'NONE',  ( -0.09375000000000005551, 0.7929980216144649763, 0.000000000000000000 ) ) ;
#143 = FILL_AREA_STYLE_COLOUR ( '', #85 ) ;
#144 = ADVANCED_FACE ( 'NONE', ( #208 ), #322, .T. ) ;
#145 = VERTEX_POINT ( 'NONE', #134 ) ;
#146 =( NAMED_UNIT ( * ) SI_UNIT ( $, .STERADIAN. ) SOLID_ANGLE_UNIT ( ) );
#147 = VECTOR ( 'NONE', #149, 39.37007874015748143 ) ;
#148 = SHAPE_DEFINITION_REPRESENTATION ( #166, #115 ) ;
#149 = DIRECTION ( 'NONE',  ( -0.000000000000000000, -1.000000000000000000, -0.000000000000000000 ) ) ;
#150 = LENGTH_MEASURE_WITH_UNIT ( LENGTH_MEASURE( 0.02539999999999999897 ), #176 );
#151 = LENGTH_MEASURE_WITH_UNIT ( LENGTH_MEASURE( 0.02539999999999999897 ), #89 );
#152 = CARTESIAN_POINT ( 'NONE',  ( 0.000000000000000000, 0.7500000000000001110, 0.000000000000000000 ) ) ;
#153 = FILL_AREA_STYLE ('',( #78 ) ) ;
#154 = STYLED_ITEM ( 'NONE', ( #137 ), #168 ) ;
#155 = CARTESIAN_POINT ( 'NONE',  ( 6.123233995736772199E-17, 2.500000000000000000, 0.000000000000000000 ) ) ;
#156 =( LENGTH_UNIT ( ) NAMED_UNIT ( * ) SI_UNIT ( $, .METRE. ) );
#157 = DIRECTION ( 'NONE',  ( 0.3420201433256684354, 0.9396926207859085389, 4.188538737676987451E-17 ) ) ;
#158 = CIRCLE ( 'NONE', #232, 0.07810000000000000275 ) ;
#159 = CARTESIAN_POINT ( 'NONE',  ( 1.504496843994951823E-18, 0.7929980216144649763, 0.000000000000000000 ) ) ;
#160 = EDGE_CURVE ( 'NONE', #34, #145, #132, .T. ) ;
#161 =( NAMED_UNIT ( * ) SI_UNIT ( $, .STERADIAN. ) SOLID_ANGLE_UNIT ( ) );
#162 = ORIENTED_EDGE ( 'NONE', *, *, #177, .F. ) ;
#163 = APPLICATION_CONTEXT ( 'automotive_design' ) ;
#164 = ORIENTED_EDGE ( 'NONE', *, *, #98, .F. ) ;
#165 = CIRCLE ( 'NONE', #136, 0.07810000000000000275 ) ;
#166 = PRODUCT_DEFINITION_SHAPE ( 'NONE', 'NONE',  #214 ) ;
#167 = EDGE_LOOP ( 'NONE', ( #337, #88 ) ) ;
#168 = MANIFOLD_SOLID_BREP ( 'Revolve - Tool Body (Reduced Cut Diameter)', #344 ) ;
#169 = VERTEX_POINT ( 'NONE', #246 ) ;
#170 = PRODUCT_RELATED_PRODUCT_CATEGORY ( 'part', '', ( #339 ) ) ;
#171 =( GEOMETRIC_REPRESENTATION_CONTEXT ( 3 ) GLOBAL_UNCERTAINTY_ASSIGNED_CONTEXT ( ( #318 ) ) GLOBAL_UNIT_ASSIGNED_CONTEXT ( ( #30, #276, #161 ) ) REPRESENTATION_CONTEXT ( 'NONE', 'WORKASPACE' ) );
#172 = COLOUR_RGB ( '',1.000000000000000000, 0.000000000000000000, 0.000000000000000000 ) ;
#173 = APPLICATION_PROTOCOL_DEFINITION ( 'draft international standard', 'automotive_design', 1998, #7 ) ;
#174 =( NAMED_UNIT ( * ) PLANE_ANGLE_UNIT ( ) SI_UNIT ( $, .RADIAN. ) );
#175 = DIRECTION ( 'NONE',  ( 3.498990854706726443E-17, 1.000000000000000000, -0.000000000000000000 ) ) ;
#176 =( LENGTH_UNIT ( ) NAMED_UNIT ( * ) SI_UNIT ( $, .METRE. ) );
#177 = EDGE_CURVE ( 'NONE', #192, #193, #45, .T. ) ;
#178 = LINE ( 'NONE', #287, #147 ) ;
#179 = SURFACE_SIDE_STYLE ('',( #288 ) ) ;
#180 = FACE_OUTER_BOUND ( 'NONE', #133, .T. ) ;
#181 = LINE ( 'NONE', #74, #267 ) ;
#182 = DIRECTION ( 'NONE',  ( -1.000000000000000000, 0.000000000000000000, 0.000000000000000000 ) ) ;
#183 = SURFACE_SIDE_STYLE ('',( #328 ) ) ;
#184 = FACE_OUTER_BOUND ( 'NONE', #114, .T. ) ;
#185 = ADVANCED_FACE ( 'NONE', ( #28 ), #357, .T. ) ;
#186 = STYLED_ITEM ( 'NONE', ( #108 ), #185 ) ;
#187 = MECHANICAL_DESIGN_GEOMETRIC_PRESENTATION_REPRESENTATION (  '', ( #55 ), #210 ) ;
#188 = SURFACE_SIDE_STYLE ('',( #33 ) ) ;
#189 = ADVANCED_FACE ( 'NONE', ( #20 ), #241, .F. ) ;
#190 = DIRECTION ( 'NONE',  ( 0.000000000000000000, 0.000000000000000000, -1.000000000000000000 ) ) ;
#191 = LENGTH_MEASURE_WITH_UNIT ( LENGTH_MEASURE( 0.02539999999999999897 ), #332 );
#192 = VERTEX_POINT ( 'NONE', #359 ) ;
#193 = VERTEX_POINT ( 'NONE', #113 ) ;
#194 = EDGE_LOOP ( 'NONE', ( #87, #138, #2, #221 ) ) ;
#195 = EDGE_LOOP ( 'NONE', ( #164, #333 ) ) ;
#196 = DIRECTION ( 'NONE',  ( -1.000000000000000000, 0.000000000000000000, 0.000000000000000000 ) ) ;
#197 = PRODUCT_CONTEXT ( 'NONE', #7, 'mechanical' ) ;
#198 =( NAMED_UNIT ( * ) SI_UNIT ( $, .STERADIAN. ) SOLID_ANGLE_UNIT ( ) );
#199 =( GEOMETRIC_REPRESENTATION_CONTEXT ( 3 ) GLOBAL_UNCERTAINTY_ASSIGNED_CONTEXT ( ( #40 ) ) GLOBAL_UNIT_ASSIGNED_CONTEXT ( ( #56, #81, #300 ) ) REPRESENTATION_CONTEXT ( 'NONE', 'WORKASPACE' ) );
#200 = SURFACE_STYLE_USAGE ( .BOTH. , #341 ) ;
#201 = AXIS2_PLACEMENT_3D ( 'NONE', #217, #46, #17 ) ;
#202 = FILL_AREA_STYLE ('',( #317 ) ) ;
#203 =( NAMED_UNIT ( * ) PLANE_ANGLE_UNIT ( ) SI_UNIT ( $, .RADIAN. ) );
#204 = DIRECTION ( 'NONE',  ( 0.000000000000000000, 0.000000000000000000, 1.000000000000000000 ) ) ;
#205 = VERTEX_POINT ( 'NONE', #297 ) ;
#206 = DIRECTION ( 'NONE',  ( -0.000000000000000000, -1.000000000000000000, -0.000000000000000000 ) ) ;
#207 = DIMENSIONAL_EXPONENTS ( 1.000000000000000000, 0.000000000000000000, 0.000000000000000000, 0.000000000000000000, 0.000000000000000000, 0.000000000000000000, 0.000000000000000000 ) ;
#208 = FACE_OUTER_BOUND ( 'NONE', #62, .T. ) ;
#209 = CIRCLE ( 'NONE', #54, 0.07810000000000000275 ) ;
#210 =( GEOMETRIC_REPRESENTATION_CONTEXT ( 3 ) GLOBAL_UNCERTAINTY_ASSIGNED_CONTEXT ( ( #123 ) ) GLOBAL_UNIT_ASSIGNED_CONTEXT ( ( #16, #97, #327 ) ) REPRESENTATION_CONTEXT ( 'NONE', 'WORKASPACE' ) );
#211 = FACE_OUTER_BOUND ( 'NONE', #139, .T. ) ;
#212 =( LENGTH_UNIT ( ) NAMED_UNIT ( * ) SI_UNIT ( $, .METRE. ) );
#213 = FILL_AREA_STYLE ('',( #143 ) ) ;
#214 = PRODUCT_DEFINITION ( 'UNKNOWN', '', #107, #343 ) ;
#215 = ADVANCED_FACE ( 'NONE', ( #26 ), #350, .F. ) ;
#216 = FILL_AREA_STYLE ('',( #218 ) ) ;
#217 = CARTESIAN_POINT ( 'NONE',  ( 0.000000000000000000, 0.7500000000000001110, 0.000000000000000000 ) ) ;
#218 = FILL_AREA_STYLE_COLOUR ( '', #60 ) ;
#219 = ORIENTED_EDGE ( 'NONE', *, *, #247, .T. ) ;
#220 = EDGE_CURVE ( 'NONE', #83, #312, #349, .T. ) ;
#221 = ORIENTED_EDGE ( 'NONE', *, *, #86, .F. ) ;
#222 = CARTESIAN_POINT ( 'NONE',  ( 0.09375000000000006939, 2.500000000000000000, 0.000000000000000000 ) ) ;
#223 = AXIS2_PLACEMENT_3D ( 'NONE', #69, #67, #291 ) ;
#224 = CLOSED_SHELL ( 'NONE', ( #144, #185, #358, #66 ) ) ;
#225 = AXIS2_PLACEMENT_3D ( 'NONE', #222, #294, #32 ) ;
#226 = ADVANCED_FACE ( 'NONE', ( #184 ), #1, .T. ) ;
#227 = ORIENTED_EDGE ( 'NONE', *, *, #220, .F. ) ;
#228 = SURFACE_SIDE_STYLE ('',( #315 ) ) ;
#229 = EDGE_CURVE ( 'NONE', #8, #192, #295, .T. ) ;
#230 = MECHANICAL_DESIGN_GEOMETRIC_PRESENTATION_REPRESENTATION (  '', ( #154 ), #199 ) ;
#231 = PRESENTATION_STYLE_ASSIGNMENT (( #255 ) ) ;
#232 = AXIS2_PLACEMENT_3D ( 'NONE', #127, #118, #38 ) ;
#233 = CARTESIAN_POINT ( 'NONE',  ( 6.123233995736772199E-17, 2.500000000000000000, 0.000000000000000000 ) ) ;
#234 = VERTEX_POINT ( 'NONE', #243 ) ;
#235 = DIMENSIONAL_EXPONENTS ( 1.000000000000000000, 0.000000000000000000, 0.000000000000000000, 0.000000000000000000, 0.000000000000000000, 0.000000000000000000, 0.000000000000000000 ) ;
#236 = CYLINDRICAL_SURFACE ( 'NONE', #323, 0.09375000000000002776 ) ;
#237 = PRESENTATION_STYLE_ASSIGNMENT (( #43 ) ) ;
#238 = FACE_OUTER_BOUND ( 'NONE', #194, .T. ) ;
#239 = AXIS2_PLACEMENT_3D ( 'NONE', #277, #52, #190 ) ;
#240 = AXIS2_PLACEMENT_3D ( 'NONE', #253, #204, #258 ) ;
#241 = PLANE ( 'NONE',  #225 ) ;
#242 = AXIS2_PLACEMENT_3D ( 'NONE', #116, #256, #11 ) ;
#243 = CARTESIAN_POINT ( 'NONE',  ( 0.000000000000000000, 0.7500000000000001110, -0.07810000000000000275 ) ) ;
#244 =( NAMED_UNIT ( * ) SI_UNIT ( $, .STERADIAN. ) SOLID_ANGLE_UNIT ( ) );
#245 = DIRECTION ( 'NONE',  ( -0.000000000000000000, -1.000000000000000000, -0.000000000000000000 ) ) ;
#246 = CARTESIAN_POINT ( 'NONE',  ( 0.000000000000000000, 0.000000000000000000, -0.07810000000000000275 ) ) ;
#247 = EDGE_CURVE ( 'NONE', #83, #192, #80, .T. ) ;
#248 = VECTOR ( 'NONE', #157, 39.37007874015748143 ) ;
#249 = ORIENTED_EDGE ( 'NONE', *, *, #86, .T. ) ;
#250 = ORIENTED_EDGE ( 'NONE', *, *, #160, .T. ) ;
#251 = STYLED_ITEM ( 'NONE', ( #308 ), #144 ) ;
#252 = ORIENTED_EDGE ( 'NONE', *, *, #229, .T. ) ;
#253 = CARTESIAN_POINT ( 'NONE',  ( 0.000000000000000000, 0.000000000000000000, 0.000000000000000000 ) ) ;
#254 = ORIENTED_EDGE ( 'NONE', *, *, #269, .F. ) ;
#255 = SURFACE_STYLE_USAGE ( .BOTH. , #179 ) ;
#256 = DIRECTION ( 'NONE',  ( 3.498990854706726443E-17, 1.000000000000000000, -0.000000000000000000 ) ) ;
#257 = SURFACE_STYLE_FILL_AREA ( #213 ) ;
#258 = DIRECTION ( 'NONE',  ( 1.000000000000000000, 0.000000000000000000, 0.000000000000000000 ) ) ;
#259 = FACE_OUTER_BOUND ( 'NONE', #305, .T. ) ;
#260 = MECHANICAL_DESIGN_GEOMETRIC_PRESENTATION_REPRESENTATION (  '', ( #36 ), #63 ) ;
#261 = PRESENTATION_STYLE_ASSIGNMENT (( #200 ) ) ;
#262 = CARTESIAN_POINT ( 'NONE',  ( 0.000000000000000000, 0.7499999999999998890, 0.000000000000000000 ) ) ;
#263 = CARTESIAN_POINT ( 'NONE',  ( -0.09374999999999994449, 2.500000000000000000, 0.000000000000000000 ) ) ;
#264 =( CONVERSION_BASED_UNIT ( 'INCH', #151 ) LENGTH_UNIT ( ) NAMED_UNIT ( #326 ) );
#265 =( LENGTH_UNIT ( ) NAMED_UNIT ( * ) SI_UNIT ( $, .METRE. ) );
#266 = DIRECTION ( 'NONE',  ( 3.498990854706726443E-17, 1.000000000000000000, -0.000000000000000000 ) ) ;
#267 = VECTOR ( 'NONE', #125, 39.37007874015748143 ) ;
#268 = LENGTH_MEASURE_WITH_UNIT ( LENGTH_MEASURE( 0.02539999999999999897 ), #265 );
#269 = EDGE_CURVE ( 'NONE', #192, #83, #283, .T. ) ;
#270 = DIRECTION ( 'NONE',  ( 3.498990854706726443E-17, 1.000000000000000000, -0.000000000000000000 ) ) ;
#271 = DIRECTION ( 'NONE',  ( 0.000000000000000000, 0.000000000000000000, -1.000000000000000000 ) ) ;
#272 = CIRCLE ( 'NONE', #112, 0.09375000000000001388 ) ;
#273 = SURFACE_STYLE_USAGE ( .BOTH. , #188 ) ;
#274 = MECHANICAL_DESIGN_GEOMETRIC_PRESENTATION_REPRESENTATION (  '', ( #77 ), #289 ) ;
#275 = CARTESIAN_POINT ( 'NONE',  ( 1.504496843994951823E-18, 0.7929980216144649763, 0.000000000000000000 ) ) ;
#276 =( NAMED_UNIT ( * ) PLANE_ANGLE_UNIT ( ) SI_UNIT ( $, .RADIAN. ) );
#277 = CARTESIAN_POINT ( 'NONE',  ( 0.000000000000000000, 0.000000000000000000, 0.000000000000000000 ) ) ;
#278 = COLOUR_RGB ( '',1.000000000000000000, 0.000000000000000000, 0.000000000000000000 ) ;
#279 = ORIENTED_EDGE ( 'NONE', *, *, #94, .F. ) ;
#280 = ORIENTED_EDGE ( 'NONE', *, *, #229, .F. ) ;
#281 = ORIENTED_EDGE ( 'NONE', *, *, #98, .T. ) ;
#282 = PRESENTATION_LAYER_ASSIGNMENT (  '', '', ( #154 ) ) ;
#283 = CIRCLE ( 'NONE', #331, 0.09375000000000004163 ) ;
#284 =( CONVERSION_BASED_UNIT ( 'INCH', #72 ) LENGTH_UNIT ( ) NAMED_UNIT ( #75 ) );
#285 = DIRECTION ( 'NONE',  ( -1.000000000000000000, 0.000000000000000000, 0.000000000000000000 ) ) ;
#286 = DIRECTION ( 'NONE',  ( -0.000000000000000000, -1.000000000000000000, -0.000000000000000000 ) ) ;
#287 = CARTESIAN_POINT ( 'NONE',  ( 0.000000000000000000, 0.000000000000000000, -0.07810000000000000275 ) ) ;
#288 = SURFACE_STYLE_FILL_AREA ( #68 ) ;
#289 =( GEOMETRIC_REPRESENTATION_CONTEXT ( 3 ) GLOBAL_UNCERTAINTY_ASSIGNED_CONTEXT ( ( #293 ) ) GLOBAL_UNIT_ASSIGNED_CONTEXT ( ( #284, #203, #146 ) ) REPRESENTATION_CONTEXT ( 'NONE', 'WORKASPACE' ) );
#290 = ADVANCED_FACE ( 'NONE', ( #211 ), #336, .T. ) ;
#291 = DIRECTION ( 'NONE',  ( 0.000000000000000000, 0.000000000000000000, -1.000000000000000000 ) ) ;
#292 = DIRECTION ( 'NONE',  ( -1.000000000000000000, 0.000000000000000000, 0.000000000000000000 ) ) ;
#293 = UNCERTAINTY_MEASURE_WITH_UNIT (LENGTH_MEASURE( 1.000000000000000082E-05 ), #284, 'distance_accuracy_value', 'NONE');
#294 = DIRECTION ( 'NONE',  ( -3.498990854706726443E-17, -1.000000000000000000, 0.000000000000000000 ) ) ;
#295 = LINE ( 'NONE', #53, #248 ) ;
#296 = ADVANCED_FACE ( 'NONE', ( #128 ), #236, .T. ) ;
#297 = CARTESIAN_POINT ( 'NONE',  ( -0.07810000000000000275, 0.7499999999999998890, 0.000000000000000000 ) ) ;
#298 = LENGTH_MEASURE_WITH_UNIT ( LENGTH_MEASURE( 0.02539999999999999897 ), #156 );
#299 = MANIFOLD_SOLID_BREP ( 'Revolve - Cutting Edge', #224 ) ;
#300 =( NAMED_UNIT ( * ) SI_UNIT ( $, .STERADIAN. ) SOLID_ANGLE_UNIT ( ) );
#301 = PRESENTATION_LAYER_ASSIGNMENT (  '', '', ( #251 ) ) ;
#302 =( GEOMETRIC_REPRESENTATION_CONTEXT ( 3 ) GLOBAL_UNCERTAINTY_ASSIGNED_CONTEXT ( ( #4 ) ) GLOBAL_UNIT_ASSIGNED_CONTEXT ( ( #353, #101, #330 ) ) REPRESENTATION_CONTEXT ( 'NONE', 'WORKASPACE' ) );
#303 = CARTESIAN_POINT ( 'NONE',  ( 9.564491501340828324E-18, 0.000000000000000000, 0.07810000000000000275 ) ) ;
#304 = EDGE_CURVE ( 'NONE', #312, #193, #272, .T. ) ;
#305 = EDGE_LOOP ( 'NONE', ( #162, #109, #59, #279 ) ) ;
#306 = SURFACE_STYLE_FILL_AREA ( #131 ) ;
#307 = ORIENTED_EDGE ( 'NONE', *, *, #304, .F. ) ;
#308 = PRESENTATION_STYLE_ASSIGNMENT (( #73 ) ) ;
#309 = ORIENTED_EDGE ( 'NONE', *, *, #35, .T. ) ;
#310 = EDGE_CURVE ( 'NONE', #205, #83, #181, .T. ) ;
#311 = CIRCLE ( 'NONE', #111, 0.07810000000000000275 ) ;
#312 = VERTEX_POINT ( 'NONE', #263 ) ;
#313 = CARTESIAN_POINT ( 'NONE',  ( 0.000000000000000000, 0.000000000000000000, 0.000000000000000000 ) ) ;
#314 =( GEOMETRIC_REPRESENTATION_CONTEXT ( 3 ) GLOBAL_UNCERTAINTY_ASSIGNED_CONTEXT ( ( #352 ) ) GLOBAL_UNIT_ASSIGNED_CONTEXT ( ( #51, #351, #244 ) ) REPRESENTATION_CONTEXT ( 'NONE', 'WORKASPACE' ) );
#315 = SURFACE_STYLE_FILL_AREA ( #202 ) ;
#316 = EDGE_CURVE ( 'NONE', #34, #234, #165, .T. ) ;
#317 = FILL_AREA_STYLE_COLOUR ( '', #278 ) ;
#318 = UNCERTAINTY_MEASURE_WITH_UNIT (LENGTH_MEASURE( 1.000000000000000082E-05 ), #30, 'distance_accuracy_value', 'NONE');
#319 = DIRECTION ( 'NONE',  ( -1.000000000000000000, 0.000000000000000000, 0.000000000000000000 ) ) ;
#320 = EDGE_CURVE ( 'NONE', #169, #145, #158, .T. ) ;
#321 = AXIS2_PLACEMENT_3D ( 'NONE', #233, #92, #319 ) ;
#322 = CYLINDRICAL_SURFACE ( 'NONE', #239, 0.07810000000000000275 ) ;
#323 = AXIS2_PLACEMENT_3D ( 'NONE', #155, #22, #345 ) ;
#324 = DIMENSIONAL_EXPONENTS ( 1.000000000000000000, 0.000000000000000000, 0.000000000000000000, 0.000000000000000000, 0.000000000000000000, 0.000000000000000000, 0.000000000000000000 ) ;
#325 = LENGTH_MEASURE_WITH_UNIT ( LENGTH_MEASURE( 0.02539999999999999897 ), #212 );
#326 = DIMENSIONAL_EXPONENTS ( 1.000000000000000000, 0.000000000000000000, 0.000000000000000000, 0.000000000000000000, 0.000000000000000000, 0.000000000000000000, 0.000000000000000000 ) ;
#327 =( NAMED_UNIT ( * ) SI_UNIT ( $, .STERADIAN. ) SOLID_ANGLE_UNIT ( ) );
#328 = SURFACE_STYLE_FILL_AREA ( #153 ) ;
#329 = CARTESIAN_POINT ( 'NONE',  ( 4.780866899015970794E-35, 0.7500000000000001110, 0.000000000000000000 ) ) ;
#330 =( NAMED_UNIT ( * ) SI_UNIT ( $, .STERADIAN. ) SOLID_ANGLE_UNIT ( ) );
#331 = AXIS2_PLACEMENT_3D ( 'NONE', #275, #23, #182 ) ;
#332 =( LENGTH_UNIT ( ) NAMED_UNIT ( * ) SI_UNIT ( $, .METRE. ) );
#333 = ORIENTED_EDGE ( 'NONE', *, *, #35, .F. ) ;
#334 = EDGE_LOOP ( 'NONE', ( #219, #84, #307, #227 ) ) ;
#335 = ORIENTED_EDGE ( 'NONE', *, *, #320, .T. ) ;
#336 = CONICAL_SURFACE ( 'NONE', #27, 0.07810000000000000275, 0.3490658503988654515 ) ;
#337 = ORIENTED_EDGE ( 'NONE', *, *, #91, .F. ) ;
#338 = CARTESIAN_POINT ( 'NONE',  ( 0.07810000000000000275, 0.7499999999999998890, 1.052277762167363656E-17 ) ) ;
#339 = PRODUCT ( '82254', '82254', '', ( #197 ) ) ;
#340 = COLOUR_RGB ( '',1.000000000000000000, 0.000000000000000000, 0.000000000000000000 ) ;
#341 = SURFACE_SIDE_STYLE ('',( #257 ) ) ;
#342 = DIRECTION ( 'NONE',  ( 0.000000000000000000, 0.000000000000000000, -1.000000000000000000 ) ) ;
#343 = PRODUCT_DEFINITION_CONTEXT ( 'detailed design', #163, 'design' ) ;
#344 = CLOSED_SHELL ( 'NONE', ( #296, #290, #215, #226, #82, #189 ) ) ;
#345 = DIRECTION ( 'NONE',  ( -1.000000000000000000, 0.000000000000000000, 0.000000000000000000 ) ) ;
#346 = CARTESIAN_POINT ( 'NONE',  ( 9.564491501340828324E-18, 0.7500000000000001110, 0.07810000000000000275 ) ) ;
#347 = AXIS2_PLACEMENT_3D ( 'NONE', #159, #270, #19 ) ;
#348 = CYLINDRICAL_SURFACE ( 'NONE', #355, 0.07810000000000000275 ) ;
#349 = LINE ( 'NONE', #44, #71 ) ;
#350 = PLANE ( 'NONE',  #130 ) ;
#351 =( NAMED_UNIT ( * ) PLANE_ANGLE_UNIT ( ) SI_UNIT ( $, .RADIAN. ) );
#352 = UNCERTAINTY_MEASURE_WITH_UNIT (LENGTH_MEASURE( 1.000000000000000082E-05 ), #51, 'distance_accuracy_value', 'NONE');
#353 =( CONVERSION_BASED_UNIT ( 'INCH', #298 ) LENGTH_UNIT ( ) NAMED_UNIT ( #207 ) );
#354 = COLOUR_RGB ( '',1.000000000000000000, 0.000000000000000000, 0.000000000000000000 ) ;
#355 = AXIS2_PLACEMENT_3D ( 'NONE', #25, #99, #271 ) ;
#356 = CARTESIAN_POINT ( 'NONE',  ( 0.09375000000000009714, 2.500000000000000000, 1.148106374200644017E-17 ) ) ;
#357 = PLANE ( 'NONE',  #201 ) ;
#358 = ADVANCED_FACE ( 'NONE', ( #238 ), #348, .T. ) ;
#359 = CARTESIAN_POINT ( 'NONE',  ( 0.09375000000000005551, 0.7929980216144649763, 1.148106374200644325E-17 ) ) ;
ENDSEC;
END-ISO-10303-21;
