ISO-10303-21;
HEADER;
FILE_DESCRIPTION (( 'STEP AP214' ),
    '1' );
FILE_NAME ('Micro_BEM-125-02.STEP',
    '2021-09-03T13:01:33',
    ( '' ),
    ( '' ),
    'SwSTEP 2.0',
    'SolidWorks 2020',
    '' );
FILE_SCHEMA (( 'AUTOMOTIVE_DESIGN' ));
ENDSEC;

DATA;
#1 = ORIENTED_EDGE ( 'NONE', *, *, #305, .T. ) ;
#2 = LENGTH_MEASURE_WITH_UNIT ( LENGTH_MEASURE( 0.02539999999999999897 ), #228 );
#3 = VERTEX_POINT ( 'NONE', #128 ) ;
#4 = ADVANCED_FACE ( 'NONE', ( #126 ), #306, .T. ) ;
#5 = EDGE_CURVE ( 'NONE', #162, #76, #295, .T. ) ;
#6 = CIRCLE ( 'NONE', #301, 0.06250000000000002776 ) ;
#7 = ADVANCED_FACE ( 'NONE', ( #303 ), #273, .T. ) ;
#8 =( NAMED_UNIT ( * ) PLANE_ANGLE_UNIT ( ) SI_UNIT ( $, .RADIAN. ) );
#9 = LINE ( 'NONE', #62, #83 ) ;
#10 = CARTESIAN_POINT ( 'NONE',  ( -0.04750000000000064587, 0.0000000000000000000, 1.500000000000000222 ) ) ;
#11 = DIRECTION ( 'NONE',  ( -1.224646799147353700E-16, -0.0000000000000000000, -1.000000000000000000 ) ) ;
#12 = CIRCLE ( 'NONE', #23, 0.06243749999999999994 ) ;
#13 = MANIFOLD_SOLID_BREP ( 'Fillet1', #230 ) ;
#14 = FACE_OUTER_BOUND ( 'NONE', #292, .T. ) ;
#15 = EDGE_CURVE ( 'NONE', #3, #21, #12, .T. ) ;
#16 = DIRECTION ( 'NONE',  ( -1.000000000000000000, 0.0000000000000000000, 0.0000000000000000000 ) ) ;
#17 = CARTESIAN_POINT ( 'NONE',  ( -0.06243749999999994443, 7.650215473423623230E-18, 0.5000000000000000000 ) ) ;
#18 = ORIENTED_EDGE ( 'NONE', *, *, #270, .F. ) ;
#19 = DIRECTION ( 'NONE',  ( 1.224646799147353207E-16, 1.000000000000000000, -0.0000000000000000000 ) ) ;
#20 = ORIENTED_EDGE ( 'NONE', *, *, #5, .T. ) ;
#21 = VERTEX_POINT ( 'NONE', #310 ) ;
#22 = EDGE_CURVE ( 'NONE', #122, #76, #56, .T. ) ;
#23 = AXIS2_PLACEMENT_3D ( 'NONE', #150, #108, #206 ) ;
#24 = FACE_OUTER_BOUND ( 'NONE', #170, .T. ) ;
#25 =( LENGTH_UNIT ( ) NAMED_UNIT ( * ) SI_UNIT ( $, .METRE. ) );
#26 = ORIENTED_EDGE ( 'NONE', *, *, #305, .F. ) ;
#27 = AXIS2_PLACEMENT_3D ( 'NONE', #88, #132, #284 ) ;
#28 = EDGE_CURVE ( 'NONE', #125, #122, #204, .T. ) ;
#29 = ORIENTED_EDGE ( 'NONE', *, *, #66, .F. ) ;
#30 = DIRECTION ( 'NONE',  ( 0.0000000000000000000, 1.000000000000000000, 0.0000000000000000000 ) ) ;
#31 = AXIS2_PLACEMENT_3D ( 'NONE', #199, #222, #275 ) ;
#32 = EDGE_CURVE ( 'NONE', #137, #162, #195, .T. ) ;
#33 = PRESENTATION_LAYER_ASSIGNMENT (  '', '', ( #289 ) ) ;
#34 = CARTESIAN_POINT ( 'NONE',  ( 7.646388452176290456E-18, 0.0000000000000000000, 0.06243749999999999994 ) ) ;
#35 = CARTESIAN_POINT ( 'NONE',  ( 0.06250000000000002776, 7.654042494670959086E-18, 1.485000000000000764 ) ) ;
#36 = UNCERTAINTY_MEASURE_WITH_UNIT (LENGTH_MEASURE( 1.000000000000000082E-05 ), #100, 'distance_accuracy_value', 'NONE');
#37 = DIRECTION ( 'NONE',  ( -1.224646799147353700E-16, -0.0000000000000000000, -1.000000000000000000 ) ) ;
#38 = VECTOR ( 'NONE', #97, 39.37007874015748854 ) ;
#39 = CARTESIAN_POINT ( 'NONE',  ( 7.646388452176290456E-18, 0.0000000000000000000, 0.06243749999999999994 ) ) ;
#40 = CARTESIAN_POINT ( 'NONE',  ( -0.06250000000000002776, 0.0000000000000000000, 1.485000000000000764 ) ) ;
#41 = ORIENTED_EDGE ( 'NONE', *, *, #238, .F. ) ;
#42 = ADVANCED_FACE ( 'NONE', ( #24 ), #190, .T. ) ;
#43 = FILL_AREA_STYLE_COLOUR ( '', #272 ) ;
#44 = CIRCLE ( 'NONE', #96, 0.06250000000000002776 ) ;
#45 = ORIENTED_EDGE ( 'NONE', *, *, #227, .T. ) ;
#46 = LENGTH_MEASURE_WITH_UNIT ( LENGTH_MEASURE( 0.02539999999999999897 ), #216 );
#47 = SURFACE_STYLE_FILL_AREA ( #141 ) ;
#48 = EDGE_LOOP ( 'NONE', ( #262, #321, #240, #248 ) ) ;
#49 = AXIS2_PLACEMENT_3D ( 'NONE', #282, #37, #232 ) ;
#50 = AXIS2_PLACEMENT_3D ( 'NONE', #201, #30, #129 ) ;
#51 = DIMENSIONAL_EXPONENTS ( 1.000000000000000000, 0.0000000000000000000, 0.0000000000000000000, 0.0000000000000000000, 0.0000000000000000000, 0.0000000000000000000, 0.0000000000000000000 ) ;
#52 = LINE ( 'NONE', #173, #244 ) ;
#53 = ORIENTED_EDGE ( 'NONE', *, *, #15, .F. ) ;
#54 = APPLICATION_PROTOCOL_DEFINITION ( 'draft international standard', 'automotive_design', 1998, #90 ) ;
#55 = SURFACE_SIDE_STYLE ('',( #278 ) ) ;
#56 = LINE ( 'NONE', #147, #176 ) ;
#57 = VECTOR ( 'NONE', #63, 39.37007874015748143 ) ;
#58 = FILL_AREA_STYLE ('',( #309 ) ) ;
#59 =( CONVERSION_BASED_UNIT ( 'INCH', #2 ) LENGTH_UNIT ( ) NAMED_UNIT ( #51 ) );
#60 = ADVANCED_FACE ( 'NONE', ( #167 ), #77, .T. ) ;
#61 =( GEOMETRIC_REPRESENTATION_CONTEXT ( 3 ) GLOBAL_UNCERTAINTY_ASSIGNED_CONTEXT ( ( #115 ) ) GLOBAL_UNIT_ASSIGNED_CONTEXT ( ( #59, #8, #225 ) ) REPRESENTATION_CONTEXT ( 'NONE', 'WORKASPACE' ) );
#62 = CARTESIAN_POINT ( 'NONE',  ( -0.06243749999999999994, 0.0000000000000000000, 7.646388452176290456E-18 ) ) ;
#63 = DIRECTION ( 'NONE',  ( 0.1736481776669312471, 0.0000000000000000000, 0.9848077530122077983 ) ) ;
#64 = DIRECTION ( 'NONE',  ( 1.000000000000000000, 0.0000000000000000000, 0.0000000000000000000 ) ) ;
#65 = CIRCLE ( 'NONE', #27, 0.06243749999999999994 ) ;
#66 = EDGE_CURVE ( 'NONE', #319, #76, #52, .T. ) ;
#67 = FACE_OUTER_BOUND ( 'NONE', #146, .T. ) ;
#68 = DIRECTION ( 'NONE',  ( 0.0000000000000000000, 0.0000000000000000000, 1.000000000000000000 ) ) ;
#69 = EDGE_LOOP ( 'NONE', ( #72, #271, #293, #80 ) ) ;
#70 = AXIS2_PLACEMENT_3D ( 'NONE', #91, #110, #153 ) ;
#71 = CARTESIAN_POINT ( 'NONE',  ( 0.0000000000000000000, 0.0000000000000000000, 0.0000000000000000000 ) ) ;
#72 = ORIENTED_EDGE ( 'NONE', *, *, #226, .F. ) ;
#73 = CIRCLE ( 'NONE', #250, 0.06250000000000002776 ) ;
#74 = DIRECTION ( 'NONE',  ( -1.000000000000000000, 0.0000000000000000000, 1.224646799147353947E-16 ) ) ;
#75 = DIMENSIONAL_EXPONENTS ( 1.000000000000000000, 0.0000000000000000000, 0.0000000000000000000, 0.0000000000000000000, 0.0000000000000000000, 0.0000000000000000000, 0.0000000000000000000 ) ;
#76 = VERTEX_POINT ( 'NONE', #314 ) ;
#77 = SPHERICAL_SURFACE ( 'NONE', #50, 0.06243749999999999994 ) ;
#78 = ORIENTED_EDGE ( 'NONE', *, *, #28, .F. ) ;
#79 = DIRECTION ( 'NONE',  ( 1.224646799147353700E-16, 0.0000000000000000000, 1.000000000000000000 ) ) ;
#80 = ORIENTED_EDGE ( 'NONE', *, *, #165, .F. ) ;
#81 = ADVANCED_FACE ( 'NONE', ( #177 ), #154, .T. ) ;
#82 = AXIS2_PLACEMENT_3D ( 'NONE', #208, #313, #255 ) ;
#83 = VECTOR ( 'NONE', #86, 39.37007874015748143 ) ;
#84 = DIRECTION ( 'NONE',  ( -0.0000000000000000000, -0.0000000000000000000, -1.000000000000000000 ) ) ;
#85 = EDGE_CURVE ( 'NONE', #269, #319, #300, .T. ) ;
#86 = DIRECTION ( 'NONE',  ( -1.224646799147353700E-16, -0.0000000000000000000, -1.000000000000000000 ) ) ;
#87 = VECTOR ( 'NONE', #214, 39.37007874015748854 ) ;
#88 = CARTESIAN_POINT ( 'NONE',  ( 7.646388452176290456E-18, 0.0000000000000000000, 0.06243749999999999994 ) ) ;
#89 = CARTESIAN_POINT ( 'NONE',  ( 0.0000000000000000000, 0.0000000000000000000, 1.500000000000000222 ) ) ;
#90 = APPLICATION_CONTEXT ( 'automotive_design' ) ;
#91 = CARTESIAN_POINT ( 'NONE',  ( 6.123233995736768501E-17, 0.0000000000000000000, 0.5000000000000000000 ) ) ;
#92 = CARTESIAN_POINT ( 'NONE',  ( -0.06243749999999999301, 0.0000000000000000000, 0.06243750000000001382 ) ) ;
#93 = MECHANICAL_DESIGN_GEOMETRIC_PRESENTATION_REPRESENTATION (  '', ( #145 ), #61 ) ;
#94 = ORIENTED_EDGE ( 'NONE', *, *, #85, .F. ) ;
#95 = DIRECTION ( 'NONE',  ( -1.000000000000000000, 1.224646799147353454E-16, 0.0000000000000000000 ) ) ;
#96 = AXIS2_PLACEMENT_3D ( 'NONE', #285, #210, #64 ) ;
#97 = DIRECTION ( 'NONE',  ( -0.7071067811865462405, 0.0000000000000000000, -0.7071067811865486830 ) ) ;
#98 = CARTESIAN_POINT ( 'NONE',  ( 0.0000000000000000000, 0.0000000000000000000, 1.500000000000000222 ) ) ;
#99 = ORIENTED_EDGE ( 'NONE', *, *, #136, .F. ) ;
#100 =( CONVERSION_BASED_UNIT ( 'INCH', #103 ) LENGTH_UNIT ( ) NAMED_UNIT ( #322 ) );
#101 = EDGE_LOOP ( 'NONE', ( #175, #219 ) ) ;
#102 = DIRECTION ( 'NONE',  ( -1.000000000000000000, 0.0000000000000000000, 0.0000000000000000000 ) ) ;
#103 = LENGTH_MEASURE_WITH_UNIT ( LENGTH_MEASURE( 0.02539999999999999897 ), #25 );
#104 = CARTESIAN_POINT ( 'NONE',  ( 6.123233995736768501E-17, 0.0000000000000000000, 0.5000000000000000000 ) ) ;
#105 = DIRECTION ( 'NONE',  ( -0.0000000000000000000, -0.0000000000000000000, -1.000000000000000000 ) ) ;
#106 = CIRCLE ( 'NONE', #307, 0.06243749999999999994 ) ;
#107 = COLOUR_RGB ( '',0.7921568627450980005, 0.8196078431372548767, 0.9333333333333333481 ) ;
#108 = DIRECTION ( 'NONE',  ( 0.0000000000000000000, -1.000000000000000000, 0.0000000000000000000 ) ) ;
#109 = CARTESIAN_POINT ( 'NONE',  ( 0.06250000000000008327, 7.654042494670966789E-18, 0.5003544551137262264 ) ) ;
#110 = DIRECTION ( 'NONE',  ( 1.224646799147353700E-16, 0.0000000000000000000, 1.000000000000000000 ) ) ;
#111 = AXIS2_PLACEMENT_3D ( 'NONE', #39, #207, #185 ) ;
#112 = DIRECTION ( 'NONE',  ( 0.0000000000000000000, 0.0000000000000000000, -1.000000000000000000 ) ) ;
#113 = EDGE_CURVE ( 'NONE', #122, #137, #73, .T. ) ;
#114 = CARTESIAN_POINT ( 'NONE',  ( 0.0000000000000000000, 0.0000000000000000000, 0.0000000000000000000 ) ) ;
#115 = UNCERTAINTY_MEASURE_WITH_UNIT (LENGTH_MEASURE( 1.000000000000000082E-05 ), #59, 'distance_accuracy_value', 'NONE');
#116 = CARTESIAN_POINT ( 'NONE',  ( 7.646388452176290456E-18, 0.0000000000000000000, 0.06243749999999999994 ) ) ;
#117 = ORIENTED_EDGE ( 'NONE', *, *, #226, .T. ) ;
#118 = CIRCLE ( 'NONE', #318, 0.04750000000000064587 ) ;
#119 = CARTESIAN_POINT ( 'NONE',  ( 0.0000000000000000000, 0.0000000000000000000, 1.500000000000000222 ) ) ;
#120 = ORIENTED_EDGE ( 'NONE', *, *, #168, .T. ) ;
#121 = CARTESIAN_POINT ( 'NONE',  ( 0.06250000000000002776, 7.654042494670959086E-18, 1.500000000000000222 ) ) ;
#122 = VERTEX_POINT ( 'NONE', #40 ) ;
#123 = DIRECTION ( 'NONE',  ( -1.224646799147353700E-16, -0.0000000000000000000, -1.000000000000000000 ) ) ;
#124 = AXIS2_PLACEMENT_3D ( 'NONE', #114, #288, #180 ) ;
#125 = VERTEX_POINT ( 'NONE', #10 ) ;
#126 = FACE_OUTER_BOUND ( 'NONE', #263, .T. ) ;
#127 = DIRECTION ( 'NONE',  ( -0.1736481776669310251, 2.126576849575781468E-17, 0.9848077530122080203 ) ) ;
#128 = CARTESIAN_POINT ( 'NONE',  ( 1.146958267826443414E-17, 0.0000000000000000000, 0.0000000000000000000 ) ) ;
#129 = DIRECTION ( 'NONE',  ( 1.000000000000000000, 0.0000000000000000000, 0.0000000000000000000 ) ) ;
#130 = CYLINDRICAL_SURFACE ( 'NONE', #124, 0.06243749999999999994 ) ;
#131 = PRODUCT_DEFINITION_CONTEXT ( 'detailed design', #90, 'design' ) ;
#132 = DIRECTION ( 'NONE',  ( 1.224646799147353700E-16, 0.0000000000000000000, 1.000000000000000000 ) ) ;
#133 = CARTESIAN_POINT ( 'NONE',  ( 0.04750000000000064587, 6.735557395310483192E-18, 1.500000000000000222 ) ) ;
#134 = CONICAL_SURFACE ( 'NONE', #151, 0.04750000000000064587, 0.7853981633974466137 ) ;
#135 = DIRECTION ( 'NONE',  ( -1.224646799147353700E-16, -0.0000000000000000000, -1.000000000000000000 ) ) ;
#136 = EDGE_CURVE ( 'NONE', #319, #161, #9, .T. ) ;
#137 = VERTEX_POINT ( 'NONE', #35 ) ;
#138 = SPHERICAL_SURFACE ( 'NONE', #111, 0.06243749999999999994 ) ;
#139 = LINE ( 'NONE', #164, #87 ) ;
#140 = EDGE_LOOP ( 'NONE', ( #18, #267, #144 ) ) ;
#141 = FILL_AREA_STYLE ('',( #43 ) ) ;
#142 = EDGE_LOOP ( 'NONE', ( #166, #297, #281, #78 ) ) ;
#143 = SURFACE_STYLE_USAGE ( .BOTH. , #243 ) ;
#144 = ORIENTED_EDGE ( 'NONE', *, *, #168, .F. ) ;
#145 = STYLED_ITEM ( 'NONE', ( #251 ), #13 ) ;
#146 = EDGE_LOOP ( 'NONE', ( #198, #45, #211, #324 ) ) ;
#147 = CARTESIAN_POINT ( 'NONE',  ( -0.06250000000000002776, 0.0000000000000000000, 1.500000000000000222 ) ) ;
#148 =( NAMED_UNIT ( * ) SI_UNIT ( $, .STERADIAN. ) SOLID_ANGLE_UNIT ( ) );
#149 = SURFACE_STYLE_USAGE ( .BOTH. , #55 ) ;
#150 = CARTESIAN_POINT ( 'NONE',  ( 7.646388452176290456E-18, 0.0000000000000000000, 0.06243749999999999994 ) ) ;
#151 = AXIS2_PLACEMENT_3D ( 'NONE', #119, #218, #265 ) ;
#152 = PRODUCT_DEFINITION_SHAPE ( 'NONE', 'NONE',  #213 ) ;
#153 = DIRECTION ( 'NONE',  ( 1.000000000000000000, 0.0000000000000000000, 0.0000000000000000000 ) ) ;
#154 = CONICAL_SURFACE ( 'NONE', #82, 0.04750000000000064587, 0.7853981633974466137 ) ;
#155 = FACE_OUTER_BOUND ( 'NONE', #217, .T. ) ;
#156 = CARTESIAN_POINT ( 'NONE',  ( 6.127574818941430966E-17, 0.0000000000000000000, 0.5003544551137262264 ) ) ;
#157 =( GEOMETRIC_REPRESENTATION_CONTEXT ( 3 ) GLOBAL_UNCERTAINTY_ASSIGNED_CONTEXT ( ( #36 ) ) GLOBAL_UNIT_ASSIGNED_CONTEXT ( ( #100, #224, #148 ) ) REPRESENTATION_CONTEXT ( 'NONE', 'WORKASPACE' ) );
#158 = AXIS2_PLACEMENT_3D ( 'NONE', #280, #200, #203 ) ;
#159 = CARTESIAN_POINT ( 'NONE',  ( 0.0000000000000000000, 0.0000000000000000000, 1.500000000000000222 ) ) ;
#160 = ADVANCED_FACE ( 'NONE', ( #155 ), #163, .T. ) ;
#161 = VERTEX_POINT ( 'NONE', #92 ) ;
#162 = VERTEX_POINT ( 'NONE', #109 ) ;
#163 = CONICAL_SURFACE ( 'NONE', #70, 0.06243749999999999994, 0.1745329251994337527 ) ;
#164 = CARTESIAN_POINT ( 'NONE',  ( 0.04750000000000064587, 5.817072295950006528E-18, 1.500000000000000222 ) ) ;
#165 = EDGE_CURVE ( 'NONE', #269, #162, #237, .T. ) ;
#166 = ORIENTED_EDGE ( 'NONE', *, *, #169, .F. ) ;
#167 = FACE_OUTER_BOUND ( 'NONE', #266, .T. ) ;
#168 = EDGE_CURVE ( 'NONE', #161, #21, #65, .T. ) ;
#169 = EDGE_CURVE ( 'NONE', #178, #125, #181, .T. ) ;
#170 = EDGE_LOOP ( 'NONE', ( #26, #302, #196, #120 ) ) ;
#171 = ADVANCED_FACE ( 'NONE', ( #182 ), #138, .T. ) ;
#172 = ORIENTED_EDGE ( 'NONE', *, *, #260, .F. ) ;
#173 = CARTESIAN_POINT ( 'NONE',  ( -0.06243749999999994443, 7.646388452176287375E-18, 0.5000000000000000000 ) ) ;
#174 = PRODUCT_CONTEXT ( 'NONE', #184, 'mechanical' ) ;
#175 = ORIENTED_EDGE ( 'NONE', *, *, #221, .T. ) ;
#176 = VECTOR ( 'NONE', #105, 39.37007874015748143 ) ;
#177 = FACE_OUTER_BOUND ( 'NONE', #48, .T. ) ;
#178 = VERTEX_POINT ( 'NONE', #133 ) ;
#179 = ADVANCED_BREP_SHAPE_REPRESENTATION ( 'Micro_BEM-125-02', ( #13, #31 ), #264 ) ;
#180 = DIRECTION ( 'NONE',  ( -1.000000000000000000, 0.0000000000000000000, 1.224646799147353947E-16 ) ) ;
#181 = CIRCLE ( 'NONE', #229, 0.04750000000000064587 ) ;
#182 = FACE_OUTER_BOUND ( 'NONE', #140, .T. ) ;
#183 = DIRECTION ( 'NONE',  ( -1.000000000000000000, 0.0000000000000000000, 0.0000000000000000000 ) ) ;
#184 = APPLICATION_CONTEXT ( 'automotive_design' ) ;
#185 = DIRECTION ( 'NONE',  ( 1.000000000000000000, 0.0000000000000000000, 0.0000000000000000000 ) ) ;
#186 = PRODUCT_DEFINITION_FORMATION_WITH_SPECIFIED_SOURCE ( 'ANY', '', #215, .NOT_KNOWN. ) ;
#187 = PRESENTATION_LAYER_ASSIGNMENT (  '', '', ( #145 ) ) ;
#188 = DIRECTION ( 'NONE',  ( -1.000000000000000000, 0.0000000000000000000, 1.367291288120251888E-16 ) ) ;
#189 = ORIENTED_EDGE ( 'NONE', *, *, #165, .T. ) ;
#190 = CYLINDRICAL_SURFACE ( 'NONE', #286, 0.06243749999999999994 ) ;
#191 = PLANE ( 'NONE',  #252 ) ;
#192 = VECTOR ( 'NONE', #123, 39.37007874015748143 ) ;
#193 = DIRECTION ( 'NONE',  ( -0.0000000000000000000, -0.0000000000000000000, -1.000000000000000000 ) ) ;
#194 =( CONVERSION_BASED_UNIT ( 'INCH', #46 ) LENGTH_UNIT ( ) NAMED_UNIT ( #75 ) );
#195 = LINE ( 'NONE', #121, #256 ) ;
#196 = ORIENTED_EDGE ( 'NONE', *, *, #136, .T. ) ;
#197 = ORIENTED_EDGE ( 'NONE', *, *, #260, .T. ) ;
#198 = ORIENTED_EDGE ( 'NONE', *, *, #32, .F. ) ;
#199 = CARTESIAN_POINT ( 'NONE',  ( 0.0000000000000000000, 0.0000000000000000000, 0.0000000000000000000 ) ) ;
#200 = DIRECTION ( 'NONE',  ( -1.224646799147353700E-16, -0.0000000000000000000, -1.000000000000000000 ) ) ;
#201 = CARTESIAN_POINT ( 'NONE',  ( 7.646388452176290456E-18, 0.0000000000000000000, 0.06243749999999999994 ) ) ;
#202 = CARTESIAN_POINT ( 'NONE',  ( 0.0000000000000000000, 0.0000000000000000000, 1.500000000000000222 ) ) ;
#203 = DIRECTION ( 'NONE',  ( 1.000000000000000000, 0.0000000000000000000, 0.0000000000000000000 ) ) ;
#204 = LINE ( 'NONE', #308, #38 ) ;
#205 = AXIS2_PLACEMENT_3D ( 'NONE', #159, #259, #16 ) ;
#206 = DIRECTION ( 'NONE',  ( 0.0000000000000000000, 0.0000000000000000000, -1.000000000000000000 ) ) ;
#207 = DIRECTION ( 'NONE',  ( 0.0000000000000000000, 1.000000000000000000, 0.0000000000000000000 ) ) ;
#208 = CARTESIAN_POINT ( 'NONE',  ( 0.0000000000000000000, 0.0000000000000000000, 1.500000000000000222 ) ) ;
#209 = DIRECTION ( 'NONE',  ( 1.000000000000000000, 0.0000000000000000000, 0.0000000000000000000 ) ) ;
#210 = DIRECTION ( 'NONE',  ( 0.0000000000000000000, 0.0000000000000000000, -1.000000000000000000 ) ) ;
#211 = ORIENTED_EDGE ( 'NONE', *, *, #22, .T. ) ;
#212 = MECHANICAL_DESIGN_GEOMETRIC_PRESENTATION_REPRESENTATION (  '', ( #289 ), #157 ) ;
#213 = PRODUCT_DEFINITION ( 'UNKNOWN', '', #186, #131 ) ;
#214 = DIRECTION ( 'NONE',  ( 0.7071067811865462405, 8.659560562354916834E-17, -0.7071067811865486830 ) ) ;
#215 = PRODUCT ( 'Micro_BEM-125-02', 'Micro_BEM-125-02', '', ( #174 ) ) ;
#216 =( LENGTH_UNIT ( ) NAMED_UNIT ( * ) SI_UNIT ( $, .METRE. ) );
#217 = EDGE_LOOP ( 'NONE', ( #29, #94, #189, #20 ) ) ;
#218 = DIRECTION ( 'NONE',  ( 0.0000000000000000000, 0.0000000000000000000, -1.000000000000000000 ) ) ;
#219 = ORIENTED_EDGE ( 'NONE', *, *, #169, .T. ) ;
#220 = ORIENTED_EDGE ( 'NONE', *, *, #32, .T. ) ;
#221 = EDGE_CURVE ( 'NONE', #125, #178, #118, .T. ) ;
#222 = DIRECTION ( 'NONE',  ( 0.0000000000000000000, 0.0000000000000000000, 1.000000000000000000 ) ) ;
#223 = CIRCLE ( 'NONE', #279, 0.06243749999999999994 ) ;
#224 =( NAMED_UNIT ( * ) PLANE_ANGLE_UNIT ( ) SI_UNIT ( $, .RADIAN. ) );
#225 =( NAMED_UNIT ( * ) SI_UNIT ( $, .STERADIAN. ) SOLID_ANGLE_UNIT ( ) );
#226 = EDGE_CURVE ( 'NONE', #319, #269, #247, .T. ) ;
#227 = EDGE_CURVE ( 'NONE', #137, #122, #44, .T. ) ;
#228 =( LENGTH_UNIT ( ) NAMED_UNIT ( * ) SI_UNIT ( $, .METRE. ) );
#229 = AXIS2_PLACEMENT_3D ( 'NONE', #89, #316, #209 ) ;
#230 = CLOSED_SHELL ( 'NONE', ( #60, #245, #7, #274, #4, #258, #299, #81, #160, #42, #171 ) ) ;
#231 = CYLINDRICAL_SURFACE ( 'NONE', #205, 0.06250000000000002776 ) ;
#232 = DIRECTION ( 'NONE',  ( -1.000000000000000000, 0.0000000000000000000, 0.0000000000000000000 ) ) ;
#233 = UNCERTAINTY_MEASURE_WITH_UNIT (LENGTH_MEASURE( 1.000000000000000082E-05 ), #194, 'distance_accuracy_value', 'NONE');
#234 = CARTESIAN_POINT ( 'NONE',  ( 6.123233995736768501E-17, 0.0000000000000000000, 0.5000000000000000000 ) ) ;
#235 = AXIS2_PLACEMENT_3D ( 'NONE', #234, #11, #183 ) ;
#236 = DIRECTION ( 'NONE',  ( 1.000000000000000000, 0.0000000000000000000, 0.0000000000000000000 ) ) ;
#237 = LINE ( 'NONE', #254, #57 ) ;
#238 = EDGE_CURVE ( 'NONE', #76, #162, #6, .T. ) ;
#239 = DIRECTION ( 'NONE',  ( 1.000000000000000000, 0.0000000000000000000, -0.0000000000000000000 ) ) ;
#240 = ORIENTED_EDGE ( 'NONE', *, *, #28, .T. ) ;
#241 =( NAMED_UNIT ( * ) PLANE_ANGLE_UNIT ( ) SI_UNIT ( $, .RADIAN. ) );
#242 = ORIENTED_EDGE ( 'NONE', *, *, #270, .T. ) ;
#243 = SURFACE_SIDE_STYLE ('',( #47 ) ) ;
#244 = VECTOR ( 'NONE', #127, 39.37007874015748854 ) ;
#245 = ADVANCED_FACE ( 'NONE', ( #14 ), #130, .T. ) ;
#246 = ORIENTED_EDGE ( 'NONE', *, *, #22, .F. ) ;
#247 = CIRCLE ( 'NONE', #235, 0.06243749999999999994 ) ;
#248 = ORIENTED_EDGE ( 'NONE', *, *, #227, .F. ) ;
#249 = APPLICATION_PROTOCOL_DEFINITION ( 'draft international standard', 'automotive_design', 1998, #184 ) ;
#250 = AXIS2_PLACEMENT_3D ( 'NONE', #315, #112, #312 ) ;
#251 = PRESENTATION_STYLE_ASSIGNMENT (( #149 ) ) ;
#252 = AXIS2_PLACEMENT_3D ( 'NONE', #98, #296, #239 ) ;
#253 = DIRECTION ( 'NONE',  ( 1.000000000000000000, 0.0000000000000000000, 0.0000000000000000000 ) ) ;
#254 = CARTESIAN_POINT ( 'NONE',  ( 0.06243750000000006239, 0.0000000000000000000, 0.5000000000000000000 ) ) ;
#255 = DIRECTION ( 'NONE',  ( -1.000000000000000000, 0.0000000000000000000, 0.0000000000000000000 ) ) ;
#256 = VECTOR ( 'NONE', #193, 39.37007874015748143 ) ;
#257 = CARTESIAN_POINT ( 'NONE',  ( 0.0000000000000000000, 0.0000000000000000000, 1.500000000000000222 ) ) ;
#258 = ADVANCED_FACE ( 'NONE', ( #67 ), #231, .T. ) ;
#259 = DIRECTION ( 'NONE',  ( -0.0000000000000000000, -0.0000000000000000000, -1.000000000000000000 ) ) ;
#260 = EDGE_CURVE ( 'NONE', #21, #161, #223, .T. ) ;
#261 =( NAMED_UNIT ( * ) SI_UNIT ( $, .STERADIAN. ) SOLID_ANGLE_UNIT ( ) );
#262 = ORIENTED_EDGE ( 'NONE', *, *, #287, .F. ) ;
#263 = EDGE_LOOP ( 'NONE', ( #304, #220, #41, #246 ) ) ;
#264 =( GEOMETRIC_REPRESENTATION_CONTEXT ( 3 ) GLOBAL_UNCERTAINTY_ASSIGNED_CONTEXT ( ( #233 ) ) GLOBAL_UNIT_ASSIGNED_CONTEXT ( ( #194, #241, #261 ) ) REPRESENTATION_CONTEXT ( 'NONE', 'WORKASPACE' ) );
#265 = DIRECTION ( 'NONE',  ( -1.000000000000000000, 0.0000000000000000000, 0.0000000000000000000 ) ) ;
#266 = EDGE_LOOP ( 'NONE', ( #53, #242, #172 ) ) ;
#267 = ORIENTED_EDGE ( 'NONE', *, *, #15, .T. ) ;
#268 = LINE ( 'NONE', #320, #192 ) ;
#269 = VERTEX_POINT ( 'NONE', #291 ) ;
#270 = EDGE_CURVE ( 'NONE', #3, #161, #106, .T. ) ;
#271 = ORIENTED_EDGE ( 'NONE', *, *, #66, .T. ) ;
#272 = COLOUR_RGB ( '',0.7921568627450980005, 0.8196078431372548767, 0.9333333333333333481 ) ;
#273 = CONICAL_SURFACE ( 'NONE', #290, 0.06243749999999999994, 0.1745329251994337527 ) ;
#274 = ADVANCED_FACE ( 'NONE', ( #294 ), #134, .T. ) ;
#275 = DIRECTION ( 'NONE',  ( 1.000000000000000000, 0.0000000000000000000, 0.0000000000000000000 ) ) ;
#276 = DIRECTION ( 'NONE',  ( 1.000000000000000000, 0.0000000000000000000, 0.0000000000000000000 ) ) ;
#277 = SHAPE_DEFINITION_REPRESENTATION ( #152, #179 ) ;
#278 = SURFACE_STYLE_FILL_AREA ( #58 ) ;
#279 = AXIS2_PLACEMENT_3D ( 'NONE', #116, #317, #188 ) ;
#280 = CARTESIAN_POINT ( 'NONE',  ( 6.127574818941430966E-17, 0.0000000000000000000, 0.5003544551137262264 ) ) ;
#281 = ORIENTED_EDGE ( 'NONE', *, *, #113, .F. ) ;
#282 = CARTESIAN_POINT ( 'NONE',  ( 6.123233995736768501E-17, 0.0000000000000000000, 0.5000000000000000000 ) ) ;
#283 = AXIS2_PLACEMENT_3D ( 'NONE', #202, #84, #102 ) ;
#284 = DIRECTION ( 'NONE',  ( -1.000000000000000000, 0.0000000000000000000, 1.367291288120251888E-16 ) ) ;
#285 = CARTESIAN_POINT ( 'NONE',  ( 0.0000000000000000000, 0.0000000000000000000, 1.485000000000000764 ) ) ;
#286 = AXIS2_PLACEMENT_3D ( 'NONE', #71, #298, #74 ) ;
#287 = EDGE_CURVE ( 'NONE', #178, #137, #139, .T. ) ;
#288 = DIRECTION ( 'NONE',  ( -1.224646799147353700E-16, -0.0000000000000000000, -1.000000000000000000 ) ) ;
#289 = STYLED_ITEM ( 'NONE', ( #323 ), #179 ) ;
#290 = AXIS2_PLACEMENT_3D ( 'NONE', #104, #79, #276 ) ;
#291 = CARTESIAN_POINT ( 'NONE',  ( 0.06243750000000006239, 0.0000000000000000000, 0.5000000000000000000 ) ) ;
#292 = EDGE_LOOP ( 'NONE', ( #117, #1, #197, #99 ) ) ;
#293 = ORIENTED_EDGE ( 'NONE', *, *, #238, .T. ) ;
#294 = FACE_OUTER_BOUND ( 'NONE', #142, .T. ) ;
#295 = CIRCLE ( 'NONE', #158, 0.06250000000000002776 ) ;
#296 = DIRECTION ( 'NONE',  ( 0.0000000000000000000, 0.0000000000000000000, 1.000000000000000000 ) ) ;
#297 = ORIENTED_EDGE ( 'NONE', *, *, #287, .T. ) ;
#298 = DIRECTION ( 'NONE',  ( -1.224646799147353700E-16, -0.0000000000000000000, -1.000000000000000000 ) ) ;
#299 = ADVANCED_FACE ( 'NONE', ( #325 ), #191, .T. ) ;
#300 = CIRCLE ( 'NONE', #49, 0.06243749999999999994 ) ;
#301 = AXIS2_PLACEMENT_3D ( 'NONE', #156, #135, #236 ) ;
#302 = ORIENTED_EDGE ( 'NONE', *, *, #85, .T. ) ;
#303 = FACE_OUTER_BOUND ( 'NONE', #69, .T. ) ;
#304 = ORIENTED_EDGE ( 'NONE', *, *, #113, .T. ) ;
#305 = EDGE_CURVE ( 'NONE', #269, #21, #268, .T. ) ;
#306 = CYLINDRICAL_SURFACE ( 'NONE', #283, 0.06250000000000002776 ) ;
#307 = AXIS2_PLACEMENT_3D ( 'NONE', #34, #19, #95 ) ;
#308 = CARTESIAN_POINT ( 'NONE',  ( -0.04750000000000064587, 0.0000000000000000000, 1.500000000000000222 ) ) ;
#309 = FILL_AREA_STYLE_COLOUR ( '', #107 ) ;
#310 = CARTESIAN_POINT ( 'NONE',  ( 0.06243750000000001382, 7.646388452176287375E-18, 0.06243749999999999301 ) ) ;
#311 = PRODUCT_RELATED_PRODUCT_CATEGORY ( 'part', '', ( #215 ) ) ;
#312 = DIRECTION ( 'NONE',  ( 1.000000000000000000, 0.0000000000000000000, 0.0000000000000000000 ) ) ;
#313 = DIRECTION ( 'NONE',  ( 0.0000000000000000000, 0.0000000000000000000, -1.000000000000000000 ) ) ;
#314 = CARTESIAN_POINT ( 'NONE',  ( -0.06249999999999996531, 0.0000000000000000000, 0.5003544551137262264 ) ) ;
#315 = CARTESIAN_POINT ( 'NONE',  ( 0.0000000000000000000, 0.0000000000000000000, 1.485000000000000764 ) ) ;
#316 = DIRECTION ( 'NONE',  ( 0.0000000000000000000, 0.0000000000000000000, 1.000000000000000000 ) ) ;
#317 = DIRECTION ( 'NONE',  ( 1.224646799147353700E-16, 0.0000000000000000000, 1.000000000000000000 ) ) ;
#318 = AXIS2_PLACEMENT_3D ( 'NONE', #257, #68, #253 ) ;
#319 = VERTEX_POINT ( 'NONE', #17 ) ;
#320 = CARTESIAN_POINT ( 'NONE',  ( 0.06243749999999999994, 7.646388452176287375E-18, -7.646388452176290456E-18 ) ) ;
#321 = ORIENTED_EDGE ( 'NONE', *, *, #221, .F. ) ;
#322 = DIMENSIONAL_EXPONENTS ( 1.000000000000000000, 0.0000000000000000000, 0.0000000000000000000, 0.0000000000000000000, 0.0000000000000000000, 0.0000000000000000000, 0.0000000000000000000 ) ;
#323 = PRESENTATION_STYLE_ASSIGNMENT (( #143 ) ) ;
#324 = ORIENTED_EDGE ( 'NONE', *, *, #5, .F. ) ;
#325 = FACE_OUTER_BOUND ( 'NONE', #101, .T. ) ;
ENDSEC;
END-ISO-10303-21;
