ISO-10303-21;
HEADER;
FILE_DESCRIPTION (( 'STEP AP214' ),
    '1' );
FILE_NAME ('Micro_BMR-023-2X.STEP',
    '2021-09-03T13:54:46',
    ( '' ),
    ( '' ),
    'SwSTEP 2.0',
    'SolidWorks 2020',
    '' );
FILE_SCHEMA (( 'AUTOMOTIVE_DESIGN' ));
ENDSEC;

DATA;
#1 = ORIENTED_EDGE ( 'NONE', *, *, #12, .T. ) ;
#2 = CARTESIAN_POINT ( 'NONE',  ( 0.0000000000000000000, 0.0000000000000000000, 1.485000000000000764 ) ) ;
#3 = EDGE_LOOP ( 'NONE', ( #304, #234 ) ) ;
#4 = LENGTH_MEASURE_WITH_UNIT ( LENGTH_MEASURE( 0.02539999999999999897 ), #164 );
#5 = EDGE_CURVE ( 'NONE', #207, #250, #325, .T. ) ;
#6 = ORIENTED_EDGE ( 'NONE', *, *, #267, .F. ) ;
#7 = DIRECTION ( 'NONE',  ( 1.224646799147353454E-16, 0.0000000000000000000, 1.000000000000000000 ) ) ;
#8 = VECTOR ( 'NONE', #113, 39.37007874015748854 ) ;
#9 = EDGE_LOOP ( 'NONE', ( #275, #1, #25 ) ) ;
#10 = DIMENSIONAL_EXPONENTS ( 1.000000000000000000, 0.0000000000000000000, 0.0000000000000000000, 0.0000000000000000000, 0.0000000000000000000, 0.0000000000000000000, 0.0000000000000000000 ) ;
#11 = DIRECTION ( 'NONE',  ( 1.000000000000000000, 0.0000000000000000000, 0.0000000000000000000 ) ) ;
#12 = EDGE_CURVE ( 'NONE', #127, #207, #265, .T. ) ;
#13 = LINE ( 'NONE', #116, #39 ) ;
#14 = DIRECTION ( 'NONE',  ( -1.000000000000000000, 1.224646799147352961E-16, 0.0000000000000000000 ) ) ;
#15 = AXIS2_PLACEMENT_3D ( 'NONE', #72, #169, #228 ) ;
#16 = EDGE_CURVE ( 'NONE', #81, #88, #255, .T. ) ;
#17 = VECTOR ( 'NONE', #86, 39.37007874015748143 ) ;
#18 =( GEOMETRIC_REPRESENTATION_CONTEXT ( 3 ) GLOBAL_UNCERTAINTY_ASSIGNED_CONTEXT ( ( #33 ) ) GLOBAL_UNIT_ASSIGNED_CONTEXT ( ( #38, #284, #111 ) ) REPRESENTATION_CONTEXT ( 'NONE', 'WORKASPACE' ) );
#19 = ADVANCED_FACE ( 'NONE', ( #186 ), #236, .T. ) ;
#20 = DIRECTION ( 'NONE',  ( 1.224646799147353207E-16, 1.000000000000000000, -0.0000000000000000000 ) ) ;
#21 = ORIENTED_EDGE ( 'NONE', *, *, #5, .F. ) ;
#22 = FACE_OUTER_BOUND ( 'NONE', #3, .T. ) ;
#23 = CARTESIAN_POINT ( 'NONE',  ( 1.406935475200437208E-18, 0.0000000000000000000, 0.01148850000000000218 ) ) ;
#24 = EDGE_CURVE ( 'NONE', #311, #226, #110, .T. ) ;
#25 = ORIENTED_EDGE ( 'NONE', *, *, #323, .F. ) ;
#26 = PRODUCT ( 'Micro_BMR-023-2X', 'Micro_BMR-023-2X', '', ( #290 ) ) ;
#27 = CIRCLE ( 'NONE', #197, 0.01148850000000000218 ) ;
#28 = APPLICATION_CONTEXT ( 'automotive_design' ) ;
#29 = DIRECTION ( 'NONE',  ( 0.0000000000000000000, 0.0000000000000000000, -1.000000000000000000 ) ) ;
#30 = ORIENTED_EDGE ( 'NONE', *, *, #175, .F. ) ;
#31 = CARTESIAN_POINT ( 'NONE',  ( -0.01148849999999999351, 1.406935475200436823E-18, 0.06900000000000000577 ) ) ;
#32 = VERTEX_POINT ( 'NONE', #259 ) ;
#33 = UNCERTAINTY_MEASURE_WITH_UNIT (LENGTH_MEASURE( 1.000000000000000082E-05 ), #38, 'distance_accuracy_value', 'NONE');
#34 = ORIENTED_EDGE ( 'NONE', *, *, #293, .F. ) ;
#35 = DIMENSIONAL_EXPONENTS ( 1.000000000000000000, 0.0000000000000000000, 0.0000000000000000000, 0.0000000000000000000, 0.0000000000000000000, 0.0000000000000000000, 0.0000000000000000000 ) ;
#36 = EDGE_LOOP ( 'NONE', ( #301, #253, #183, #30 ) ) ;
#37 = ORIENTED_EDGE ( 'NONE', *, *, #323, .T. ) ;
#38 =( CONVERSION_BASED_UNIT ( 'INCH', #4 ) LENGTH_UNIT ( ) NAMED_UNIT ( #158 ) );
#39 = VECTOR ( 'NONE', #295, 39.37007874015748143 ) ;
#40 =( GEOMETRIC_REPRESENTATION_CONTEXT ( 3 ) GLOBAL_UNCERTAINTY_ASSIGNED_CONTEXT ( ( #105 ) ) GLOBAL_UNIT_ASSIGNED_CONTEXT ( ( #294, #209, #314 ) ) REPRESENTATION_CONTEXT ( 'NONE', 'WORKASPACE' ) );
#41 =( CONVERSION_BASED_UNIT ( 'INCH', #191 ) LENGTH_UNIT ( ) NAMED_UNIT ( #35 ) );
#42 = DIRECTION ( 'NONE',  ( -1.224646799147353454E-16, -0.0000000000000000000, -1.000000000000000000 ) ) ;
#43 = CARTESIAN_POINT ( 'NONE',  ( 0.0000000000000000000, 0.0000000000000000000, 1.500000000000000222 ) ) ;
#44 = CONICAL_SURFACE ( 'NONE', #119, 0.01148850000000000218, 0.1745329251994338915 ) ;
#45 = EDGE_CURVE ( 'NONE', #217, #207, #206, .T. ) ;
#46 = CARTESIAN_POINT ( 'NONE',  ( -0.06250000000000002776, 0.0000000000000000000, 1.485000000000000764 ) ) ;
#47 = CARTESIAN_POINT ( 'NONE',  ( 4.387916737884590977E-17, 0.0000000000000000000, 0.3583005925414273762 ) ) ;
#48 = CARTESIAN_POINT ( 'NONE',  ( 0.0000000000000000000, 0.0000000000000000000, 0.0000000000000000000 ) ) ;
#49 = ORIENTED_EDGE ( 'NONE', *, *, #205, .T. ) ;
#50 = CYLINDRICAL_SURFACE ( 'NONE', #184, 0.01148849999999999871 ) ;
#51 = ORIENTED_EDGE ( 'NONE', *, *, #16, .F. ) ;
#52 = CARTESIAN_POINT ( 'NONE',  ( 0.01148850000000001086, 0.0000000000000000000, 0.06900000000000000577 ) ) ;
#53 = EDGE_LOOP ( 'NONE', ( #6, #280, #222, #258 ) ) ;
#54 = CARTESIAN_POINT ( 'NONE',  ( 0.06250000000000002776, 7.654042494670959086E-18, 1.485000000000000764 ) ) ;
#55 = ORIENTED_EDGE ( 'NONE', *, *, #205, .F. ) ;
#56 = SPHERICAL_SURFACE ( 'NONE', #285, 0.01148850000000000218 ) ;
#57 = CARTESIAN_POINT ( 'NONE',  ( 0.0000000000000000000, 0.0000000000000000000, 1.500000000000000222 ) ) ;
#58 = VECTOR ( 'NONE', #199, 39.37007874015748143 ) ;
#59 = DIRECTION ( 'NONE',  ( 0.0000000000000000000, 0.0000000000000000000, -1.000000000000000000 ) ) ;
#60 = DIRECTION ( 'NONE',  ( 1.000000000000000000, 0.0000000000000000000, 0.0000000000000000000 ) ) ;
#61 = EDGE_CURVE ( 'NONE', #309, #81, #235, .T. ) ;
#62 = EDGE_LOOP ( 'NONE', ( #173, #89, #147, #37 ) ) ;
#63 = DIRECTION ( 'NONE',  ( -1.000000000000000000, 0.0000000000000000000, 1.224646799147353454E-16 ) ) ;
#64 = AXIS2_PLACEMENT_3D ( 'NONE', #282, #78, #174 ) ;
#65 = SURFACE_STYLE_USAGE ( .BOTH. , #298 ) ;
#66 = CARTESIAN_POINT ( 'NONE',  ( 8.450062914116739989E-18, 0.0000000000000000000, 0.06900000000000000577 ) ) ;
#67 = ADVANCED_FACE ( 'NONE', ( #210 ), #95, .T. ) ;
#68 = ADVANCED_FACE ( 'NONE', ( #115 ), #44, .T. ) ;
#69 = AXIS2_PLACEMENT_3D ( 'NONE', #148, #299, #212 ) ;
#70 = STYLED_ITEM ( 'NONE', ( #233 ), #194 ) ;
#71 = EDGE_CURVE ( 'NONE', #226, #81, #168, .T. ) ;
#72 = CARTESIAN_POINT ( 'NONE',  ( 8.450062914116739989E-18, 0.0000000000000000000, 0.06900000000000000577 ) ) ;
#73 = EDGE_LOOP ( 'NONE', ( #306, #179, #198, #203 ) ) ;
#74 = FACE_OUTER_BOUND ( 'NONE', #252, .T. ) ;
#75 = ORIENTED_EDGE ( 'NONE', *, *, #310, .F. ) ;
#76 = AXIS2_PLACEMENT_3D ( 'NONE', #87, #140, #60 ) ;
#77 = FACE_OUTER_BOUND ( 'NONE', #62, .T. ) ;
#78 = DIRECTION ( 'NONE',  ( 1.224646799147353454E-16, 0.0000000000000000000, 1.000000000000000000 ) ) ;
#79 = ORIENTED_EDGE ( 'NONE', *, *, #84, .T. ) ;
#80 = CARTESIAN_POINT ( 'NONE',  ( 0.0000000000000000000, 0.0000000000000000000, 1.500000000000000222 ) ) ;
#81 = VERTEX_POINT ( 'NONE', #46 ) ;
#82 = CIRCLE ( 'NONE', #171, 0.04750000000000064587 ) ;
#83 =( LENGTH_UNIT ( ) NAMED_UNIT ( * ) SI_UNIT ( $, .METRE. ) );
#84 = EDGE_CURVE ( 'NONE', #127, #250, #114, .T. ) ;
#85 = DIRECTION ( 'NONE',  ( 0.0000000000000000000, -1.000000000000000000, 0.0000000000000000000 ) ) ;
#86 = DIRECTION ( 'NONE',  ( -1.224646799147353454E-16, -0.0000000000000000000, -1.000000000000000000 ) ) ;
#87 = CARTESIAN_POINT ( 'NONE',  ( 0.0000000000000000000, 0.0000000000000000000, 0.0000000000000000000 ) ) ;
#88 = VERTEX_POINT ( 'NONE', #240 ) ;
#89 = ORIENTED_EDGE ( 'NONE', *, *, #187, .T. ) ;
#90 = CARTESIAN_POINT ( 'NONE',  ( 8.450062914116739989E-18, 0.0000000000000000000, 0.06900000000000000577 ) ) ;
#91 =( NAMED_UNIT ( * ) SI_UNIT ( $, .STERADIAN. ) SOLID_ANGLE_UNIT ( ) );
#92 = FILL_AREA_STYLE_COLOUR ( '', #107 ) ;
#93 = MECHANICAL_DESIGN_GEOMETRIC_PRESENTATION_REPRESENTATION (  '', ( #132 ), #296 ) ;
#94 = CONICAL_SURFACE ( 'NONE', #277, 0.04750000000000064587, 0.7853981633974466137 ) ;
#95 = CYLINDRICAL_SURFACE ( 'NONE', #150, 0.01148849999999999871 ) ;
#96 = DIRECTION ( 'NONE',  ( -1.000000000000000000, 0.0000000000000000000, 0.0000000000000000000 ) ) ;
#97 = PRODUCT_RELATED_PRODUCT_CATEGORY ( 'part', '', ( #26 ) ) ;
#98 = CIRCLE ( 'NONE', #137, 0.06250000000000002776 ) ;
#99 = ORIENTED_EDGE ( 'NONE', *, *, #293, .T. ) ;
#100 = DIRECTION ( 'NONE',  ( 0.0000000000000000000, 0.0000000000000000000, 1.000000000000000000 ) ) ;
#101 = DIRECTION ( 'NONE',  ( 0.0000000000000000000, 0.0000000000000000000, -1.000000000000000000 ) ) ;
#102 = ORIENTED_EDGE ( 'NONE', *, *, #12, .F. ) ;
#103 = DIRECTION ( 'NONE',  ( 0.0000000000000000000, 1.000000000000000000, 0.0000000000000000000 ) ) ;
#104 = CARTESIAN_POINT ( 'NONE',  ( 4.387916737884590977E-17, 0.0000000000000000000, 0.3583005925414273762 ) ) ;
#105 = UNCERTAINTY_MEASURE_WITH_UNIT (LENGTH_MEASURE( 1.000000000000000082E-05 ), #294, 'distance_accuracy_value', 'NONE');
#106 = ORIENTED_EDGE ( 'NONE', *, *, #61, .F. ) ;
#107 = COLOUR_RGB ( '',0.7921568627450980005, 0.8196078431372548767, 0.9333333333333333481 ) ;
#108 = DIRECTION ( 'NONE',  ( 0.0000000000000000000, 1.000000000000000000, 0.0000000000000000000 ) ) ;
#109 = APPLICATION_CONTEXT ( 'automotive_design' ) ;
#110 = LINE ( 'NONE', #161, #317 ) ;
#111 =( NAMED_UNIT ( * ) SI_UNIT ( $, .STERADIAN. ) SOLID_ANGLE_UNIT ( ) );
#112 = CARTESIAN_POINT ( 'NONE',  ( 1.406935475200437208E-18, 0.0000000000000000000, 0.01148850000000000218 ) ) ;
#113 = DIRECTION ( 'NONE',  ( -0.7071067811865462405, 0.0000000000000000000, -0.7071067811865486830 ) ) ;
#114 = CIRCLE ( 'NONE', #214, 0.01148850000000000218 ) ;
#115 = FACE_OUTER_BOUND ( 'NONE', #286, .T. ) ;
#116 = CARTESIAN_POINT ( 'NONE',  ( -0.01148849999999999871, 0.0000000000000000000, 1.406935475200436823E-18 ) ) ;
#117 = AXIS2_PLACEMENT_3D ( 'NONE', #2, #101, #200 ) ;
#118 = CARTESIAN_POINT ( 'NONE',  ( 0.0000000000000000000, 0.0000000000000000000, 1.500000000000000222 ) ) ;
#119 = AXIS2_PLACEMENT_3D ( 'NONE', #246, #319, #291 ) ;
#120 = CIRCLE ( 'NONE', #64, 0.01148849999999999871 ) ;
#121 = DIRECTION ( 'NONE',  ( 1.224646799147353454E-16, 0.0000000000000000000, 1.000000000000000000 ) ) ;
#122 = DIRECTION ( 'NONE',  ( -0.1736481776669311916, 2.126576849575783316E-17, 0.9848077530122080203 ) ) ;
#123 = ADVANCED_FACE ( 'NONE', ( #268 ), #289, .T. ) ;
#124 = DIRECTION ( 'NONE',  ( -1.224646799147353454E-16, -0.0000000000000000000, -1.000000000000000000 ) ) ;
#125 = VECTOR ( 'NONE', #232, 39.37007874015748143 ) ;
#126 = AXIS2_PLACEMENT_3D ( 'NONE', #118, #216, #96 ) ;
#127 = VERTEX_POINT ( 'NONE', #316 ) ;
#128 = DIRECTION ( 'NONE',  ( 1.000000000000000000, 0.0000000000000000000, -0.0000000000000000000 ) ) ;
#129 = ORIENTED_EDGE ( 'NONE', *, *, #264, .F. ) ;
#130 = DIRECTION ( 'NONE',  ( -1.000000000000000000, 0.0000000000000000000, 0.0000000000000000000 ) ) ;
#131 = CARTESIAN_POINT ( 'NONE',  ( -0.06250000000000002776, 0.0000000000000000000, 1.500000000000000222 ) ) ;
#132 = STYLED_ITEM ( 'NONE', ( #213 ), #151 ) ;
#133 = SURFACE_STYLE_USAGE ( .BOTH. , #166 ) ;
#134 = ORIENTED_EDGE ( 'NONE', *, *, #244, .F. ) ;
#135 = CARTESIAN_POINT ( 'NONE',  ( 0.01148849999999999871, 1.406935475200436630E-18, -1.406935475200436823E-18 ) ) ;
#136 = ORIENTED_EDGE ( 'NONE', *, *, #154, .T. ) ;
#137 = AXIS2_PLACEMENT_3D ( 'NONE', #47, #42, #141 ) ;
#138 = CIRCLE ( 'NONE', #185, 0.06250000000000002776 ) ;
#139 = ADVANCED_FACE ( 'NONE', ( #74 ), #256, .T. ) ;
#140 = DIRECTION ( 'NONE',  ( 0.0000000000000000000, 0.0000000000000000000, 1.000000000000000000 ) ) ;
#141 = DIRECTION ( 'NONE',  ( 1.000000000000000000, 0.0000000000000000000, 0.0000000000000000000 ) ) ;
#142 = FACE_OUTER_BOUND ( 'NONE', #248, .T. ) ;
#143 = AXIS2_PLACEMENT_3D ( 'NONE', #112, #85, #156 ) ;
#144 = CLOSED_SHELL ( 'NONE', ( #219, #67, #139, #221, #192, #123, #262, #19, #68, #281, #241 ) ) ;
#145 = CARTESIAN_POINT ( 'NONE',  ( 1.406935475200437208E-18, 0.0000000000000000000, 0.01148850000000000218 ) ) ;
#146 = AXIS2_PLACEMENT_3D ( 'NONE', #43, #315, #239 ) ;
#147 = ORIENTED_EDGE ( 'NONE', *, *, #175, .T. ) ;
#148 = CARTESIAN_POINT ( 'NONE',  ( 0.0000000000000000000, 0.0000000000000000000, 1.485000000000000764 ) ) ;
#149 = LINE ( 'NONE', #31, #225 ) ;
#150 = AXIS2_PLACEMENT_3D ( 'NONE', #245, #170, #63 ) ;
#151 = MANIFOLD_SOLID_BREP ( 'Fillet1', #144 ) ;
#152 = DIRECTION ( 'NONE',  ( 1.000000000000000000, 0.0000000000000000000, 0.0000000000000000000 ) ) ;
#153 = ORIENTED_EDGE ( 'NONE', *, *, #310, .T. ) ;
#154 = EDGE_CURVE ( 'NONE', #278, #88, #98, .T. ) ;
#155 = SPHERICAL_SURFACE ( 'NONE', #211, 0.01148850000000000218 ) ;
#156 = DIRECTION ( 'NONE',  ( 0.0000000000000000000, 0.0000000000000000000, -1.000000000000000000 ) ) ;
#157 = FACE_OUTER_BOUND ( 'NONE', #9, .T. ) ;
#158 = DIMENSIONAL_EXPONENTS ( 1.000000000000000000, 0.0000000000000000000, 0.0000000000000000000, 0.0000000000000000000, 0.0000000000000000000, 0.0000000000000000000, 0.0000000000000000000 ) ;
#159 = DIRECTION ( 'NONE',  ( 0.7071067811865462405, 8.659560562354916834E-17, -0.7071067811865486830 ) ) ;
#160 = AXIS2_PLACEMENT_3D ( 'NONE', #182, #7, #260 ) ;
#161 = CARTESIAN_POINT ( 'NONE',  ( 0.04750000000000064587, 5.817072295950006528E-18, 1.500000000000000222 ) ) ;
#162 = APPLICATION_PROTOCOL_DEFINITION ( 'draft international standard', 'automotive_design', 1998, #28 ) ;
#163 = CARTESIAN_POINT ( 'NONE',  ( -0.04750000000000064587, 0.0000000000000000000, 1.500000000000000222 ) ) ;
#164 =( LENGTH_UNIT ( ) NAMED_UNIT ( * ) SI_UNIT ( $, .METRE. ) );
#165 = MECHANICAL_DESIGN_GEOMETRIC_PRESENTATION_REPRESENTATION (  '', ( #70 ), #18 ) ;
#166 = SURFACE_SIDE_STYLE ('',( #312 ) ) ;
#167 = DIRECTION ( 'NONE',  ( -1.224646799147353454E-16, -0.0000000000000000000, -1.000000000000000000 ) ) ;
#168 = CIRCLE ( 'NONE', #69, 0.06250000000000002776 ) ;
#169 = DIRECTION ( 'NONE',  ( -1.224646799147353454E-16, -0.0000000000000000000, -1.000000000000000000 ) ) ;
#170 = DIRECTION ( 'NONE',  ( -1.224646799147353454E-16, -0.0000000000000000000, -1.000000000000000000 ) ) ;
#171 = AXIS2_PLACEMENT_3D ( 'NONE', #80, #100, #152 ) ;
#172 = CARTESIAN_POINT ( 'NONE',  ( 0.0000000000000000000, 0.0000000000000000000, 1.500000000000000222 ) ) ;
#173 = ORIENTED_EDGE ( 'NONE', *, *, #45, .F. ) ;
#174 = DIRECTION ( 'NONE',  ( -1.000000000000000000, 0.0000000000000000000, 1.857732728424255486E-16 ) ) ;
#175 = EDGE_CURVE ( 'NONE', #32, #250, #13, .T. ) ;
#176 = CARTESIAN_POINT ( 'NONE',  ( 0.06250000000000006939, 7.654042494670963708E-18, 0.3583005925414273762 ) ) ;
#177 = EDGE_LOOP ( 'NONE', ( #102, #79, #21 ) ) ;
#178 = CARTESIAN_POINT ( 'NONE',  ( 0.01148850000000000218, 1.406935475200436630E-18, 0.01148849999999999871 ) ) ;
#179 = ORIENTED_EDGE ( 'NONE', *, *, #274, .F. ) ;
#180 = PRODUCT_DEFINITION_SHAPE ( 'NONE', 'NONE',  #208 ) ;
#181 = LINE ( 'NONE', #276, #58 ) ;
#182 = CARTESIAN_POINT ( 'NONE',  ( 1.406935475200437208E-18, 0.0000000000000000000, 0.01148850000000000218 ) ) ;
#183 = ORIENTED_EDGE ( 'NONE', *, *, #5, .T. ) ;
#184 = AXIS2_PLACEMENT_3D ( 'NONE', #48, #227, #271 ) ;
#185 = AXIS2_PLACEMENT_3D ( 'NONE', #104, #124, #224 ) ;
#186 = FACE_OUTER_BOUND ( 'NONE', #73, .T. ) ;
#187 = EDGE_CURVE ( 'NONE', #217, #32, #27, .T. ) ;
#188 = COLOUR_RGB ( '',0.7921568627450980005, 0.8196078431372548767, 0.9333333333333333481 ) ;
#189 = SHAPE_DEFINITION_REPRESENTATION ( #180, #194 ) ;
#190 = FILL_AREA_STYLE ('',( #270 ) ) ;
#191 = LENGTH_MEASURE_WITH_UNIT ( LENGTH_MEASURE( 0.02539999999999999897 ), #193 );
#192 = ADVANCED_FACE ( 'NONE', ( #142 ), #242, .T. ) ;
#193 =( LENGTH_UNIT ( ) NAMED_UNIT ( * ) SI_UNIT ( $, .METRE. ) );
#194 = ADVANCED_BREP_SHAPE_REPRESENTATION ( 'Micro_BMR-023-2X', ( #151, #76 ), #40 ) ;
#195 = EDGE_CURVE ( 'NONE', #32, #217, #266, .T. ) ;
#196 = FACE_OUTER_BOUND ( 'NONE', #283, .T. ) ;
#197 = AXIS2_PLACEMENT_3D ( 'NONE', #66, #167, #263 ) ;
#198 = ORIENTED_EDGE ( 'NONE', *, *, #61, .T. ) ;
#199 = DIRECTION ( 'NONE',  ( 0.1736481776669313859, 0.0000000000000000000, 0.9848077530122077983 ) ) ;
#200 = DIRECTION ( 'NONE',  ( 1.000000000000000000, 0.0000000000000000000, 0.0000000000000000000 ) ) ;
#201 = ORIENTED_EDGE ( 'NONE', *, *, #24, .T. ) ;
#202 = AXIS2_PLACEMENT_3D ( 'NONE', #90, #121, #11 ) ;
#203 = ORIENTED_EDGE ( 'NONE', *, *, #71, .F. ) ;
#204 = CARTESIAN_POINT ( 'NONE',  ( 0.0000000000000000000, 0.0000000000000000000, 1.500000000000000222 ) ) ;
#205 = EDGE_CURVE ( 'NONE', #32, #88, #149, .T. ) ;
#206 = LINE ( 'NONE', #135, #17 ) ;
#207 = VERTEX_POINT ( 'NONE', #178 ) ;
#208 = PRODUCT_DEFINITION ( 'UNKNOWN', '', #215, #272 ) ;
#209 =( NAMED_UNIT ( * ) PLANE_ANGLE_UNIT ( ) SI_UNIT ( $, .RADIAN. ) );
#210 = FACE_OUTER_BOUND ( 'NONE', #36, .T. ) ;
#211 = AXIS2_PLACEMENT_3D ( 'NONE', #23, #103, #220 ) ;
#212 = DIRECTION ( 'NONE',  ( 1.000000000000000000, 0.0000000000000000000, 0.0000000000000000000 ) ) ;
#213 = PRESENTATION_STYLE_ASSIGNMENT (( #65 ) ) ;
#214 = AXIS2_PLACEMENT_3D ( 'NONE', #145, #20, #14 ) ;
#215 = PRODUCT_DEFINITION_FORMATION_WITH_SPECIFIED_SOURCE ( 'ANY', '', #26, .NOT_KNOWN. ) ;
#216 = DIRECTION ( 'NONE',  ( -0.0000000000000000000, -0.0000000000000000000, -1.000000000000000000 ) ) ;
#217 = VERTEX_POINT ( 'NONE', #52 ) ;
#218 =( NAMED_UNIT ( * ) PLANE_ANGLE_UNIT ( ) SI_UNIT ( $, .RADIAN. ) );
#219 = ADVANCED_FACE ( 'NONE', ( #254 ), #56, .T. ) ;
#220 = DIRECTION ( 'NONE',  ( 1.000000000000000000, 0.0000000000000000000, 0.0000000000000000000 ) ) ;
#221 = ADVANCED_FACE ( 'NONE', ( #196 ), #94, .T. ) ;
#222 = ORIENTED_EDGE ( 'NONE', *, *, #16, .T. ) ;
#223 = AXIS2_PLACEMENT_3D ( 'NONE', #57, #59, #308 ) ;
#224 = DIRECTION ( 'NONE',  ( 1.000000000000000000, 0.0000000000000000000, 0.0000000000000000000 ) ) ;
#225 = VECTOR ( 'NONE', #122, 39.37007874015747433 ) ;
#226 = VERTEX_POINT ( 'NONE', #54 ) ;
#227 = DIRECTION ( 'NONE',  ( -1.224646799147353454E-16, -0.0000000000000000000, -1.000000000000000000 ) ) ;
#228 = DIRECTION ( 'NONE',  ( -1.000000000000000000, 0.0000000000000000000, 0.0000000000000000000 ) ) ;
#229 = ORIENTED_EDGE ( 'NONE', *, *, #264, .T. ) ;
#230 = DIRECTION ( 'NONE',  ( 0.0000000000000000000, 0.0000000000000000000, 1.000000000000000000 ) ) ;
#231 = PRESENTATION_LAYER_ASSIGNMENT (  '', '', ( #132 ) ) ;
#232 = DIRECTION ( 'NONE',  ( -0.0000000000000000000, -0.0000000000000000000, -1.000000000000000000 ) ) ;
#233 = PRESENTATION_STYLE_ASSIGNMENT (( #133 ) ) ;
#234 = ORIENTED_EDGE ( 'NONE', *, *, #244, .T. ) ;
#235 = LINE ( 'NONE', #163, #8 ) ;
#236 = CONICAL_SURFACE ( 'NONE', #223, 0.04750000000000064587, 0.7853981633974466137 ) ;
#237 = ORIENTED_EDGE ( 'NONE', *, *, #187, .F. ) ;
#238 = APPLICATION_PROTOCOL_DEFINITION ( 'draft international standard', 'automotive_design', 1998, #109 ) ;
#239 = DIRECTION ( 'NONE',  ( -1.000000000000000000, 0.0000000000000000000, 0.0000000000000000000 ) ) ;
#240 = CARTESIAN_POINT ( 'NONE',  ( -0.06249999999999997918, 0.0000000000000000000, 0.3583005925414273762 ) ) ;
#241 = ADVANCED_FACE ( 'NONE', ( #157 ), #155, .T. ) ;
#242 = CYLINDRICAL_SURFACE ( 'NONE', #126, 0.06250000000000002776 ) ;
#243 = PRESENTATION_LAYER_ASSIGNMENT (  '', '', ( #70 ) ) ;
#244 = EDGE_CURVE ( 'NONE', #311, #309, #82, .T. ) ;
#245 = CARTESIAN_POINT ( 'NONE',  ( 0.0000000000000000000, 0.0000000000000000000, 0.0000000000000000000 ) ) ;
#246 = CARTESIAN_POINT ( 'NONE',  ( 8.450062914116739989E-18, 0.0000000000000000000, 0.06900000000000000577 ) ) ;
#247 = UNCERTAINTY_MEASURE_WITH_UNIT (LENGTH_MEASURE( 1.000000000000000082E-05 ), #41, 'distance_accuracy_value', 'NONE');
#248 = EDGE_LOOP ( 'NONE', ( #229, #287, #34, #51 ) ) ;
#249 = CARTESIAN_POINT ( 'NONE',  ( 1.406935475200437208E-18, 0.0000000000000000000, 0.01148850000000000218 ) ) ;
#250 = VERTEX_POINT ( 'NONE', #273 ) ;
#251 = DIRECTION ( 'NONE',  ( 1.000000000000000000, 0.0000000000000000000, 0.0000000000000000000 ) ) ;
#252 = EDGE_LOOP ( 'NONE', ( #269, #49, #99, #75 ) ) ;
#253 = ORIENTED_EDGE ( 'NONE', *, *, #45, .T. ) ;
#254 = FACE_OUTER_BOUND ( 'NONE', #177, .T. ) ;
#255 = LINE ( 'NONE', #131, #125 ) ;
#256 = CONICAL_SURFACE ( 'NONE', #202, 0.01148850000000000218, 0.1745329251994338915 ) ;
#257 = CIRCLE ( 'NONE', #117, 0.06250000000000002776 ) ;
#258 = ORIENTED_EDGE ( 'NONE', *, *, #154, .F. ) ;
#259 = CARTESIAN_POINT ( 'NONE',  ( -0.01148849999999999351, 4.530488984935698628E-18, 0.06900000000000000577 ) ) ;
#260 = DIRECTION ( 'NONE',  ( -1.000000000000000000, 0.0000000000000000000, 1.857732728424255486E-16 ) ) ;
#261 = VECTOR ( 'NONE', #303, 39.37007874015748143 ) ;
#262 = ADVANCED_FACE ( 'NONE', ( #22 ), #320, .T. ) ;
#263 = DIRECTION ( 'NONE',  ( -1.000000000000000000, 0.0000000000000000000, 0.0000000000000000000 ) ) ;
#264 = EDGE_CURVE ( 'NONE', #81, #226, #257, .T. ) ;
#265 = CIRCLE ( 'NONE', #143, 0.01148850000000000218 ) ;
#266 = CIRCLE ( 'NONE', #15, 0.01148850000000000218 ) ;
#267 = EDGE_CURVE ( 'NONE', #226, #278, #300, .T. ) ;
#268 = FACE_OUTER_BOUND ( 'NONE', #53, .T. ) ;
#269 = ORIENTED_EDGE ( 'NONE', *, *, #195, .F. ) ;
#270 = FILL_AREA_STYLE_COLOUR ( '', #188 ) ;
#271 = DIRECTION ( 'NONE',  ( -1.000000000000000000, 0.0000000000000000000, 1.224646799147353454E-16 ) ) ;
#272 = PRODUCT_DEFINITION_CONTEXT ( 'detailed design', #28, 'design' ) ;
#273 = CARTESIAN_POINT ( 'NONE',  ( -0.01148849999999999698, 0.0000000000000000000, 0.01148850000000000392 ) ) ;
#274 = EDGE_CURVE ( 'NONE', #309, #311, #318, .T. ) ;
#275 = ORIENTED_EDGE ( 'NONE', *, *, #84, .F. ) ;
#276 = CARTESIAN_POINT ( 'NONE',  ( 0.01148850000000001086, 0.0000000000000000000, 0.06900000000000000577 ) ) ;
#277 = AXIS2_PLACEMENT_3D ( 'NONE', #172, #29, #130 ) ;
#278 = VERTEX_POINT ( 'NONE', #176 ) ;
#279 = DIRECTION ( 'NONE',  ( 1.000000000000000000, 0.0000000000000000000, 0.0000000000000000000 ) ) ;
#280 = ORIENTED_EDGE ( 'NONE', *, *, #71, .T. ) ;
#281 = ADVANCED_FACE ( 'NONE', ( #77 ), #50, .T. ) ;
#282 = CARTESIAN_POINT ( 'NONE',  ( 1.406935475200437208E-18, 0.0000000000000000000, 0.01148850000000000218 ) ) ;
#283 = EDGE_LOOP ( 'NONE', ( #134, #201, #129, #106 ) ) ;
#284 =( NAMED_UNIT ( * ) PLANE_ANGLE_UNIT ( ) SI_UNIT ( $, .RADIAN. ) );
#285 = AXIS2_PLACEMENT_3D ( 'NONE', #249, #108, #279 ) ;
#286 = EDGE_LOOP ( 'NONE', ( #55, #237, #153, #136 ) ) ;
#287 = ORIENTED_EDGE ( 'NONE', *, *, #267, .T. ) ;
#288 = FILL_AREA_STYLE ('',( #92 ) ) ;
#289 = CYLINDRICAL_SURFACE ( 'NONE', #146, 0.06250000000000002776 ) ;
#290 = PRODUCT_CONTEXT ( 'NONE', #109, 'mechanical' ) ;
#291 = DIRECTION ( 'NONE',  ( 1.000000000000000000, 0.0000000000000000000, 0.0000000000000000000 ) ) ;
#292 = AXIS2_PLACEMENT_3D ( 'NONE', #322, #230, #128 ) ;
#293 = EDGE_CURVE ( 'NONE', #88, #278, #138, .T. ) ;
#294 =( CONVERSION_BASED_UNIT ( 'INCH', #305 ) LENGTH_UNIT ( ) NAMED_UNIT ( #10 ) );
#295 = DIRECTION ( 'NONE',  ( -1.224646799147353454E-16, -0.0000000000000000000, -1.000000000000000000 ) ) ;
#296 =( GEOMETRIC_REPRESENTATION_CONTEXT ( 3 ) GLOBAL_UNCERTAINTY_ASSIGNED_CONTEXT ( ( #247 ) ) GLOBAL_UNIT_ASSIGNED_CONTEXT ( ( #41, #218, #91 ) ) REPRESENTATION_CONTEXT ( 'NONE', 'WORKASPACE' ) );
#297 = AXIS2_PLACEMENT_3D ( 'NONE', #204, #307, #251 ) ;
#298 = SURFACE_SIDE_STYLE ('',( #313 ) ) ;
#299 = DIRECTION ( 'NONE',  ( 0.0000000000000000000, 0.0000000000000000000, -1.000000000000000000 ) ) ;
#300 = LINE ( 'NONE', #324, #261 ) ;
#301 = ORIENTED_EDGE ( 'NONE', *, *, #195, .T. ) ;
#302 = CARTESIAN_POINT ( 'NONE',  ( 0.04750000000000064587, 6.735557395310483192E-18, 1.500000000000000222 ) ) ;
#303 = DIRECTION ( 'NONE',  ( -0.0000000000000000000, -0.0000000000000000000, -1.000000000000000000 ) ) ;
#304 = ORIENTED_EDGE ( 'NONE', *, *, #274, .T. ) ;
#305 = LENGTH_MEASURE_WITH_UNIT ( LENGTH_MEASURE( 0.02539999999999999897 ), #83 );
#306 = ORIENTED_EDGE ( 'NONE', *, *, #24, .F. ) ;
#307 = DIRECTION ( 'NONE',  ( 0.0000000000000000000, 0.0000000000000000000, 1.000000000000000000 ) ) ;
#308 = DIRECTION ( 'NONE',  ( -1.000000000000000000, 0.0000000000000000000, 0.0000000000000000000 ) ) ;
#309 = VERTEX_POINT ( 'NONE', #321 ) ;
#310 = EDGE_CURVE ( 'NONE', #217, #278, #181, .T. ) ;
#311 = VERTEX_POINT ( 'NONE', #302 ) ;
#312 = SURFACE_STYLE_FILL_AREA ( #288 ) ;
#313 = SURFACE_STYLE_FILL_AREA ( #190 ) ;
#314 =( NAMED_UNIT ( * ) SI_UNIT ( $, .STERADIAN. ) SOLID_ANGLE_UNIT ( ) );
#315 = DIRECTION ( 'NONE',  ( -0.0000000000000000000, -0.0000000000000000000, -1.000000000000000000 ) ) ;
#316 = CARTESIAN_POINT ( 'NONE',  ( 2.110403212800655716E-18, 0.0000000000000000000, 0.0000000000000000000 ) ) ;
#317 = VECTOR ( 'NONE', #159, 39.37007874015748854 ) ;
#318 = CIRCLE ( 'NONE', #297, 0.04750000000000064587 ) ;
#319 = DIRECTION ( 'NONE',  ( 1.224646799147353454E-16, 0.0000000000000000000, 1.000000000000000000 ) ) ;
#320 = PLANE ( 'NONE',  #292 ) ;
#321 = CARTESIAN_POINT ( 'NONE',  ( -0.04750000000000064587, 0.0000000000000000000, 1.500000000000000222 ) ) ;
#322 = CARTESIAN_POINT ( 'NONE',  ( 0.0000000000000000000, 0.0000000000000000000, 1.500000000000000222 ) ) ;
#323 = EDGE_CURVE ( 'NONE', #250, #207, #120, .T. ) ;
#324 = CARTESIAN_POINT ( 'NONE',  ( 0.06250000000000002776, 7.654042494670959086E-18, 1.500000000000000222 ) ) ;
#325 = CIRCLE ( 'NONE', #160, 0.01148849999999999871 ) ;
ENDSEC;
END-ISO-10303-21;
