ISO-10303-21;
HEADER;
FILE_DESCRIPTION (( 'STEP AP214' ),
    '1' );
FILE_NAME ('Micro_SFAM-030020.STEP',
    '2021-09-02T04:09:49',
    ( '' ),
    ( '' ),
    'SwSTEP 2.0',
    'SolidWorks 2020',
    '' );
FILE_SCHEMA (( 'AUTOMOTIVE_DESIGN' ));
ENDSEC;

DATA;
#1 = FACE_OUTER_BOUND ( 'NONE', #226, .T. ) ;
#2 = ORIENTED_EDGE ( 'NONE', *, *, #246, .T. ) ;
#3 = ORIENTED_EDGE ( 'NONE', *, *, #25, .F. ) ;
#4 = ADVANCED_BREP_SHAPE_REPRESENTATION ( 'Micro_SFAM-030020', ( #269, #213 ), #13 ) ;
#5 = DIRECTION ( 'NONE',  ( 1.000000000000000000, 0.0000000000000000000, 0.0000000000000000000 ) ) ;
#6 = APPLICATION_CONTEXT ( 'automotive_design' ) ;
#7 = VECTOR ( 'NONE', #274, 39.37007874015748143 ) ;
#8 = DIRECTION ( 'NONE',  ( 0.0000000000000000000, 0.0000000000000000000, -1.000000000000000000 ) ) ;
#9 = CYLINDRICAL_SURFACE ( 'NONE', #287, 0.05899594499999999409 ) ;
#10 =( NAMED_UNIT ( * ) SI_UNIT ( $, .STERADIAN. ) SOLID_ANGLE_UNIT ( ) );
#11 = DIRECTION ( 'NONE',  ( 1.000000000000000000, 0.0000000000000000000, -0.0000000000000000000 ) ) ;
#12 = CIRCLE ( 'NONE', #29, 0.1181100000000000066 ) ;
#13 =( GEOMETRIC_REPRESENTATION_CONTEXT ( 3 ) GLOBAL_UNCERTAINTY_ASSIGNED_CONTEXT ( ( #298 ) ) GLOBAL_UNIT_ASSIGNED_CONTEXT ( ( #63, #145, #10 ) ) REPRESENTATION_CONTEXT ( 'NONE', 'WORKASPACE' ) );
#14 = EDGE_CURVE ( 'NONE', #129, #74, #243, .T. ) ;
#15 =( NAMED_UNIT ( * ) PLANE_ANGLE_UNIT ( ) SI_UNIT ( $, .RADIAN. ) );
#16 = EDGE_LOOP ( 'NONE', ( #278, #136, #111, #242 ) ) ;
#17 = DIMENSIONAL_EXPONENTS ( 1.000000000000000000, 0.0000000000000000000, 0.0000000000000000000, 0.0000000000000000000, 0.0000000000000000000, 0.0000000000000000000, 0.0000000000000000000 ) ;
#18 = VERTEX_POINT ( 'NONE', #117 ) ;
#19 = APPLICATION_CONTEXT ( 'automotive_design' ) ;
#20 = CIRCLE ( 'NONE', #82, 0.1181100000000000066 ) ;
#21 = DIRECTION ( 'NONE',  ( 1.000000000000000000, 0.0000000000000000000, 0.0000000000000000000 ) ) ;
#22 = PRODUCT_DEFINITION_FORMATION_WITH_SPECIFIED_SOURCE ( 'ANY', '', #294, .NOT_KNOWN. ) ;
#23 = ORIENTED_EDGE ( 'NONE', *, *, #32, .T. ) ;
#24 = EDGE_LOOP ( 'NONE', ( #200, #2, #203, #244 ) ) ;
#25 = EDGE_CURVE ( 'NONE', #196, #221, #228, .T. ) ;
#26 = DIRECTION ( 'NONE',  ( 1.000000000000000000, 0.0000000000000000000, -0.0000000000000000000 ) ) ;
#27 = VERTEX_POINT ( 'NONE', #48 ) ;
#28 = LINE ( 'NONE', #250, #7 ) ;
#29 = AXIS2_PLACEMENT_3D ( 'NONE', #157, #50, #21 ) ;
#30 = CARTESIAN_POINT ( 'NONE',  ( 0.05899594499999999409, 7.224919520692329689E-18, 0.0000000000000000000 ) ) ;
#31 =( CONVERSION_BASED_UNIT ( 'INCH', #164 ) LENGTH_UNIT ( ) NAMED_UNIT ( #292 ) );
#32 = EDGE_CURVE ( 'NONE', #221, #196, #184, .T. ) ;
#33 = DIRECTION ( 'NONE',  ( -0.0000000000000000000, -0.0000000000000000000, -1.000000000000000000 ) ) ;
#34 = PRESENTATION_STYLE_ASSIGNMENT (( #78 ) ) ;
#35 = CARTESIAN_POINT ( 'NONE',  ( 0.0000000000000000000, 0.0000000000000000000, 2.244094000000000033 ) ) ;
#36 = AXIS2_PLACEMENT_3D ( 'NONE', #100, #257, #281 ) ;
#37 = SURFACE_STYLE_FILL_AREA ( #217 ) ;
#38 = AXIS2_PLACEMENT_3D ( 'NONE', #94, #183, #119 ) ;
#39 = CARTESIAN_POINT ( 'NONE',  ( 0.0000000000000000000, 0.0000000000000000000, 2.244094000000000033 ) ) ;
#40 = ORIENTED_EDGE ( 'NONE', *, *, #102, .F. ) ;
#41 = EDGE_CURVE ( 'NONE', #175, #109, #127, .T. ) ;
#42 = DIRECTION ( 'NONE',  ( -1.000000000000000000, 0.0000000000000000000, 0.0000000000000000000 ) ) ;
#43 = EDGE_LOOP ( 'NONE', ( #71, #299, #247, #150 ) ) ;
#44 = CARTESIAN_POINT ( 'NONE',  ( -0.1031100000000002570, 0.0000000000000000000, 2.244094000000000033 ) ) ;
#45 = ORIENTED_EDGE ( 'NONE', *, *, #141, .T. ) ;
#46 = CIRCLE ( 'NONE', #168, 0.05899594499999999409 ) ;
#47 = COLOUR_RGB ( '',0.7921568627450980005, 0.8196078431372548767, 0.9333333333333333481 ) ;
#48 = CARTESIAN_POINT ( 'NONE',  ( 0.05899594500000005654, 0.0000000000000000000, 0.4724409999999999998 ) ) ;
#49 = ORIENTED_EDGE ( 'NONE', *, *, #76, .F. ) ;
#50 = DIRECTION ( 'NONE',  ( -1.224646799147353207E-16, -0.0000000000000000000, -1.000000000000000000 ) ) ;
#51 = DIRECTION ( 'NONE',  ( -1.224646799147353207E-16, -0.0000000000000000000, -1.000000000000000000 ) ) ;
#52 = ORIENTED_EDGE ( 'NONE', *, *, #41, .T. ) ;
#53 = CARTESIAN_POINT ( 'NONE',  ( 0.1031100000000002570, 1.354581824536888722E-17, 2.244094000000000033 ) ) ;
#54 = DIRECTION ( 'NONE',  ( 1.000000000000000000, 0.0000000000000000000, 0.0000000000000000000 ) ) ;
#55 = ADVANCED_FACE ( 'NONE', ( #1 ), #110, .T. ) ;
#56 = DIRECTION ( 'NONE',  ( 0.0000000000000000000, 0.0000000000000000000, 1.000000000000000000 ) ) ;
#57 = DIRECTION ( 'NONE',  ( -1.224646799147353207E-16, -0.0000000000000000000, -1.000000000000000000 ) ) ;
#58 = DIRECTION ( 'NONE',  ( -1.000000000000000000, 0.0000000000000000000, 0.0000000000000000000 ) ) ;
#59 = CIRCLE ( 'NONE', #174, 0.1181100000000000066 ) ;
#60 = CYLINDRICAL_SURFACE ( 'NONE', #290, 0.1181100000000000066 ) ;
#61 = FACE_OUTER_BOUND ( 'NONE', #24, .T. ) ;
#62 = EDGE_CURVE ( 'NONE', #27, #196, #91, .T. ) ;
#63 =( CONVERSION_BASED_UNIT ( 'INCH', #288 ) LENGTH_UNIT ( ) NAMED_UNIT ( #17 ) );
#64 = VECTOR ( 'NONE', #251, 39.37007874015747433 ) ;
#65 = AXIS2_PLACEMENT_3D ( 'NONE', #170, #122, #11 ) ;
#66 = LENGTH_MEASURE_WITH_UNIT ( LENGTH_MEASURE( 0.02539999999999999897 ), #81 );
#67 = EDGE_CURVE ( 'NONE', #27, #176, #99, .T. ) ;
#68 = CARTESIAN_POINT ( 'NONE',  ( 9.891392171009316159E-17, 0.0000000000000000000, 0.8076934654053795626 ) ) ;
#69 = AXIS2_PLACEMENT_3D ( 'NONE', #140, #8, #58 ) ;
#70 = ORIENTED_EDGE ( 'NONE', *, *, #153, .T. ) ;
#71 = ORIENTED_EDGE ( 'NONE', *, *, #14, .F. ) ;
#72 = ORIENTED_EDGE ( 'NONE', *, *, #296, .F. ) ;
#73 = ORIENTED_EDGE ( 'NONE', *, *, #62, .T. ) ;
#74 = VERTEX_POINT ( 'NONE', #44 ) ;
#75 = CARTESIAN_POINT ( 'NONE',  ( 0.1181100000000001177, 1.446430334472940317E-17, 0.8076934654053795626 ) ) ;
#76 = EDGE_CURVE ( 'NONE', #176, #109, #284, .T. ) ;
#77 = DIRECTION ( 'NONE',  ( -1.224646799147353207E-16, -0.0000000000000000000, -1.000000000000000000 ) ) ;
#78 = SURFACE_STYLE_USAGE ( .BOTH. , #260 ) ;
#79 = CARTESIAN_POINT ( 'NONE',  ( 0.1181100000000000066, 1.446430334472939084E-17, 2.244094000000000033 ) ) ;
#80 = CARTESIAN_POINT ( 'NONE',  ( -0.05899594499999999409, 0.0000000000000000000, 1.444983904138465938E-17 ) ) ;
#81 =( LENGTH_UNIT ( ) NAMED_UNIT ( * ) SI_UNIT ( $, .METRE. ) );
#82 = AXIS2_PLACEMENT_3D ( 'NONE', #121, #234, #5 ) ;
#83 = VECTOR ( 'NONE', #283, 39.37007874015748143 ) ;
#84 = DIRECTION ( 'NONE',  ( -1.224646799147353207E-16, -0.0000000000000000000, -1.000000000000000000 ) ) ;
#85 = DIRECTION ( 'NONE',  ( 0.0000000000000000000, 0.0000000000000000000, -1.000000000000000000 ) ) ;
#86 = CIRCLE ( 'NONE', #254, 0.1031100000000002570 ) ;
#87 = DIMENSIONAL_EXPONENTS ( 1.000000000000000000, 0.0000000000000000000, 0.0000000000000000000, 0.0000000000000000000, 0.0000000000000000000, 0.0000000000000000000, 0.0000000000000000000 ) ;
#88 = ORIENTED_EDGE ( 'NONE', *, *, #105, .T. ) ;
#89 = EDGE_LOOP ( 'NONE', ( #49, #273, #177, #52 ) ) ;
#90 = DIRECTION ( 'NONE',  ( -1.000000000000000000, 0.0000000000000000000, 0.0000000000000000000 ) ) ;
#91 = LINE ( 'NONE', #158, #271 ) ;
#92 = CARTESIAN_POINT ( 'NONE',  ( -0.1181099999999999095, 0.0000000000000000000, 0.8076934654053795626 ) ) ;
#93 = STYLED_ITEM ( 'NONE', ( #191 ), #4 ) ;
#94 = CARTESIAN_POINT ( 'NONE',  ( 0.0000000000000000000, 0.0000000000000000000, 2.244094000000000033 ) ) ;
#95 = DIRECTION ( 'NONE',  ( -1.224646799147353207E-16, -0.0000000000000000000, -1.000000000000000000 ) ) ;
#96 = ADVANCED_FACE ( 'NONE', ( #252 ), #265, .T. ) ;
#97 =( LENGTH_UNIT ( ) NAMED_UNIT ( * ) SI_UNIT ( $, .METRE. ) );
#98 = DIRECTION ( 'NONE',  ( -1.000000000000000000, 0.0000000000000000000, 0.0000000000000000000 ) ) ;
#99 = CIRCLE ( 'NONE', #142, 0.05899594499999999409 ) ;
#100 = CARTESIAN_POINT ( 'NONE',  ( 0.0000000000000000000, 0.0000000000000000000, 2.244094000000000033 ) ) ;
#101 = UNCERTAINTY_MEASURE_WITH_UNIT (LENGTH_MEASURE( 1.000000000000000082E-05 ), #237, 'distance_accuracy_value', 'NONE');
#102 = EDGE_CURVE ( 'NONE', #129, #18, #262, .T. ) ;
#103 = DIRECTION ( 'NONE',  ( 0.0000000000000000000, 0.0000000000000000000, -1.000000000000000000 ) ) ;
#104 = DIRECTION ( 'NONE',  ( -0.0000000000000000000, -0.0000000000000000000, -1.000000000000000000 ) ) ;
#105 = EDGE_CURVE ( 'NONE', #176, #221, #28, .T. ) ;
#106 = DIRECTION ( 'NONE',  ( 0.0000000000000000000, 0.0000000000000000000, 1.000000000000000000 ) ) ;
#107 = ORIENTED_EDGE ( 'NONE', *, *, #148, .F. ) ;
#108 = CYLINDRICAL_SURFACE ( 'NONE', #146, 0.05899594499999999409 ) ;
#109 = VERTEX_POINT ( 'NONE', #92 ) ;
#110 = CONICAL_SURFACE ( 'NONE', #286, 0.1031100000000002570, 0.7853981633974318477 ) ;
#111 = ORIENTED_EDGE ( 'NONE', *, *, #148, .T. ) ;
#112 = ORIENTED_EDGE ( 'NONE', *, *, #67, .T. ) ;
#113 = ORIENTED_EDGE ( 'NONE', *, *, #194, .T. ) ;
#114 = AXIS2_PLACEMENT_3D ( 'NONE', #68, #128, #241 ) ;
#115 = LINE ( 'NONE', #138, #238 ) ;
#116 =( GEOMETRIC_REPRESENTATION_CONTEXT ( 3 ) GLOBAL_UNCERTAINTY_ASSIGNED_CONTEXT ( ( #215 ) ) GLOBAL_UNIT_ASSIGNED_CONTEXT ( ( #31, #285, #211 ) ) REPRESENTATION_CONTEXT ( 'NONE', 'WORKASPACE' ) );
#117 = CARTESIAN_POINT ( 'NONE',  ( 0.1181100000000000066, 1.446430334472939084E-17, 2.229093999999999465 ) ) ;
#118 = CARTESIAN_POINT ( 'NONE',  ( 0.05899594500000005654, 0.0000000000000000000, 0.4724409999999999998 ) ) ;
#119 = DIRECTION ( 'NONE',  ( 1.000000000000000000, 0.0000000000000000000, 0.0000000000000000000 ) ) ;
#120 = FILL_AREA_STYLE ('',( #166 ) ) ;
#121 = CARTESIAN_POINT ( 'NONE',  ( 0.0000000000000000000, 0.0000000000000000000, 2.229093999999999465 ) ) ;
#122 = DIRECTION ( 'NONE',  ( 0.0000000000000000000, 0.0000000000000000000, 1.000000000000000000 ) ) ;
#123 = VECTOR ( 'NONE', #187, 39.37007874015748143 ) ;
#124 = SURFACE_STYLE_USAGE ( .BOTH. , #239 ) ;
#125 = PRODUCT_RELATED_PRODUCT_CATEGORY ( 'part', '', ( #294 ) ) ;
#126 = FILL_AREA_STYLE_COLOUR ( '', #185 ) ;
#127 = CIRCLE ( 'NONE', #114, 0.1181100000000000066 ) ;
#128 = DIRECTION ( 'NONE',  ( -1.224646799147353207E-16, -0.0000000000000000000, -1.000000000000000000 ) ) ;
#129 = VERTEX_POINT ( 'NONE', #53 ) ;
#130 = CARTESIAN_POINT ( 'NONE',  ( 5.785733584359747758E-17, 0.0000000000000000000, 0.4724409999999999998 ) ) ;
#131 = ORIENTED_EDGE ( 'NONE', *, *, #14, .T. ) ;
#132 = AXIS2_PLACEMENT_3D ( 'NONE', #256, #232, #212 ) ;
#133 = CARTESIAN_POINT ( 'NONE',  ( 8.847974565113090185E-34, 0.0000000000000000000, 7.224919520692329689E-18 ) ) ;
#134 = ORIENTED_EDGE ( 'NONE', *, *, #105, .F. ) ;
#135 = PLANE ( 'NONE',  #173 ) ;
#136 = ORIENTED_EDGE ( 'NONE', *, *, #76, .T. ) ;
#137 = VECTOR ( 'NONE', #192, 39.37007874015748854 ) ;
#138 = CARTESIAN_POINT ( 'NONE',  ( -0.1031100000000002570, 0.0000000000000000000, 2.244094000000000033 ) ) ;
#139 = DIRECTION ( 'NONE',  ( 1.000000000000000000, 0.0000000000000000000, 0.0000000000000000000 ) ) ;
#140 = CARTESIAN_POINT ( 'NONE',  ( 0.0000000000000000000, 0.0000000000000000000, 2.244094000000000033 ) ) ;
#141 = EDGE_CURVE ( 'NONE', #74, #205, #115, .T. ) ;
#142 = AXIS2_PLACEMENT_3D ( 'NONE', #130, #220, #152 ) ;
#143 = CARTESIAN_POINT ( 'NONE',  ( 0.0000000000000000000, 0.0000000000000000000, 2.244094000000000033 ) ) ;
#144 = FACE_OUTER_BOUND ( 'NONE', #156, .T. ) ;
#145 =( NAMED_UNIT ( * ) PLANE_ANGLE_UNIT ( ) SI_UNIT ( $, .RADIAN. ) );
#146 = AXIS2_PLACEMENT_3D ( 'NONE', #297, #229, #293 ) ;
#147 = CARTESIAN_POINT ( 'NONE',  ( 0.0000000000000000000, 0.0000000000000000000, 0.0000000000000000000 ) ) ;
#148 = EDGE_CURVE ( 'NONE', #109, #175, #12, .T. ) ;
#149 = DIRECTION ( 'NONE',  ( -1.000000000000000000, 0.0000000000000000000, 1.224646799147353454E-16 ) ) ;
#150 = ORIENTED_EDGE ( 'NONE', *, *, #141, .F. ) ;
#151 = ADVANCED_FACE ( 'NONE', ( #182 ), #135, .F. ) ;
#152 = DIRECTION ( 'NONE',  ( -1.000000000000000000, 0.0000000000000000000, 0.0000000000000000000 ) ) ;
#153 = EDGE_CURVE ( 'NONE', #176, #27, #46, .T. ) ;
#154 = ORIENTED_EDGE ( 'NONE', *, *, #201, .F. ) ;
#155 = FACE_OUTER_BOUND ( 'NONE', #89, .T. ) ;
#156 = EDGE_LOOP ( 'NONE', ( #113, #295, #107, #72 ) ) ;
#157 = CARTESIAN_POINT ( 'NONE',  ( 9.891392171009316159E-17, 0.0000000000000000000, 0.8076934654053795626 ) ) ;
#158 = CARTESIAN_POINT ( 'NONE',  ( 0.05899594499999999409, 7.224919520692329689E-18, -7.224919520692329689E-18 ) ) ;
#159 = DIRECTION ( 'NONE',  ( 1.000000000000000000, 0.0000000000000000000, 0.0000000000000000000 ) ) ;
#160 = CARTESIAN_POINT ( 'NONE',  ( -0.05899594499999993857, 7.224919520692329689E-18, 0.4724409999999999998 ) ) ;
#161 = ORIENTED_EDGE ( 'NONE', *, *, #32, .F. ) ;
#162 = CARTESIAN_POINT ( 'NONE',  ( 5.785733584359747758E-17, 0.0000000000000000000, 0.4724409999999999998 ) ) ;
#163 = MECHANICAL_DESIGN_GEOMETRIC_PRESENTATION_REPRESENTATION (  '', ( #218 ), #116 ) ;
#164 = LENGTH_MEASURE_WITH_UNIT ( LENGTH_MEASURE( 0.02539999999999999897 ), #97 );
#165 = FACE_OUTER_BOUND ( 'NONE', #43, .T. ) ;
#166 = FILL_AREA_STYLE_COLOUR ( '', #47 ) ;
#167 = CARTESIAN_POINT ( 'NONE',  ( 0.0000000000000000000, 0.0000000000000000000, 2.229093999999999465 ) ) ;
#168 = AXIS2_PLACEMENT_3D ( 'NONE', #208, #95, #90 ) ;
#169 = PRODUCT_DEFINITION_CONTEXT ( 'detailed design', #19, 'design' ) ;
#170 = CARTESIAN_POINT ( 'NONE',  ( 0.0000000000000000000, 0.0000000000000000000, 2.244094000000000033 ) ) ;
#171 = PRODUCT_DEFINITION ( 'UNKNOWN', '', #22, #169 ) ;
#172 = ADVANCED_FACE ( 'NONE', ( #155 ), #206, .T. ) ;
#173 = AXIS2_PLACEMENT_3D ( 'NONE', #225, #277, #26 ) ;
#174 = AXIS2_PLACEMENT_3D ( 'NONE', #167, #103, #54 ) ;
#175 = VERTEX_POINT ( 'NONE', #75 ) ;
#176 = VERTEX_POINT ( 'NONE', #199 ) ;
#177 = ORIENTED_EDGE ( 'NONE', *, *, #259, .T. ) ;
#178 = DIRECTION ( 'NONE',  ( 1.224646799147353207E-16, 0.0000000000000000000, 1.000000000000000000 ) ) ;
#179 = ADVANCED_FACE ( 'NONE', ( #253 ), #108, .T. ) ;
#180 = ORIENTED_EDGE ( 'NONE', *, *, #246, .F. ) ;
#181 =( GEOMETRIC_REPRESENTATION_CONTEXT ( 3 ) GLOBAL_UNCERTAINTY_ASSIGNED_CONTEXT ( ( #101 ) ) GLOBAL_UNIT_ASSIGNED_CONTEXT ( ( #237, #15, #268 ) ) REPRESENTATION_CONTEXT ( 'NONE', 'WORKASPACE' ) );
#182 = FACE_OUTER_BOUND ( 'NONE', #224, .T. ) ;
#183 = DIRECTION ( 'NONE',  ( 0.0000000000000000000, 0.0000000000000000000, 1.000000000000000000 ) ) ;
#184 = CIRCLE ( 'NONE', #240, 0.05899594499999999409 ) ;
#185 = COLOUR_RGB ( '',0.7921568627450980005, 0.8196078431372548767, 0.9333333333333333481 ) ;
#186 = DIRECTION ( 'NONE',  ( -1.000000000000000000, 0.0000000000000000000, 1.224646799147353454E-16 ) ) ;
#187 = DIRECTION ( 'NONE',  ( -0.0000000000000000000, -0.0000000000000000000, -1.000000000000000000 ) ) ;
#188 = PLANE ( 'NONE',  #65 ) ;
#189 = CYLINDRICAL_SURFACE ( 'NONE', #36, 0.1181100000000000066 ) ;
#190 = AXIS2_PLACEMENT_3D ( 'NONE', #162, #178, #159 ) ;
#191 = PRESENTATION_STYLE_ASSIGNMENT (( #124 ) ) ;
#192 = DIRECTION ( 'NONE',  ( 0.7071067811865358044, 8.659560562354788645E-17, -0.7071067811865590080 ) ) ;
#193 = CONICAL_SURFACE ( 'NONE', #69, 0.1031100000000002570, 0.7853981633974318477 ) ;
#194 = EDGE_CURVE ( 'NONE', #205, #18, #20, .T. ) ;
#195 = DIRECTION ( 'NONE',  ( 1.000000000000000000, 0.0000000000000000000, 0.0000000000000000000 ) ) ;
#196 = VERTEX_POINT ( 'NONE', #30 ) ;
#197 = VECTOR ( 'NONE', #104, 39.37007874015748143 ) ;
#198 = EDGE_LOOP ( 'NONE', ( #272, #131 ) ) ;
#199 = CARTESIAN_POINT ( 'NONE',  ( -0.05899594499999993857, 1.084461143271085796E-17, 0.4724409999999999998 ) ) ;
#200 = ORIENTED_EDGE ( 'NONE', *, *, #210, .F. ) ;
#201 = EDGE_CURVE ( 'NONE', #74, #129, #86, .T. ) ;
#202 = DIRECTION ( 'NONE',  ( -1.000000000000000000, 0.0000000000000000000, 1.224646799147353454E-16 ) ) ;
#203 = ORIENTED_EDGE ( 'NONE', *, *, #296, .T. ) ;
#204 = ADVANCED_FACE ( 'NONE', ( #144 ), #60, .T. ) ;
#205 = VERTEX_POINT ( 'NONE', #235 ) ;
#206 = CONICAL_SURFACE ( 'NONE', #190, 0.05899594499999999409, 0.1745329251994338637 ) ;
#207 = PRODUCT_DEFINITION_SHAPE ( 'NONE', 'NONE',  #171 ) ;
#208 = CARTESIAN_POINT ( 'NONE',  ( 5.785733584359747758E-17, 0.0000000000000000000, 0.4724409999999999998 ) ) ;
#209 = SURFACE_STYLE_FILL_AREA ( #120 ) ;
#210 = EDGE_CURVE ( 'NONE', #18, #175, #214, .T. ) ;
#211 =( NAMED_UNIT ( * ) SI_UNIT ( $, .STERADIAN. ) SOLID_ANGLE_UNIT ( ) );
#212 = DIRECTION ( 'NONE',  ( 1.000000000000000000, 0.0000000000000000000, 0.0000000000000000000 ) ) ;
#213 = AXIS2_PLACEMENT_3D ( 'NONE', #147, #106, #195 ) ;
#214 = LINE ( 'NONE', #79, #123 ) ;
#215 = UNCERTAINTY_MEASURE_WITH_UNIT (LENGTH_MEASURE( 1.000000000000000082E-05 ), #31, 'distance_accuracy_value', 'NONE');
#216 = FACE_OUTER_BOUND ( 'NONE', #249, .T. ) ;
#217 = FILL_AREA_STYLE ('',( #126 ) ) ;
#218 = STYLED_ITEM ( 'NONE', ( #34 ), #269 ) ;
#219 = ORIENTED_EDGE ( 'NONE', *, *, #62, .F. ) ;
#220 = DIRECTION ( 'NONE',  ( -1.224646799147353207E-16, -0.0000000000000000000, -1.000000000000000000 ) ) ;
#221 = VERTEX_POINT ( 'NONE', #80 ) ;
#222 = EDGE_LOOP ( 'NONE', ( #219, #112, #88, #3 ) ) ;
#223 = ADVANCED_FACE ( 'NONE', ( #165 ), #193, .T. ) ;
#224 = EDGE_LOOP ( 'NONE', ( #23, #275 ) ) ;
#225 = CARTESIAN_POINT ( 'NONE',  ( 0.0000000000000000000, 0.0000000000000000000, 0.0000000000000000000 ) ) ;
#226 = EDGE_LOOP ( 'NONE', ( #40, #154, #45, #180 ) ) ;
#227 = CLOSED_SHELL ( 'NONE', ( #230, #96, #223, #204, #248, #282, #55, #172, #179, #151 ) ) ;
#228 = CIRCLE ( 'NONE', #280, 0.05899594499999999409 ) ;
#229 = DIRECTION ( 'NONE',  ( -1.224646799147353207E-16, -0.0000000000000000000, -1.000000000000000000 ) ) ;
#230 = ADVANCED_FACE ( 'NONE', ( #216 ), #9, .T. ) ;
#231 = LINE ( 'NONE', #118, #83 ) ;
#232 = DIRECTION ( 'NONE',  ( 1.224646799147353207E-16, 0.0000000000000000000, 1.000000000000000000 ) ) ;
#233 = FACE_OUTER_BOUND ( 'NONE', #198, .T. ) ;
#234 = DIRECTION ( 'NONE',  ( 0.0000000000000000000, 0.0000000000000000000, -1.000000000000000000 ) ) ;
#235 = CARTESIAN_POINT ( 'NONE',  ( -0.1181100000000000066, 0.0000000000000000000, 2.229093999999999465 ) ) ;
#236 =( LENGTH_UNIT ( ) NAMED_UNIT ( * ) SI_UNIT ( $, .METRE. ) );
#237 =( CONVERSION_BASED_UNIT ( 'INCH', #66 ) LENGTH_UNIT ( ) NAMED_UNIT ( #87 ) );
#238 = VECTOR ( 'NONE', #245, 39.37007874015748854 ) ;
#239 = SURFACE_SIDE_STYLE ('',( #37 ) ) ;
#240 = AXIS2_PLACEMENT_3D ( 'NONE', #133, #84, #149 ) ;
#241 = DIRECTION ( 'NONE',  ( 1.000000000000000000, 0.0000000000000000000, 0.0000000000000000000 ) ) ;
#242 = ORIENTED_EDGE ( 'NONE', *, *, #259, .F. ) ;
#243 = CIRCLE ( 'NONE', #38, 0.1031100000000002570 ) ;
#244 = ORIENTED_EDGE ( 'NONE', *, *, #41, .F. ) ;
#245 = DIRECTION ( 'NONE',  ( -0.7071067811865358044, 0.0000000000000000000, -0.7071067811865590080 ) ) ;
#246 = EDGE_CURVE ( 'NONE', #18, #205, #59, .T. ) ;
#247 = ORIENTED_EDGE ( 'NONE', *, *, #194, .F. ) ;
#248 = ADVANCED_FACE ( 'NONE', ( #61 ), #189, .T. ) ;
#249 = EDGE_LOOP ( 'NONE', ( #70, #73, #161, #134 ) ) ;
#250 = CARTESIAN_POINT ( 'NONE',  ( -0.05899594499999999409, 0.0000000000000000000, 7.224919520692329689E-18 ) ) ;
#251 = DIRECTION ( 'NONE',  ( -0.1736481776669311639, 2.126576849575783008E-17, 0.9848077530122080203 ) ) ;
#252 = FACE_OUTER_BOUND ( 'NONE', #16, .T. ) ;
#253 = FACE_OUTER_BOUND ( 'NONE', #222, .T. ) ;
#254 = AXIS2_PLACEMENT_3D ( 'NONE', #35, #56, #139 ) ;
#255 = MECHANICAL_DESIGN_GEOMETRIC_PRESENTATION_REPRESENTATION (  '', ( #93 ), #181 ) ;
#256 = CARTESIAN_POINT ( 'NONE',  ( 5.785733584359747758E-17, 0.0000000000000000000, 0.4724409999999999998 ) ) ;
#257 = DIRECTION ( 'NONE',  ( -0.0000000000000000000, -0.0000000000000000000, -1.000000000000000000 ) ) ;
#258 = CARTESIAN_POINT ( 'NONE',  ( 8.847974565113090185E-34, 0.0000000000000000000, 7.224919520692329689E-18 ) ) ;
#259 = EDGE_CURVE ( 'NONE', #27, #175, #231, .T. ) ;
#260 = SURFACE_SIDE_STYLE ('',( #209 ) ) ;
#261 = CARTESIAN_POINT ( 'NONE',  ( 0.0000000000000000000, 0.0000000000000000000, 0.0000000000000000000 ) ) ;
#262 = LINE ( 'NONE', #279, #137 ) ;
#263 = LINE ( 'NONE', #267, #197 ) ;
#264 = APPLICATION_PROTOCOL_DEFINITION ( 'draft international standard', 'automotive_design', 1998, #19 ) ;
#265 = CONICAL_SURFACE ( 'NONE', #132, 0.05899594499999999409, 0.1745329251994338637 ) ;
#266 = PRESENTATION_LAYER_ASSIGNMENT (  '', '', ( #93 ) ) ;
#267 = CARTESIAN_POINT ( 'NONE',  ( -0.1181100000000000066, 0.0000000000000000000, 2.244094000000000033 ) ) ;
#268 =( NAMED_UNIT ( * ) SI_UNIT ( $, .STERADIAN. ) SOLID_ANGLE_UNIT ( ) );
#269 = MANIFOLD_SOLID_BREP ( 'Cut-Revolve1', #227 ) ;
#270 = APPLICATION_PROTOCOL_DEFINITION ( 'draft international standard', 'automotive_design', 1998, #6 ) ;
#271 = VECTOR ( 'NONE', #51, 39.37007874015748143 ) ;
#272 = ORIENTED_EDGE ( 'NONE', *, *, #201, .T. ) ;
#273 = ORIENTED_EDGE ( 'NONE', *, *, #67, .F. ) ;
#274 = DIRECTION ( 'NONE',  ( -1.224646799147353207E-16, -0.0000000000000000000, -1.000000000000000000 ) ) ;
#275 = ORIENTED_EDGE ( 'NONE', *, *, #25, .T. ) ;
#276 = PRESENTATION_LAYER_ASSIGNMENT (  '', '', ( #218 ) ) ;
#277 = DIRECTION ( 'NONE',  ( 0.0000000000000000000, 0.0000000000000000000, 1.000000000000000000 ) ) ;
#278 = ORIENTED_EDGE ( 'NONE', *, *, #153, .F. ) ;
#279 = CARTESIAN_POINT ( 'NONE',  ( 0.1031100000000002570, 1.262733314600838667E-17, 2.244094000000000033 ) ) ;
#280 = AXIS2_PLACEMENT_3D ( 'NONE', #258, #57, #202 ) ;
#281 = DIRECTION ( 'NONE',  ( -1.000000000000000000, 0.0000000000000000000, 0.0000000000000000000 ) ) ;
#282 = ADVANCED_FACE ( 'NONE', ( #233 ), #188, .T. ) ;
#283 = DIRECTION ( 'NONE',  ( 0.1736481776669313581, 0.0000000000000000000, 0.9848077530122077983 ) ) ;
#284 = LINE ( 'NONE', #160, #64 ) ;
#285 =( NAMED_UNIT ( * ) PLANE_ANGLE_UNIT ( ) SI_UNIT ( $, .RADIAN. ) );
#286 = AXIS2_PLACEMENT_3D ( 'NONE', #39, #85, #42 ) ;
#287 = AXIS2_PLACEMENT_3D ( 'NONE', #261, #77, #186 ) ;
#288 = LENGTH_MEASURE_WITH_UNIT ( LENGTH_MEASURE( 0.02539999999999999897 ), #236 );
#289 = SHAPE_DEFINITION_REPRESENTATION ( #207, #4 ) ;
#290 = AXIS2_PLACEMENT_3D ( 'NONE', #143, #33, #98 ) ;
#291 = PRODUCT_CONTEXT ( 'NONE', #6, 'mechanical' ) ;
#292 = DIMENSIONAL_EXPONENTS ( 1.000000000000000000, 0.0000000000000000000, 0.0000000000000000000, 0.0000000000000000000, 0.0000000000000000000, 0.0000000000000000000, 0.0000000000000000000 ) ;
#293 = DIRECTION ( 'NONE',  ( -1.000000000000000000, 0.0000000000000000000, 1.224646799147353454E-16 ) ) ;
#294 = PRODUCT ( 'Micro_SFAM-030020', 'Micro_SFAM-030020', '', ( #291 ) ) ;
#295 = ORIENTED_EDGE ( 'NONE', *, *, #210, .T. ) ;
#296 = EDGE_CURVE ( 'NONE', #205, #109, #263, .T. ) ;
#297 = CARTESIAN_POINT ( 'NONE',  ( 0.0000000000000000000, 0.0000000000000000000, 0.0000000000000000000 ) ) ;
#298 = UNCERTAINTY_MEASURE_WITH_UNIT (LENGTH_MEASURE( 1.000000000000000082E-05 ), #63, 'distance_accuracy_value', 'NONE');
#299 = ORIENTED_EDGE ( 'NONE', *, *, #102, .T. ) ;
ENDSEC;
END-ISO-10303-21;
