ISO-10303-21;
HEADER;
FILE_DESCRIPTION (( 'STEP AP214' ),
    '1' );
FILE_NAME ('86024.STEP',
    '2023-06-30T23:55:46',
    ( '' ),
    ( '' ),
    'SwSTEP 2.0',
    'SolidWorks 2023',
    '' );
FILE_SCHEMA (( 'AUTOMOTIVE_DESIGN' ));
ENDSEC;

DATA;
#1 = CIRCLE ( 'NONE', #291, 0.1249999999999998335 ) ;
#2 =( GEOMETRIC_REPRESENTATION_CONTEXT ( 3 ) GLOBAL_UNCERTAINTY_ASSIGNED_CONTEXT ( ( #92 ) ) GLOBAL_UNIT_ASSIGNED_CONTEXT ( ( #181, #217, #174 ) ) REPRESENTATION_CONTEXT ( 'NONE', 'WORKASPACE' ) );
#3 = CARTESIAN_POINT ( 'NONE',  ( 0.000000000000000000, 0.1250000000000001110, 0.000000000000000000 ) ) ;
#4 =( NAMED_UNIT ( * ) SI_UNIT ( $, .STERADIAN. ) SOLID_ANGLE_UNIT ( ) );
#5 = VERTEX_POINT ( 'NONE', #40 ) ;
#6 = DIRECTION ( 'NONE',  ( -1.000000000000000000, 0.000000000000000000, 0.000000000000000000 ) ) ;
#7 = ORIENTED_EDGE ( 'NONE', *, *, #372, .F. ) ;
#8 = COLOUR_RGB ( '',0.7921568627450980005, 0.8196078431372548767, 0.9333333333333333481 ) ;
#9 = AXIS2_PLACEMENT_3D ( 'NONE', #43, #325, #332 ) ;
#10 = FILL_AREA_STYLE_COLOUR ( '', #77 ) ;
#11 = DIRECTION ( 'NONE',  ( -0.000000000000000000, -1.000000000000000000, -0.000000000000000000 ) ) ;
#12 = CARTESIAN_POINT ( 'NONE',  ( 0.1250000000000000278, 0.1250000000000001110, 0.000000000000000000 ) ) ;
#13 = EDGE_CURVE ( 'NONE', #209, #5, #163, .T. ) ;
#14 = DIRECTION ( 'NONE',  ( 0.000000000000000000, 0.000000000000000000, 1.000000000000000000 ) ) ;
#15 =( CONVERSION_BASED_UNIT ( 'INCH', #93 ) LENGTH_UNIT ( ) NAMED_UNIT ( #261 ) );
#16 = DIRECTION ( 'NONE',  ( 1.000000000000000000, 0.000000000000000000, 0.000000000000000000 ) ) ;
#17 =( GEOMETRIC_REPRESENTATION_CONTEXT ( 3 ) GLOBAL_UNCERTAINTY_ASSIGNED_CONTEXT ( ( #331 ) ) GLOBAL_UNIT_ASSIGNED_CONTEXT ( ( #196, #311, #260 ) ) REPRESENTATION_CONTEXT ( 'NONE', 'WORKASPACE' ) );
#18 = DIMENSIONAL_EXPONENTS ( 1.000000000000000000, 0.000000000000000000, 0.000000000000000000, 0.000000000000000000, 0.000000000000000000, 0.000000000000000000, 0.000000000000000000 ) ;
#19 = EDGE_CURVE ( 'NONE', #208, #351, #221, .T. ) ;
#20 = ORIENTED_EDGE ( 'NONE', *, *, #309, .F. ) ;
#21 = CARTESIAN_POINT ( 'NONE',  ( -1.530808498934191509E-17, 0.1250000000000000278, 0.000000000000000000 ) ) ;
#22 = AXIS2_PLACEMENT_3D ( 'NONE', #294, #95, #244 ) ;
#23 = AXIS2_PLACEMENT_3D ( 'NONE', #207, #59, #279 ) ;
#24 = APPLICATION_PROTOCOL_DEFINITION ( 'draft international standard', 'automotive_design', 1998, #48 ) ;
#25 = LENGTH_MEASURE_WITH_UNIT ( LENGTH_MEASURE( 0.02539999999999999897 ), #28 );
#26 = PLANE ( 'NONE',  #367 ) ;
#27 = ADVANCED_BREP_SHAPE_REPRESENTATION ( '86024', ( #335, #90, #178 ), #114 ) ;
#28 =( LENGTH_UNIT ( ) NAMED_UNIT ( * ) SI_UNIT ( $, .METRE. ) );
#29 =( CONVERSION_BASED_UNIT ( 'INCH', #247 ) LENGTH_UNIT ( ) NAMED_UNIT ( #202 ) );
#30 = CLOSED_SHELL ( 'NONE', ( #257, #200, #240, #67, #371 ) ) ;
#31 = EDGE_LOOP ( 'NONE', ( #344, #340 ) ) ;
#32 = AXIS2_PLACEMENT_3D ( 'NONE', #242, #369, #206 ) ;
#33 = AXIS2_PLACEMENT_3D ( 'NONE', #307, #250, #220 ) ;
#34 = SURFACE_SIDE_STYLE ('',( #124 ) ) ;
#35 = VERTEX_POINT ( 'NONE', #12 ) ;
#36 = PRODUCT_DEFINITION ( 'UNKNOWN', '', #229, #188 ) ;
#37 = FACE_OUTER_BOUND ( 'NONE', #31, .T. ) ;
#38 = DIRECTION ( 'NONE',  ( -0.000000000000000000, -1.000000000000000000, -0.000000000000000000 ) ) ;
#39 = FILL_AREA_STYLE_COLOUR ( '', #346 ) ;
#40 = CARTESIAN_POINT ( 'NONE',  ( -7.654042494670956004E-18, 0.000000000000000000, 0.000000000000000000 ) ) ;
#41 = PRESENTATION_LAYER_ASSIGNMENT (  '', '', ( #212 ) ) ;
#42 =( NAMED_UNIT ( * ) PLANE_ANGLE_UNIT ( ) SI_UNIT ( $, .RADIAN. ) );
#43 = CARTESIAN_POINT ( 'NONE',  ( 1.836970198721029688E-16, 3.000000000000000444, 0.000000000000000000 ) ) ;
#44 = FILL_AREA_STYLE ('',( #252 ) ) ;
#45 = STYLED_ITEM ( 'NONE', ( #58 ), #90 ) ;
#46 = CARTESIAN_POINT ( 'NONE',  ( 1.836970198721029688E-16, 3.000000000000000444, 0.000000000000000000 ) ) ;
#47 = STYLED_ITEM ( 'NONE', ( #362 ), #335 ) ;
#48 = APPLICATION_CONTEXT ( 'automotive_design' ) ;
#49 = AXIS2_PLACEMENT_3D ( 'NONE', #358, #364, #305 ) ;
#50 =( GEOMETRIC_REPRESENTATION_CONTEXT ( 3 ) GLOBAL_UNCERTAINTY_ASSIGNED_CONTEXT ( ( #111 ) ) GLOBAL_UNIT_ASSIGNED_CONTEXT ( ( #219, #293, #149 ) ) REPRESENTATION_CONTEXT ( 'NONE', 'WORKASPACE' ) );
#51 = SPHERICAL_SURFACE ( 'NONE', #273, 0.1250000000000000278 ) ;
#52 = EDGE_CURVE ( 'NONE', #35, #5, #228, .T. ) ;
#53 = CARTESIAN_POINT ( 'NONE',  ( 0.1249999999999998335, 3.000000000000000444, 1.530808498934186887E-17 ) ) ;
#54 = ORIENTED_EDGE ( 'NONE', *, *, #159, .T. ) ;
#55 = PRESENTATION_LAYER_ASSIGNMENT (  '', '', ( #47 ) ) ;
#56 = PRODUCT_RELATED_PRODUCT_CATEGORY ( 'part', '', ( #253 ) ) ;
#57 = SURFACE_STYLE_FILL_AREA ( #241 ) ;
#58 = PRESENTATION_STYLE_ASSIGNMENT (( #295 ) ) ;
#59 = DIRECTION ( 'NONE',  ( -8.635235986598284365E-17, 1.000000000000000000, -0.000000000000000000 ) ) ;
#60 = ADVANCED_FACE ( 'NONE', ( #280 ), #254, .F. ) ;
#61 = EDGE_LOOP ( 'NONE', ( #173, #78 ) ) ;
#62 =( GEOMETRIC_REPRESENTATION_CONTEXT ( 3 ) GLOBAL_UNCERTAINTY_ASSIGNED_CONTEXT ( ( #99 ) ) GLOBAL_UNIT_ASSIGNED_CONTEXT ( ( #144, #42, #363 ) ) REPRESENTATION_CONTEXT ( 'NONE', 'WORKASPACE' ) );
#63 = DIRECTION ( 'NONE',  ( -0.000000000000000000, -1.000000000000000000, -0.000000000000000000 ) ) ;
#64 = EDGE_LOOP ( 'NONE', ( #20, #267 ) ) ;
#65 = CARTESIAN_POINT ( 'NONE',  ( 0.000000000000000000, 0.1250000000000001110, 0.000000000000000000 ) ) ;
#66 = CYLINDRICAL_SURFACE ( 'NONE', #286, 0.1249999999999995837 ) ;
#67 = ADVANCED_FACE ( 'NONE', ( #101 ), #224, .T. ) ;
#68 = DIRECTION ( 'NONE',  ( -8.635235986598284365E-17, 1.000000000000000000, -0.000000000000000000 ) ) ;
#69 = FACE_OUTER_BOUND ( 'NONE', #176, .T. ) ;
#70 = UNCERTAINTY_MEASURE_WITH_UNIT (LENGTH_MEASURE( 1.000000000000000082E-05 ), #29, 'distance_accuracy_value', 'NONE');
#71 =( LENGTH_UNIT ( ) NAMED_UNIT ( * ) SI_UNIT ( $, .METRE. ) );
#72 = CARTESIAN_POINT ( 'NONE',  ( 0.000000000000000000, 1.500000000000000222, 0.000000000000000000 ) ) ;
#73 = CARTESIAN_POINT ( 'NONE',  ( -1.530808498934191509E-17, 0.1250000000000000278, 0.000000000000000000 ) ) ;
#74 = CARTESIAN_POINT ( 'NONE',  ( 1.530808498934192125E-17, 0.1250000000000001110, 0.1250000000000000555 ) ) ;
#75 = VECTOR ( 'NONE', #210, 39.37007874015748143 ) ;
#76 = PRESENTATION_LAYER_ASSIGNMENT (  '', '', ( #83 ) ) ;
#77 = COLOUR_RGB ( '',1.000000000000000000, 0.000000000000000000, 0.000000000000000000 ) ;
#78 = ORIENTED_EDGE ( 'NONE', *, *, #245, .T. ) ;
#79 = ORIENTED_EDGE ( 'NONE', *, *, #116, .T. ) ;
#80 =( CONVERSION_BASED_UNIT ( 'INCH', #258 ) LENGTH_UNIT ( ) NAMED_UNIT ( #338 ) );
#81 = ORIENTED_EDGE ( 'NONE', *, *, #52, .F. ) ;
#82 = ORIENTED_EDGE ( 'NONE', *, *, #189, .T. ) ;
#83 = STYLED_ITEM ( 'NONE', ( #317 ), #257 ) ;
#84 = VERTEX_POINT ( 'NONE', #350 ) ;
#85 = ORIENTED_EDGE ( 'NONE', *, *, #139, .T. ) ;
#86 = SHAPE_DEFINITION_REPRESENTATION ( #183, #27 ) ;
#87 = DIRECTION ( 'NONE',  ( 0.000000000000000000, 0.000000000000000000, 1.000000000000000000 ) ) ;
#88 = DIRECTION ( 'NONE',  ( -8.635235986598284365E-17, 1.000000000000000000, -0.000000000000000000 ) ) ;
#89 = ORIENTED_EDGE ( 'NONE', *, *, #327, .F. ) ;
#90 = MANIFOLD_SOLID_BREP ( 'Revolve - Tool Body (Straight Shanked)', #132 ) ;
#91 = ORIENTED_EDGE ( 'NONE', *, *, #372, .T. ) ;
#92 = UNCERTAINTY_MEASURE_WITH_UNIT (LENGTH_MEASURE( 1.000000000000000082E-05 ), #181, 'distance_accuracy_value', 'NONE');
#93 = LENGTH_MEASURE_WITH_UNIT ( LENGTH_MEASURE( 0.02539999999999999897 ), #71 );
#94 = MECHANICAL_DESIGN_GEOMETRIC_PRESENTATION_REPRESENTATION (  '', ( #212 ), #303 ) ;
#95 = DIRECTION ( 'NONE',  ( 8.635235986598284365E-17, -1.000000000000000000, 0.000000000000000000 ) ) ;
#96 = DIRECTION ( 'NONE',  ( 1.000000000000000000, 0.000000000000000000, 0.000000000000000000 ) ) ;
#97 = AXIS2_PLACEMENT_3D ( 'NONE', #248, #88, #271 ) ;
#98 = CARTESIAN_POINT ( 'NONE',  ( 0.000000000000000000, 0.1250000000000001110, -0.1250000000000000278 ) ) ;
#99 = UNCERTAINTY_MEASURE_WITH_UNIT (LENGTH_MEASURE( 1.000000000000000082E-05 ), #144, 'distance_accuracy_value', 'NONE');
#100 = CARTESIAN_POINT ( 'NONE',  ( -0.1249999999999994033, 3.000000000000000444, 0.000000000000000000 ) ) ;
#101 = FACE_OUTER_BOUND ( 'NONE', #125, .T. ) ;
#102 = UNCERTAINTY_MEASURE_WITH_UNIT (LENGTH_MEASURE( 1.000000000000000082E-05 ), #15, 'distance_accuracy_value', 'NONE');
#103 = AXIS2_PLACEMENT_3D ( 'NONE', #73, #184, #361 ) ;
#104 = CARTESIAN_POINT ( 'NONE',  ( 1.530808498934190893E-17, 0.000000000000000000, 0.1249999999999999306 ) ) ;
#105 = DIRECTION ( 'NONE',  ( 0.000000000000000000, 0.000000000000000000, 1.000000000000000000 ) ) ;
#106 = EDGE_CURVE ( 'NONE', #35, #351, #197, .T. ) ;
#107 = LENGTH_MEASURE_WITH_UNIT ( LENGTH_MEASURE( 0.02539999999999999897 ), #365 );
#108 = EDGE_CURVE ( 'NONE', #84, #357, #237, .T. ) ;
#109 = CIRCLE ( 'NONE', #198, 0.1249999999999998335 ) ;
#110 =( NAMED_UNIT ( * ) SI_UNIT ( $, .STERADIAN. ) SOLID_ANGLE_UNIT ( ) );
#111 = UNCERTAINTY_MEASURE_WITH_UNIT (LENGTH_MEASURE( 1.000000000000000082E-05 ), #219, 'distance_accuracy_value', 'NONE');
#112 = AXIS2_PLACEMENT_3D ( 'NONE', #146, #299, #155 ) ;
#113 =( NAMED_UNIT ( * ) PLANE_ANGLE_UNIT ( ) SI_UNIT ( $, .RADIAN. ) );
#114 =( GEOMETRIC_REPRESENTATION_CONTEXT ( 3 ) GLOBAL_UNCERTAINTY_ASSIGNED_CONTEXT ( ( #277 ) ) GLOBAL_UNIT_ASSIGNED_CONTEXT ( ( #80, #225, #368 ) ) REPRESENTATION_CONTEXT ( 'NONE', 'WORKASPACE' ) );
#115 = ORIENTED_EDGE ( 'NONE', *, *, #245, .F. ) ;
#116 = EDGE_CURVE ( 'NONE', #296, #35, #339, .T. ) ;
#117 = DIRECTION ( 'NONE',  ( 0.000000000000000000, -0.000000000000000000, 1.000000000000000000 ) ) ;
#118 = DIRECTION ( 'NONE',  ( 1.000000000000000000, 0.000000000000000000, 0.000000000000000000 ) ) ;
#119 = CARTESIAN_POINT ( 'NONE',  ( 0.000000000000000000, 0.000000000000000000, 0.000000000000000000 ) ) ;
#120 = DIRECTION ( 'NONE',  ( -8.635235986598284365E-17, 1.000000000000000000, -0.000000000000000000 ) ) ;
#121 = ORIENTED_EDGE ( 'NONE', *, *, #106, .F. ) ;
#122 = DIRECTION ( 'NONE',  ( -1.000000000000000000, 0.000000000000000000, 0.000000000000000000 ) ) ;
#123 = PRESENTATION_STYLE_ASSIGNMENT (( #151 ) ) ;
#124 = SURFACE_STYLE_FILL_AREA ( #343 ) ;
#125 = EDGE_LOOP ( 'NONE', ( #129, #54, #150, #290, #7 ) ) ;
#126 = SURFACE_SIDE_STYLE ('',( #322 ) ) ;
#127 = SURFACE_SIDE_STYLE ('',( #278 ) ) ;
#128 = FILL_AREA_STYLE_COLOUR ( '', #8 ) ;
#129 = ORIENTED_EDGE ( 'NONE', *, *, #19, .F. ) ;
#130 = SURFACE_STYLE_USAGE ( .BOTH. , #127 ) ;
#131 = DIRECTION ( 'NONE',  ( -8.635235986598284365E-17, 1.000000000000000000, -0.000000000000000000 ) ) ;
#132 = CLOSED_SHELL ( 'NONE', ( #249, #60, #214, #192 ) ) ;
#133 = FACE_OUTER_BOUND ( 'NONE', #288, .T. ) ;
#134 = LINE ( 'NONE', #100, #308 ) ;
#135 = EDGE_CURVE ( 'NONE', #353, #296, #275, .T. ) ;
#136 = DIRECTION ( 'NONE',  ( -0.000000000000000000, -1.000000000000000000, -0.000000000000000000 ) ) ;
#137 = MECHANICAL_DESIGN_GEOMETRIC_PRESENTATION_REPRESENTATION (  '', ( #45 ), #302 ) ;
#138 = CIRCLE ( 'NONE', #9, 0.1249999999999996392 ) ;
#139 = EDGE_CURVE ( 'NONE', #209, #296, #272, .T. ) ;
#140 = PRESENTATION_STYLE_ASSIGNMENT (( #195 ) ) ;
#141 = CARTESIAN_POINT ( 'NONE',  ( 0.000000000000000000, 1.500000000000000222, -0.1249999999999998335 ) ) ;
#142 = COLOUR_RGB ( '',1.000000000000000000, 0.000000000000000000, 0.000000000000000000 ) ;
#143 = CIRCLE ( 'NONE', #33, 0.1249999999999995004 ) ;
#144 =( CONVERSION_BASED_UNIT ( 'INCH', #25 ) LENGTH_UNIT ( ) NAMED_UNIT ( #199 ) );
#145 = CARTESIAN_POINT ( 'NONE',  ( 0.000000000000000000, 1.500000000000000222, 0.000000000000000000 ) ) ;
#146 = CARTESIAN_POINT ( 'NONE',  ( 0.000000000000000000, 0.000000000000000000, 0.000000000000000000 ) ) ;
#147 = MECHANICAL_DESIGN_GEOMETRIC_PRESENTATION_REPRESENTATION (  '', ( #83 ), #62 ) ;
#148 = EDGE_LOOP ( 'NONE', ( #321, #85, #79, #300 ) ) ;
#149 =( NAMED_UNIT ( * ) SI_UNIT ( $, .STERADIAN. ) SOLID_ANGLE_UNIT ( ) );
#150 = ORIENTED_EDGE ( 'NONE', *, *, #135, .T. ) ;
#151 = SURFACE_STYLE_USAGE ( .BOTH. , #215 ) ;
#152 = ORIENTED_EDGE ( 'NONE', *, *, #19, .T. ) ;
#153 = FILL_AREA_STYLE ('',( #190 ) ) ;
#154 = SURFACE_STYLE_FILL_AREA ( #348 ) ;
#155 = DIRECTION ( 'NONE',  ( 0.000000000000000000, 0.000000000000000000, -1.000000000000000000 ) ) ;
#156 = CARTESIAN_POINT ( 'NONE',  ( -1.530808498934191509E-17, 0.1250000000000000278, 0.000000000000000000 ) ) ;
#157 = DIRECTION ( 'NONE',  ( -0.000000000000000000, -1.000000000000000000, -0.000000000000000000 ) ) ;
#158 =( LENGTH_UNIT ( ) NAMED_UNIT ( * ) SI_UNIT ( $, .METRE. ) );
#159 = EDGE_CURVE ( 'NONE', #208, #353, #1, .T. ) ;
#160 = PRESENTATION_STYLE_ASSIGNMENT (( #282 ) ) ;
#161 =( NAMED_UNIT ( * ) SI_UNIT ( $, .STERADIAN. ) SOLID_ANGLE_UNIT ( ) );
#162 = DIRECTION ( 'NONE',  ( 0.000000000000000000, 0.000000000000000000, -1.000000000000000000 ) ) ;
#163 = CIRCLE ( 'NONE', #203, 0.1250000000000000278 ) ;
#164 = DIRECTION ( 'NONE',  ( 1.224646799147353207E-16, -0.000000000000000000, 1.000000000000000000 ) ) ;
#165 = LENGTH_MEASURE_WITH_UNIT ( LENGTH_MEASURE( 0.02539999999999999897 ), #158 );
#166 = SURFACE_STYLE_FILL_AREA ( #222 ) ;
#167 = STYLED_ITEM ( 'NONE', ( #239 ), #200 ) ;
#168 = PRESENTATION_LAYER_ASSIGNMENT (  '', '', ( #312 ) ) ;
#169 = CARTESIAN_POINT ( 'NONE',  ( 0.000000000000000000, 0.1250000000000001110, 0.000000000000000000 ) ) ;
#170 = ORIENTED_EDGE ( 'NONE', *, *, #108, .T. ) ;
#171 = DIRECTION ( 'NONE',  ( 0.000000000000000000, 0.000000000000000000, -1.000000000000000000 ) ) ;
#172 = PRESENTATION_LAYER_ASSIGNMENT (  '', '', ( #186 ) ) ;
#173 = ORIENTED_EDGE ( 'NONE', *, *, #287, .T. ) ;
#174 =( NAMED_UNIT ( * ) SI_UNIT ( $, .STERADIAN. ) SOLID_ANGLE_UNIT ( ) );
#175 =( LENGTH_UNIT ( ) NAMED_UNIT ( * ) SI_UNIT ( $, .METRE. ) );
#176 = EDGE_LOOP ( 'NONE', ( #231, #152, #121, #274, #201 ) ) ;
#177 = APPLICATION_CONTEXT ( 'automotive_design' ) ;
#178 = AXIS2_PLACEMENT_3D ( 'NONE', #205, #87, #118 ) ;
#179 = DIRECTION ( 'NONE',  ( 0.000000000000000000, 0.000000000000000000, -1.000000000000000000 ) ) ;
#180 = FACE_OUTER_BOUND ( 'NONE', #341, .T. ) ;
#181 =( CONVERSION_BASED_UNIT ( 'INCH', #264 ) LENGTH_UNIT ( ) NAMED_UNIT ( #314 ) );
#182 = CIRCLE ( 'NONE', #193, 0.1249999999999995004 ) ;
#183 = PRODUCT_DEFINITION_SHAPE ( 'NONE', 'NONE',  #36 ) ;
#184 = DIRECTION ( 'NONE',  ( 0.000000000000000000, 0.000000000000000000, -1.000000000000000000 ) ) ;
#185 = MECHANICAL_DESIGN_GEOMETRIC_PRESENTATION_REPRESENTATION (  '', ( #312 ), #2 ) ;
#186 = STYLED_ITEM ( 'NONE', ( #140 ), #371 ) ;
#187 =( NAMED_UNIT ( * ) PLANE_ANGLE_UNIT ( ) SI_UNIT ( $, .RADIAN. ) );
#188 = PRODUCT_DEFINITION_CONTEXT ( 'detailed design', #48, 'design' ) ;
#189 = EDGE_CURVE ( 'NONE', #84, #352, #182, .T. ) ;
#190 = FILL_AREA_STYLE_COLOUR ( '', #326 ) ;
#191 = CARTESIAN_POINT ( 'NONE',  ( -1.530808498934191509E-17, 0.1250000000000000278, 0.000000000000000000 ) ) ;
#192 = ADVANCED_FACE ( 'NONE', ( #306 ), #266, .F. ) ;
#193 = AXIS2_PLACEMENT_3D ( 'NONE', #320, #324, #122 ) ;
#194 = MECHANICAL_DESIGN_GEOMETRIC_PRESENTATION_REPRESENTATION (  '', ( #167 ), #50 ) ;
#195 = SURFACE_STYLE_USAGE ( .BOTH. , #227 ) ;
#196 =( CONVERSION_BASED_UNIT ( 'INCH', #107 ) LENGTH_UNIT ( ) NAMED_UNIT ( #18 ) );
#197 = CIRCLE ( 'NONE', #246, 0.1250000000000000278 ) ;
#198 = AXIS2_PLACEMENT_3D ( 'NONE', #72, #251, #162 ) ;
#199 = DIMENSIONAL_EXPONENTS ( 1.000000000000000000, 0.000000000000000000, 0.000000000000000000, 0.000000000000000000, 0.000000000000000000, 0.000000000000000000, 0.000000000000000000 ) ;
#200 = ADVANCED_FACE ( 'NONE', ( #69 ), #268, .T. ) ;
#201 = ORIENTED_EDGE ( 'NONE', *, *, #135, .F. ) ;
#202 = DIMENSIONAL_EXPONENTS ( 1.000000000000000000, 0.000000000000000000, 0.000000000000000000, 0.000000000000000000, 0.000000000000000000, 0.000000000000000000, 0.000000000000000000 ) ;
#203 = AXIS2_PLACEMENT_3D ( 'NONE', #156, #164, #310 ) ;
#204 = EDGE_LOOP ( 'NONE', ( #318, #82, #342, #115 ) ) ;
#205 = CARTESIAN_POINT ( 'NONE',  ( 0.000000000000000000, 0.000000000000000000, 0.000000000000000000 ) ) ;
#206 = DIRECTION ( 'NONE',  ( 0.000000000000000000, 0.000000000000000000, -1.000000000000000000 ) ) ;
#207 = CARTESIAN_POINT ( 'NONE',  ( 1.836970198721029688E-16, 3.000000000000000444, 0.000000000000000000 ) ) ;
#208 = VERTEX_POINT ( 'NONE', #289 ) ;
#209 = VERTEX_POINT ( 'NONE', #211 ) ;
#210 = DIRECTION ( 'NONE',  ( -0.000000000000000000, -1.000000000000000000, -0.000000000000000000 ) ) ;
#211 = CARTESIAN_POINT ( 'NONE',  ( -0.1250000000000000278, 0.1250000000000001110, 1.530808498934191817E-17 ) ) ;
#212 = STYLED_ITEM ( 'NONE', ( #160 ), #67 ) ;
#213 = MECHANICAL_DESIGN_GEOMETRIC_PRESENTATION_REPRESENTATION (  '', ( #47 ), #304 ) ;
#214 = ADVANCED_FACE ( 'NONE', ( #235 ), #355, .T. ) ;
#215 = SURFACE_SIDE_STYLE ('',( #57 ) ) ;
#216 = CARTESIAN_POINT ( 'NONE',  ( 0.000000000000000000, 1.500000000000000222, 0.000000000000000000 ) ) ;
#217 =( NAMED_UNIT ( * ) PLANE_ANGLE_UNIT ( ) SI_UNIT ( $, .RADIAN. ) );
#218 = SPHERICAL_SURFACE ( 'NONE', #334, 0.1250000000000000278 ) ;
#219 =( CONVERSION_BASED_UNIT ( 'INCH', #359 ) LENGTH_UNIT ( ) NAMED_UNIT ( #284 ) );
#220 = DIRECTION ( 'NONE',  ( -1.000000000000000000, 0.000000000000000000, 0.000000000000000000 ) ) ;
#221 = LINE ( 'NONE', #104, #333 ) ;
#222 = FILL_AREA_STYLE ('',( #330 ) ) ;
#223 = FACE_OUTER_BOUND ( 'NONE', #148, .T. ) ;
#224 = CYLINDRICAL_SURFACE ( 'NONE', #112, 0.1249999999999999306 ) ;
#225 =( NAMED_UNIT ( * ) PLANE_ANGLE_UNIT ( ) SI_UNIT ( $, .RADIAN. ) );
#226 = ORIENTED_EDGE ( 'NONE', *, *, #13, .T. ) ;
#227 = SURFACE_SIDE_STYLE ('',( #337 ) ) ;
#228 = CIRCLE ( 'NONE', #103, 0.1250000000000000278 ) ;
#229 = PRODUCT_DEFINITION_FORMATION_WITH_SPECIFIED_SOURCE ( 'ANY', '', #253, .NOT_KNOWN. ) ;
#230 =( LENGTH_UNIT ( ) NAMED_UNIT ( * ) SI_UNIT ( $, .METRE. ) );
#231 = ORIENTED_EDGE ( 'NONE', *, *, #298, .T. ) ;
#232 = SURFACE_STYLE_USAGE ( .BOTH. , #270 ) ;
#233 = ORIENTED_EDGE ( 'NONE', *, *, #309, .T. ) ;
#234 = COLOUR_RGB ( '',1.000000000000000000, 0.000000000000000000, 0.000000000000000000 ) ;
#235 = FACE_OUTER_BOUND ( 'NONE', #204, .T. ) ;
#236 =( LENGTH_UNIT ( ) NAMED_UNIT ( * ) SI_UNIT ( $, .METRE. ) );
#237 = LINE ( 'NONE', #319, #354 ) ;
#238 = APPLICATION_PROTOCOL_DEFINITION ( 'draft international standard', 'automotive_design', 1998, #177 ) ;
#239 = PRESENTATION_STYLE_ASSIGNMENT (( #356 ) ) ;
#240 = ADVANCED_FACE ( 'NONE', ( #37 ), #26, .T. ) ;
#241 = FILL_AREA_STYLE ('',( #10 ) ) ;
#242 = CARTESIAN_POINT ( 'NONE',  ( 0.000000000000000000, 0.1250000000000001110, 0.000000000000000000 ) ) ;
#243 = ORIENTED_EDGE ( 'NONE', *, *, #106, .T. ) ;
#244 = DIRECTION ( 'NONE',  ( 1.000000000000000000, 8.635235986598284365E-17, 0.000000000000000000 ) ) ;
#245 = EDGE_CURVE ( 'NONE', #357, #262, #283, .T. ) ;
#246 = AXIS2_PLACEMENT_3D ( 'NONE', #3, #11, #265 ) ;
#247 = LENGTH_MEASURE_WITH_UNIT ( LENGTH_MEASURE( 0.02539999999999999897 ), #175 );
#248 = CARTESIAN_POINT ( 'NONE',  ( 1.836970198721029688E-16, 3.000000000000000444, 0.000000000000000000 ) ) ;
#249 = ADVANCED_FACE ( 'NONE', ( #133 ), #66, .T. ) ;
#250 = DIRECTION ( 'NONE',  ( -8.635235986598284365E-17, 1.000000000000000000, -0.000000000000000000 ) ) ;
#251 = DIRECTION ( 'NONE',  ( -0.000000000000000000, -1.000000000000000000, -0.000000000000000000 ) ) ;
#252 = FILL_AREA_STYLE_COLOUR ( '', #256 ) ;
#253 = PRODUCT ( '86024', '86024', '', ( #316 ) ) ;
#254 = PLANE ( 'NONE',  #49 ) ;
#255 = PRESENTATION_LAYER_ASSIGNMENT (  '', '', ( #45 ) ) ;
#256 = COLOUR_RGB ( '',0.7921568627450980005, 0.8196078431372548767, 0.9333333333333333481 ) ;
#257 = ADVANCED_FACE ( 'NONE', ( #180 ), #218, .T. ) ;
#258 = LENGTH_MEASURE_WITH_UNIT ( LENGTH_MEASURE( 0.02539999999999999897 ), #230 );
#259 = FILL_AREA_STYLE_COLOUR ( '', #234 ) ;
#260 =( NAMED_UNIT ( * ) SI_UNIT ( $, .STERADIAN. ) SOLID_ANGLE_UNIT ( ) );
#261 = DIMENSIONAL_EXPONENTS ( 1.000000000000000000, 0.000000000000000000, 0.000000000000000000, 0.000000000000000000, 0.000000000000000000, 0.000000000000000000, 0.000000000000000000 ) ;
#262 = VERTEX_POINT ( 'NONE', #297 ) ;
#263 = DIRECTION ( 'NONE',  ( 0.000000000000000000, 1.000000000000000000, 0.000000000000000000 ) ) ;
#264 = LENGTH_MEASURE_WITH_UNIT ( LENGTH_MEASURE( 0.02539999999999999897 ), #236 );
#265 = DIRECTION ( 'NONE',  ( 0.000000000000000000, 0.000000000000000000, -1.000000000000000000 ) ) ;
#266 = PLANE ( 'NONE',  #22 ) ;
#267 = ORIENTED_EDGE ( 'NONE', *, *, #189, .F. ) ;
#268 = CYLINDRICAL_SURFACE ( 'NONE', #360, 0.1249999999999999306 ) ;
#269 = ORIENTED_EDGE ( 'NONE', *, *, #287, .F. ) ;
#270 = SURFACE_SIDE_STYLE ('',( #154 ) ) ;
#271 = DIRECTION ( 'NONE',  ( -1.000000000000000000, 0.000000000000000000, 0.000000000000000000 ) ) ;
#272 = CIRCLE ( 'NONE', #345, 0.1250000000000000278 ) ;
#273 = AXIS2_PLACEMENT_3D ( 'NONE', #21, #105, #16 ) ;
#274 = ORIENTED_EDGE ( 'NONE', *, *, #116, .F. ) ;
#275 = LINE ( 'NONE', #301, #75 ) ;
#276 =( LENGTH_UNIT ( ) NAMED_UNIT ( * ) SI_UNIT ( $, .METRE. ) );
#277 = UNCERTAINTY_MEASURE_WITH_UNIT (LENGTH_MEASURE( 1.000000000000000082E-05 ), #80, 'distance_accuracy_value', 'NONE');
#278 = SURFACE_STYLE_FILL_AREA ( #44 ) ;
#279 = DIRECTION ( 'NONE',  ( -1.000000000000000000, 0.000000000000000000, 0.000000000000000000 ) ) ;
#280 = FACE_OUTER_BOUND ( 'NONE', #64, .T. ) ;
#281 =( CONVERSION_BASED_UNIT ( 'INCH', #165 ) LENGTH_UNIT ( ) NAMED_UNIT ( #373 ) );
#282 = SURFACE_STYLE_USAGE ( .BOTH. , #336 ) ;
#283 = CIRCLE ( 'NONE', #23, 0.1249999999999996392 ) ;
#284 = DIMENSIONAL_EXPONENTS ( 1.000000000000000000, 0.000000000000000000, 0.000000000000000000, 0.000000000000000000, 0.000000000000000000, 0.000000000000000000, 0.000000000000000000 ) ;
#285 = PRESENTATION_LAYER_ASSIGNMENT (  '', '', ( #167 ) ) ;
#286 = AXIS2_PLACEMENT_3D ( 'NONE', #46, #68, #6 ) ;
#287 = EDGE_CURVE ( 'NONE', #262, #357, #138, .T. ) ;
#288 = EDGE_LOOP ( 'NONE', ( #233, #170, #269, #89 ) ) ;
#289 = CARTESIAN_POINT ( 'NONE',  ( 1.530808498934189968E-17, 1.500000000000000222, 0.1249999999999998335 ) ) ;
#290 = ORIENTED_EDGE ( 'NONE', *, *, #139, .F. ) ;
#291 = AXIS2_PLACEMENT_3D ( 'NONE', #216, #157, #323 ) ;
#292 = CIRCLE ( 'NONE', #315, 0.1250000000000000278 ) ;
#293 =( NAMED_UNIT ( * ) PLANE_ANGLE_UNIT ( ) SI_UNIT ( $, .RADIAN. ) );
#294 = CARTESIAN_POINT ( 'NONE',  ( 0.1249999999999998335, 3.000000000000000444, 0.000000000000000000 ) ) ;
#295 = SURFACE_STYLE_USAGE ( .BOTH. , #34 ) ;
#296 = VERTEX_POINT ( 'NONE', #98 ) ;
#297 = CARTESIAN_POINT ( 'NONE',  ( -0.1249999999999994588, 3.000000000000000444, 0.000000000000000000 ) ) ;
#298 = EDGE_CURVE ( 'NONE', #353, #208, #109, .T. ) ;
#299 = DIRECTION ( 'NONE',  ( -0.000000000000000000, -1.000000000000000000, -0.000000000000000000 ) ) ;
#300 = ORIENTED_EDGE ( 'NONE', *, *, #52, .T. ) ;
#301 = CARTESIAN_POINT ( 'NONE',  ( 0.000000000000000000, 0.000000000000000000, -0.1249999999999999306 ) ) ;
#302 =( GEOMETRIC_REPRESENTATION_CONTEXT ( 3 ) GLOBAL_UNCERTAINTY_ASSIGNED_CONTEXT ( ( #70 ) ) GLOBAL_UNIT_ASSIGNED_CONTEXT ( ( #29, #113, #4 ) ) REPRESENTATION_CONTEXT ( 'NONE', 'WORKASPACE' ) );
#303 =( GEOMETRIC_REPRESENTATION_CONTEXT ( 3 ) GLOBAL_UNCERTAINTY_ASSIGNED_CONTEXT ( ( #102 ) ) GLOBAL_UNIT_ASSIGNED_CONTEXT ( ( #15, #328, #110 ) ) REPRESENTATION_CONTEXT ( 'NONE', 'WORKASPACE' ) );
#304 =( GEOMETRIC_REPRESENTATION_CONTEXT ( 3 ) GLOBAL_UNCERTAINTY_ASSIGNED_CONTEXT ( ( #349 ) ) GLOBAL_UNIT_ASSIGNED_CONTEXT ( ( #281, #187, #161 ) ) REPRESENTATION_CONTEXT ( 'NONE', 'WORKASPACE' ) );
#305 = DIRECTION ( 'NONE',  ( -1.000000000000000000, -8.635235986598284365E-17, 0.000000000000000000 ) ) ;
#306 = FACE_OUTER_BOUND ( 'NONE', #61, .T. ) ;
#307 = CARTESIAN_POINT ( 'NONE',  ( 3.132255596710772219E-16, 1.500000000000000222, 0.000000000000000000 ) ) ;
#308 = VECTOR ( 'NONE', #131, 39.37007874015748143 ) ;
#309 = EDGE_CURVE ( 'NONE', #352, #84, #143, .T. ) ;
#310 = DIRECTION ( 'NONE',  ( 1.000000000000000000, 0.000000000000000000, -1.224646799147353207E-16 ) ) ;
#311 =( NAMED_UNIT ( * ) PLANE_ANGLE_UNIT ( ) SI_UNIT ( $, .RADIAN. ) );
#312 = STYLED_ITEM ( 'NONE', ( #123 ), #240 ) ;
#313 = CARTESIAN_POINT ( 'NONE',  ( -0.1249999999999991951, 1.500000000000000222, 0.000000000000000000 ) ) ;
#314 = DIMENSIONAL_EXPONENTS ( 1.000000000000000000, 0.000000000000000000, 0.000000000000000000, 0.000000000000000000, 0.000000000000000000, 0.000000000000000000, 0.000000000000000000 ) ;
#315 = AXIS2_PLACEMENT_3D ( 'NONE', #169, #136, #171 ) ;
#316 = PRODUCT_CONTEXT ( 'NONE', #177, 'mechanical' ) ;
#317 = PRESENTATION_STYLE_ASSIGNMENT (( #232 ) ) ;
#318 = ORIENTED_EDGE ( 'NONE', *, *, #108, .F. ) ;
#319 = CARTESIAN_POINT ( 'NONE',  ( 0.1249999999999997780, 3.000000000000000444, 1.530808498934186270E-17 ) ) ;
#320 = CARTESIAN_POINT ( 'NONE',  ( 3.132255596710772219E-16, 1.500000000000000222, 0.000000000000000000 ) ) ;
#321 = ORIENTED_EDGE ( 'NONE', *, *, #13, .F. ) ;
#322 = SURFACE_STYLE_FILL_AREA ( #153 ) ;
#323 = DIRECTION ( 'NONE',  ( 0.000000000000000000, 0.000000000000000000, -1.000000000000000000 ) ) ;
#324 = DIRECTION ( 'NONE',  ( -8.635235986598284365E-17, 1.000000000000000000, -0.000000000000000000 ) ) ;
#325 = DIRECTION ( 'NONE',  ( -8.635235986598284365E-17, 1.000000000000000000, -0.000000000000000000 ) ) ;
#326 = COLOUR_RGB ( '',1.000000000000000000, 0.000000000000000000, 0.000000000000000000 ) ;
#327 = EDGE_CURVE ( 'NONE', #352, #262, #134, .T. ) ;
#328 =( NAMED_UNIT ( * ) PLANE_ANGLE_UNIT ( ) SI_UNIT ( $, .RADIAN. ) );
#329 = DIRECTION ( 'NONE',  ( 0.000000000000000000, 0.000000000000000000, -1.000000000000000000 ) ) ;
#330 = FILL_AREA_STYLE_COLOUR ( '', #142 ) ;
#331 = UNCERTAINTY_MEASURE_WITH_UNIT (LENGTH_MEASURE( 1.000000000000000082E-05 ), #196, 'distance_accuracy_value', 'NONE');
#332 = DIRECTION ( 'NONE',  ( -1.000000000000000000, 0.000000000000000000, 0.000000000000000000 ) ) ;
#333 = VECTOR ( 'NONE', #366, 39.37007874015748143 ) ;
#334 = AXIS2_PLACEMENT_3D ( 'NONE', #191, #14, #96 ) ;
#335 = MANIFOLD_SOLID_BREP ( 'Revolve - Cutting Edge', #30 ) ;
#336 = SURFACE_SIDE_STYLE ('',( #166 ) ) ;
#337 = SURFACE_STYLE_FILL_AREA ( #370 ) ;
#338 = DIMENSIONAL_EXPONENTS ( 1.000000000000000000, 0.000000000000000000, 0.000000000000000000, 0.000000000000000000, 0.000000000000000000, 0.000000000000000000, 0.000000000000000000 ) ;
#339 = CIRCLE ( 'NONE', #32, 0.1250000000000000278 ) ;
#340 = ORIENTED_EDGE ( 'NONE', *, *, #159, .F. ) ;
#341 = EDGE_LOOP ( 'NONE', ( #91, #226, #81, #243 ) ) ;
#342 = ORIENTED_EDGE ( 'NONE', *, *, #327, .T. ) ;
#343 = FILL_AREA_STYLE ('',( #128 ) ) ;
#344 = ORIENTED_EDGE ( 'NONE', *, *, #298, .F. ) ;
#345 = AXIS2_PLACEMENT_3D ( 'NONE', #65, #38, #329 ) ;
#346 = COLOUR_RGB ( '',1.000000000000000000, 0.000000000000000000, 0.000000000000000000 ) ;
#347 = MECHANICAL_DESIGN_GEOMETRIC_PRESENTATION_REPRESENTATION (  '', ( #186 ), #17 ) ;
#348 = FILL_AREA_STYLE ('',( #39 ) ) ;
#349 = UNCERTAINTY_MEASURE_WITH_UNIT (LENGTH_MEASURE( 1.000000000000000082E-05 ), #281, 'distance_accuracy_value', 'NONE');
#350 = CARTESIAN_POINT ( 'NONE',  ( 0.1249999999999998335, 1.500000000000000222, 1.530808498934186887E-17 ) ) ;
#351 = VERTEX_POINT ( 'NONE', #74 ) ;
#352 = VERTEX_POINT ( 'NONE', #313 ) ;
#353 = VERTEX_POINT ( 'NONE', #141 ) ;
#354 = VECTOR ( 'NONE', #120, 39.37007874015748143 ) ;
#355 = CYLINDRICAL_SURFACE ( 'NONE', #97, 0.1249999999999995837 ) ;
#356 = SURFACE_STYLE_USAGE ( .BOTH. , #126 ) ;
#357 = VERTEX_POINT ( 'NONE', #53 ) ;
#358 = CARTESIAN_POINT ( 'NONE',  ( 3.132255596710772219E-16, 1.500000000000000222, 0.000000000000000000 ) ) ;
#359 = LENGTH_MEASURE_WITH_UNIT ( LENGTH_MEASURE( 0.02539999999999999897 ), #276 );
#360 = AXIS2_PLACEMENT_3D ( 'NONE', #119, #63, #179 ) ;
#361 = DIRECTION ( 'NONE',  ( -1.000000000000000000, 0.000000000000000000, 0.000000000000000000 ) ) ;
#362 = PRESENTATION_STYLE_ASSIGNMENT (( #130 ) ) ;
#363 =( NAMED_UNIT ( * ) SI_UNIT ( $, .STERADIAN. ) SOLID_ANGLE_UNIT ( ) );
#364 = DIRECTION ( 'NONE',  ( -8.635235986598284365E-17, 1.000000000000000000, 0.000000000000000000 ) ) ;
#365 =( LENGTH_UNIT ( ) NAMED_UNIT ( * ) SI_UNIT ( $, .METRE. ) );
#366 = DIRECTION ( 'NONE',  ( -0.000000000000000000, -1.000000000000000000, -0.000000000000000000 ) ) ;
#367 = AXIS2_PLACEMENT_3D ( 'NONE', #145, #263, #117 ) ;
#368 =( NAMED_UNIT ( * ) SI_UNIT ( $, .STERADIAN. ) SOLID_ANGLE_UNIT ( ) );
#369 = DIRECTION ( 'NONE',  ( -0.000000000000000000, -1.000000000000000000, -0.000000000000000000 ) ) ;
#370 = FILL_AREA_STYLE ('',( #259 ) ) ;
#371 = ADVANCED_FACE ( 'NONE', ( #223 ), #51, .T. ) ;
#372 = EDGE_CURVE ( 'NONE', #351, #209, #292, .T. ) ;
#373 = DIMENSIONAL_EXPONENTS ( 1.000000000000000000, 0.000000000000000000, 0.000000000000000000, 0.000000000000000000, 0.000000000000000000, 0.000000000000000000, 0.000000000000000000 ) ;
ENDSEC;
END-ISO-10303-21;
