ISO-10303-21;
HEADER;
FILE_DESCRIPTION (( 'STEP AP214' ),
    '1' );
FILE_NAME ('30542W.STEP',
    '2023-06-22T18:39:53',
    ( '' ),
    ( '' ),
    'SwSTEP 2.0',
    'SolidWorks 2023',
    '' );
FILE_SCHEMA (( 'AUTOMOTIVE_DESIGN' ));
ENDSEC;

DATA;
#1 = VECTOR ( 'NONE', #150, 39.37007874015748143 ) ;
#2 =( LENGTH_UNIT ( ) NAMED_UNIT ( * ) SI_UNIT ( $, .METRE. ) );
#3 = COLOUR_RGB ( '',1.000000000000000000, 0.000000000000000000, 0.000000000000000000 ) ;
#4 = PRESENTATION_STYLE_ASSIGNMENT (( #234 ) ) ;
#5 = DIRECTION ( 'NONE',  ( -1.000000000000000000, 0.000000000000000000, 0.000000000000000000 ) ) ;
#6 = CARTESIAN_POINT ( 'NONE',  ( 0.000000000000000000, 0.000000000000000000, -0.2500000000000000000 ) ) ;
#7 = STYLED_ITEM ( 'NONE', ( #23 ), #81 ) ;
#8 =( NAMED_UNIT ( * ) PLANE_ANGLE_UNIT ( ) SI_UNIT ( $, .RADIAN. ) );
#9 = FILL_AREA_STYLE ('',( #116 ) ) ;
#10 = CARTESIAN_POINT ( 'NONE',  ( 0.000000000000000000, 1.625000000000000000, -0.2500000000000000000 ) ) ;
#11 = STYLED_ITEM ( 'NONE', ( #144 ), #22 ) ;
#12 = CARTESIAN_POINT ( 'NONE',  ( 3.032960542342103792E-32, 1.625000000000000000, 0.000000000000000000 ) ) ;
#13 = VERTEX_POINT ( 'NONE', #69 ) ;
#14 =( NAMED_UNIT ( * ) PLANE_ANGLE_UNIT ( ) SI_UNIT ( $, .RADIAN. ) );
#15 = ORIENTED_EDGE ( 'NONE', *, *, #62, .T. ) ;
#16 = SURFACE_STYLE_FILL_AREA ( #206 ) ;
#17 = COLOUR_RGB ( '',1.000000000000000000, 0.000000000000000000, 0.000000000000000000 ) ;
#18 = EDGE_CURVE ( 'NONE', #214, #19, #309, .T. ) ;
#19 = VERTEX_POINT ( 'NONE', #186 ) ;
#20 = SURFACE_SIDE_STYLE ('',( #284 ) ) ;
#21 = DIMENSIONAL_EXPONENTS ( 1.000000000000000000, 0.000000000000000000, 0.000000000000000000, 0.000000000000000000, 0.000000000000000000, 0.000000000000000000, 0.000000000000000000 ) ;
#22 = ADVANCED_FACE ( 'NONE', ( #102 ), #170, .T. ) ;
#23 = PRESENTATION_STYLE_ASSIGNMENT (( #265 ) ) ;
#24 = CARTESIAN_POINT ( 'NONE',  ( -1.224646799147352714E-16, 4.000000000000000000, 0.000000000000000000 ) ) ;
#25 = ADVANCED_BREP_SHAPE_REPRESENTATION ( '30542W', ( #47, #52, #241 ), #291 ) ;
#26 = DIRECTION ( 'NONE',  ( -1.000000000000000000, -5.156407575357275916E-17, 0.000000000000000000 ) ) ;
#27 = AXIS2_PLACEMENT_3D ( 'NONE', #118, #46, #106 ) ;
#28 = PRODUCT_DEFINITION_SHAPE ( 'NONE', 'NONE',  #79 ) ;
#29 = SURFACE_STYLE_USAGE ( .BOTH. , #247 ) ;
#30 = FILL_AREA_STYLE_COLOUR ( '', #3 ) ;
#31 = VERTEX_POINT ( 'NONE', #165 ) ;
#32 = UNCERTAINTY_MEASURE_WITH_UNIT (LENGTH_MEASURE( 1.000000000000000082E-05 ), #198, 'distance_accuracy_value', 'NONE');
#33 = DIRECTION ( 'NONE',  ( 0.000000000000000000, 0.000000000000000000, -1.000000000000000000 ) ) ;
#34 = AXIS2_PLACEMENT_3D ( 'NONE', #213, #171, #5 ) ;
#35 = CARTESIAN_POINT ( 'NONE',  ( 0.000000000000000000, 0.000000000000000000, 0.000000000000000000 ) ) ;
#36 = CARTESIAN_POINT ( 'NONE',  ( -1.224646799147352714E-16, 4.000000000000000000, 0.000000000000000000 ) ) ;
#37 = SURFACE_STYLE_USAGE ( .BOTH. , #88 ) ;
#38 = PLANE ( 'NONE',  #83 ) ;
#39 =( NAMED_UNIT ( * ) SI_UNIT ( $, .STERADIAN. ) SOLID_ANGLE_UNIT ( ) );
#40 = EDGE_CURVE ( 'NONE', #31, #214, #95, .T. ) ;
#41 =( LENGTH_UNIT ( ) NAMED_UNIT ( * ) SI_UNIT ( $, .METRE. ) );
#42 = FACE_OUTER_BOUND ( 'NONE', #237, .T. ) ;
#43 =( LENGTH_UNIT ( ) NAMED_UNIT ( * ) SI_UNIT ( $, .METRE. ) );
#44 = AXIS2_PLACEMENT_3D ( 'NONE', #219, #180, #141 ) ;
#45 = AXIS2_PLACEMENT_3D ( 'NONE', #151, #239, #26 ) ;
#46 = DIRECTION ( 'NONE',  ( -5.156407575357275299E-17, 1.000000000000000000, -0.000000000000000000 ) ) ;
#47 = MANIFOLD_SOLID_BREP ( 'Revolve - Cutting Edge', #162 ) ;
#48 = PRESENTATION_STYLE_ASSIGNMENT (( #120 ) ) ;
#49 = CLOSED_SHELL ( 'NONE', ( #226, #245, #238, #152 ) ) ;
#50 = ORIENTED_EDGE ( 'NONE', *, *, #195, .T. ) ;
#51 = UNCERTAINTY_MEASURE_WITH_UNIT (LENGTH_MEASURE( 1.000000000000000082E-05 ), #72, 'distance_accuracy_value', 'NONE');
#52 = MANIFOLD_SOLID_BREP ( 'Revolve - Tool Body (Straight Shanked)', #49 ) ;
#53 = FACE_OUTER_BOUND ( 'NONE', #279, .T. ) ;
#54 = CIRCLE ( 'NONE', #218, 0.2500000000000001110 ) ;
#55 = STYLED_ITEM ( 'NONE', ( #286 ), #297 ) ;
#56 =( LENGTH_UNIT ( ) NAMED_UNIT ( * ) SI_UNIT ( $, .METRE. ) );
#57 = PRODUCT ( '30542W', '30542W', '', ( #173 ) ) ;
#58 = UNCERTAINTY_MEASURE_WITH_UNIT (LENGTH_MEASURE( 1.000000000000000082E-05 ), #204, 'distance_accuracy_value', 'NONE');
#59 = PLANE ( 'NONE',  #45 ) ;
#60 = ORIENTED_EDGE ( 'NONE', *, *, #185, .F. ) ;
#61 = ORIENTED_EDGE ( 'NONE', *, *, #308, .T. ) ;
#62 = EDGE_CURVE ( 'NONE', #31, #273, #235, .T. ) ;
#63 = DIRECTION ( 'NONE',  ( 1.000000000000000000, 0.000000000000000000, 0.000000000000000000 ) ) ;
#64 = DIRECTION ( 'NONE',  ( -0.000000000000000000, -1.000000000000000000, -0.000000000000000000 ) ) ;
#65 = CARTESIAN_POINT ( 'NONE',  ( 0.000000000000000000, 0.000000000000000000, -0.2500000000000000000 ) ) ;
#66 = SURFACE_SIDE_STYLE ('',( #227 ) ) ;
#67 = CARTESIAN_POINT ( 'NONE',  ( -0.2500000000000002776, 4.000000000000000000, 0.000000000000000000 ) ) ;
#68 = CARTESIAN_POINT ( 'NONE',  ( 0.000000000000000000, 0.000000000000000000, 0.000000000000000000 ) ) ;
#69 = CARTESIAN_POINT ( 'NONE',  ( 3.061616997868383018E-17, 1.625000000000000000, 0.2500000000000000000 ) ) ;
#70 = DIRECTION ( 'NONE',  ( -0.000000000000000000, -1.000000000000000000, -0.000000000000000000 ) ) ;
#71 =( GEOMETRIC_REPRESENTATION_CONTEXT ( 3 ) GLOBAL_UNCERTAINTY_ASSIGNED_CONTEXT ( ( #85 ) ) GLOBAL_UNIT_ASSIGNED_CONTEXT ( ( #232, #107, #96 ) ) REPRESENTATION_CONTEXT ( 'NONE', 'WORKASPACE' ) );
#72 =( CONVERSION_BASED_UNIT ( 'INCH', #303 ) LENGTH_UNIT ( ) NAMED_UNIT ( #126 ) );
#73 = SURFACE_SIDE_STYLE ('',( #169 ) ) ;
#74 = LENGTH_MEASURE_WITH_UNIT ( LENGTH_MEASURE( 0.02539999999999999897 ), #149 );
#75 =( CONVERSION_BASED_UNIT ( 'INCH', #288 ) LENGTH_UNIT ( ) NAMED_UNIT ( #282 ) );
#76 = CIRCLE ( 'NONE', #202, 0.2500000000000000000 ) ;
#77 = CIRCLE ( 'NONE', #252, 0.2500000000000001110 ) ;
#78 = ORIENTED_EDGE ( 'NONE', *, *, #40, .T. ) ;
#79 = PRODUCT_DEFINITION ( 'UNKNOWN', '', #129, #210 ) ;
#80 = CYLINDRICAL_SURFACE ( 'NONE', #34, 0.2500000000000000555 ) ;
#81 = ADVANCED_FACE ( 'NONE', ( #53 ), #242, .T. ) ;
#82 = ORIENTED_EDGE ( 'NONE', *, *, #255, .F. ) ;
#83 = AXIS2_PLACEMENT_3D ( 'NONE', #278, #136, #139 ) ;
#84 =( GEOMETRIC_REPRESENTATION_CONTEXT ( 3 ) GLOBAL_UNCERTAINTY_ASSIGNED_CONTEXT ( ( #287 ) ) GLOBAL_UNIT_ASSIGNED_CONTEXT ( ( #174, #8, #197 ) ) REPRESENTATION_CONTEXT ( 'NONE', 'WORKASPACE' ) );
#85 = UNCERTAINTY_MEASURE_WITH_UNIT (LENGTH_MEASURE( 1.000000000000000082E-05 ), #232, 'distance_accuracy_value', 'NONE');
#86 =( NAMED_UNIT ( * ) PLANE_ANGLE_UNIT ( ) SI_UNIT ( $, .RADIAN. ) );
#87 = APPLICATION_PROTOCOL_DEFINITION ( 'draft international standard', 'automotive_design', 1998, #264 ) ;
#88 = SURFACE_SIDE_STYLE ('',( #249 ) ) ;
#89 =( NAMED_UNIT ( * ) SI_UNIT ( $, .STERADIAN. ) SOLID_ANGLE_UNIT ( ) );
#90 = DIRECTION ( 'NONE',  ( -1.000000000000000000, 0.000000000000000000, 0.000000000000000000 ) ) ;
#91 = MECHANICAL_DESIGN_GEOMETRIC_PRESENTATION_REPRESENTATION (  '', ( #55 ), #84 ) ;
#92 = LINE ( 'NONE', #65, #146 ) ;
#93 = PLANE ( 'NONE',  #122 ) ;
#94 = VERTEX_POINT ( 'NONE', #254 ) ;
#95 = CIRCLE ( 'NONE', #236, 0.2500000000000000000 ) ;
#96 =( NAMED_UNIT ( * ) SI_UNIT ( $, .STERADIAN. ) SOLID_ANGLE_UNIT ( ) );
#97 =( NAMED_UNIT ( * ) SI_UNIT ( $, .STERADIAN. ) SOLID_ANGLE_UNIT ( ) );
#98 =( GEOMETRIC_REPRESENTATION_CONTEXT ( 3 ) GLOBAL_UNCERTAINTY_ASSIGNED_CONTEXT ( ( #32 ) ) GLOBAL_UNIT_ASSIGNED_CONTEXT ( ( #198, #178, #89 ) ) REPRESENTATION_CONTEXT ( 'NONE', 'WORKASPACE' ) );
#99 = CARTESIAN_POINT ( 'NONE',  ( 0.2499999999999999167, 4.000000000000000000, 3.061616997868383634E-17 ) ) ;
#100 = FILL_AREA_STYLE_COLOUR ( '', #128 ) ;
#101 = DIRECTION ( 'NONE',  ( -5.156407575357275916E-17, 1.000000000000000000, -0.000000000000000000 ) ) ;
#102 = FACE_OUTER_BOUND ( 'NONE', #244, .T. ) ;
#103 = ORIENTED_EDGE ( 'NONE', *, *, #183, .F. ) ;
#104 = VECTOR ( 'NONE', #117, 39.37007874015748143 ) ;
#105 = FACE_OUTER_BOUND ( 'NONE', #121, .T. ) ;
#106 = DIRECTION ( 'NONE',  ( -1.000000000000000000, 0.000000000000000000, 0.000000000000000000 ) ) ;
#107 =( NAMED_UNIT ( * ) PLANE_ANGLE_UNIT ( ) SI_UNIT ( $, .RADIAN. ) );
#108 = FACE_OUTER_BOUND ( 'NONE', #125, .T. ) ;
#109 = AXIS2_PLACEMENT_3D ( 'NONE', #68, #70, #199 ) ;
#110 = DIRECTION ( 'NONE',  ( -5.156407575357275299E-17, 1.000000000000000000, -0.000000000000000000 ) ) ;
#111 = ORIENTED_EDGE ( 'NONE', *, *, #195, .F. ) ;
#112 =( NAMED_UNIT ( * ) PLANE_ANGLE_UNIT ( ) SI_UNIT ( $, .RADIAN. ) );
#113 = CARTESIAN_POINT ( 'NONE',  ( 0.2500000000000000555, 1.625000000000000000, 3.061616997868384251E-17 ) ) ;
#114 = LENGTH_MEASURE_WITH_UNIT ( LENGTH_MEASURE( 0.02539999999999999897 ), #301 );
#115 = CIRCLE ( 'NONE', #44, 0.2500000000000000000 ) ;
#116 = FILL_AREA_STYLE_COLOUR ( '', #17 ) ;
#117 = DIRECTION ( 'NONE',  ( -0.000000000000000000, -1.000000000000000000, -0.000000000000000000 ) ) ;
#118 = CARTESIAN_POINT ( 'NONE',  ( -1.224646799147352714E-16, 4.000000000000000000, 0.000000000000000000 ) ) ;
#119 = EDGE_LOOP ( 'NONE', ( #143, #233 ) ) ;
#120 = SURFACE_STYLE_USAGE ( .BOTH. , #66 ) ;
#121 = EDGE_LOOP ( 'NONE', ( #292, #217, #15, #258 ) ) ;
#122 = AXIS2_PLACEMENT_3D ( 'NONE', #175, #161, #196 ) ;
#123 = FACE_OUTER_BOUND ( 'NONE', #184, .T. ) ;
#124 = CARTESIAN_POINT ( 'NONE',  ( -0.2500000000000002220, 4.000000000000000000, 0.000000000000000000 ) ) ;
#125 = EDGE_LOOP ( 'NONE', ( #103, #60 ) ) ;
#126 = DIMENSIONAL_EXPONENTS ( 1.000000000000000000, 0.000000000000000000, 0.000000000000000000, 0.000000000000000000, 0.000000000000000000, 0.000000000000000000, 0.000000000000000000 ) ;
#127 = DIMENSIONAL_EXPONENTS ( 1.000000000000000000, 0.000000000000000000, 0.000000000000000000, 0.000000000000000000, 0.000000000000000000, 0.000000000000000000, 0.000000000000000000 ) ;
#128 = COLOUR_RGB ( '',0.7921568627450980005, 0.8196078431372548767, 0.9333333333333333481 ) ;
#129 = PRODUCT_DEFINITION_FORMATION_WITH_SPECIFIED_SOURCE ( 'ANY', '', #57, .NOT_KNOWN. ) ;
#130 = APPLICATION_CONTEXT ( 'automotive_design' ) ;
#131 = DIRECTION ( 'NONE',  ( -5.156407575357275299E-17, 1.000000000000000000, -0.000000000000000000 ) ) ;
#132 = CARTESIAN_POINT ( 'NONE',  ( 3.061616997868383018E-17, 0.000000000000000000, 0.2500000000000000000 ) ) ;
#133 = FILL_AREA_STYLE_COLOUR ( '', #148 ) ;
#134 = DIRECTION ( 'NONE',  ( 0.000000000000000000, 0.000000000000000000, -1.000000000000000000 ) ) ;
#135 = ORIENTED_EDGE ( 'NONE', *, *, #185, .T. ) ;
#136 = DIRECTION ( 'NONE',  ( 0.000000000000000000, 1.000000000000000000, 0.000000000000000000 ) ) ;
#137 = PRESENTATION_LAYER_ASSIGNMENT (  '', '', ( #187 ) ) ;
#138 = EDGE_CURVE ( 'NONE', #214, #31, #76, .T. ) ;
#139 = DIRECTION ( 'NONE',  ( 0.000000000000000000, -0.000000000000000000, 1.000000000000000000 ) ) ;
#140 = SHAPE_DEFINITION_REPRESENTATION ( #28, #25 ) ;
#141 = DIRECTION ( 'NONE',  ( 0.000000000000000000, 0.000000000000000000, -1.000000000000000000 ) ) ;
#142 = STYLED_ITEM ( 'NONE', ( #4 ), #52 ) ;
#143 = ORIENTED_EDGE ( 'NONE', *, *, #188, .T. ) ;
#144 = PRESENTATION_STYLE_ASSIGNMENT (( #283 ) ) ;
#145 = VECTOR ( 'NONE', #101, 39.37007874015748143 ) ;
#146 = VECTOR ( 'NONE', #253, 39.37007874015748143 ) ;
#147 = ORIENTED_EDGE ( 'NONE', *, *, #211, .F. ) ;
#148 = COLOUR_RGB ( '',1.000000000000000000, 0.000000000000000000, 0.000000000000000000 ) ;
#149 =( LENGTH_UNIT ( ) NAMED_UNIT ( * ) SI_UNIT ( $, .METRE. ) );
#150 = DIRECTION ( 'NONE',  ( -5.156407575357275916E-17, 1.000000000000000000, -0.000000000000000000 ) ) ;
#151 = CARTESIAN_POINT ( 'NONE',  ( 3.323567385400236968E-34, 1.625000000000000000, 0.000000000000000000 ) ) ;
#152 = ADVANCED_FACE ( 'NONE', ( #201 ), #93, .F. ) ;
#153 = DIRECTION ( 'NONE',  ( -0.000000000000000000, -1.000000000000000000, -0.000000000000000000 ) ) ;
#154 = ORIENTED_EDGE ( 'NONE', *, *, #40, .F. ) ;
#155 = DIRECTION ( 'NONE',  ( -0.000000000000000000, -1.000000000000000000, -0.000000000000000000 ) ) ;
#156 = CARTESIAN_POINT ( 'NONE',  ( 0.000000000000000000, 0.000000000000000000, 0.000000000000000000 ) ) ;
#157 =( LENGTH_UNIT ( ) NAMED_UNIT ( * ) SI_UNIT ( $, .METRE. ) );
#158 = AXIS2_PLACEMENT_3D ( 'NONE', #193, #272, #277 ) ;
#159 = DIRECTION ( 'NONE',  ( -1.000000000000000000, 0.000000000000000000, 0.000000000000000000 ) ) ;
#160 = FILL_AREA_STYLE ('',( #260 ) ) ;
#161 = DIRECTION ( 'NONE',  ( 5.156407575357275916E-17, -1.000000000000000000, 0.000000000000000000 ) ) ;
#162 = CLOSED_SHELL ( 'NONE', ( #22, #208, #297, #81 ) ) ;
#163 = DIRECTION ( 'NONE',  ( -5.156407575357275299E-17, 1.000000000000000000, -0.000000000000000000 ) ) ;
#164 = PRESENTATION_LAYER_ASSIGNMENT (  '', '', ( #55 ) ) ;
#165 = CARTESIAN_POINT ( 'NONE',  ( -0.2500000000000000000, 1.625000000000000000, 0.000000000000000000 ) ) ;
#166 = ORIENTED_EDGE ( 'NONE', *, *, #183, .T. ) ;
#167 = FILL_AREA_STYLE ('',( #100 ) ) ;
#168 = PRESENTATION_LAYER_ASSIGNMENT (  '', '', ( #7 ) ) ;
#169 = SURFACE_STYLE_FILL_AREA ( #307 ) ;
#170 = CYLINDRICAL_SURFACE ( 'NONE', #109, 0.2500000000000000000 ) ;
#171 = DIRECTION ( 'NONE',  ( -5.156407575357275299E-17, 1.000000000000000000, -0.000000000000000000 ) ) ;
#172 = ORIENTED_EDGE ( 'NONE', *, *, #62, .F. ) ;
#173 = PRODUCT_CONTEXT ( 'NONE', #264, 'mechanical' ) ;
#174 =( CONVERSION_BASED_UNIT ( 'INCH', #177 ) LENGTH_UNIT ( ) NAMED_UNIT ( #306 ) );
#175 = CARTESIAN_POINT ( 'NONE',  ( 0.2500000000000000000, 4.000000000000000000, 0.000000000000000000 ) ) ;
#176 = COLOUR_RGB ( '',1.000000000000000000, 0.000000000000000000, 0.000000000000000000 ) ;
#177 = LENGTH_MEASURE_WITH_UNIT ( LENGTH_MEASURE( 0.02539999999999999897 ), #2 );
#178 =( NAMED_UNIT ( * ) PLANE_ANGLE_UNIT ( ) SI_UNIT ( $, .RADIAN. ) );
#179 = SURFACE_SIDE_STYLE ('',( #16 ) ) ;
#180 = DIRECTION ( 'NONE',  ( -0.000000000000000000, -1.000000000000000000, -0.000000000000000000 ) ) ;
#181 =( NAMED_UNIT ( * ) PLANE_ANGLE_UNIT ( ) SI_UNIT ( $, .RADIAN. ) );
#182 = CIRCLE ( 'NONE', #240, 0.2500000000000000000 ) ;
#183 = EDGE_CURVE ( 'NONE', #305, #13, #182, .T. ) ;
#184 = EDGE_LOOP ( 'NONE', ( #78, #209, #289, #172 ) ) ;
#185 = EDGE_CURVE ( 'NONE', #13, #305, #250, .T. ) ;
#186 = CARTESIAN_POINT ( 'NONE',  ( 0.2500000000000000555, 4.000000000000000000, 3.061616997868384251E-17 ) ) ;
#187 = STYLED_ITEM ( 'NONE', ( #205 ), #208 ) ;
#188 = EDGE_CURVE ( 'NONE', #273, #19, #54, .T. ) ;
#189 = DIMENSIONAL_EXPONENTS ( 1.000000000000000000, 0.000000000000000000, 0.000000000000000000, 0.000000000000000000, 0.000000000000000000, 0.000000000000000000, 0.000000000000000000 ) ;
#190 = VERTEX_POINT ( 'NONE', #6 ) ;
#191 = LINE ( 'NONE', #132, #104 ) ;
#192 = PRESENTATION_LAYER_ASSIGNMENT (  '', '', ( #212 ) ) ;
#193 = CARTESIAN_POINT ( 'NONE',  ( 0.000000000000000000, 1.625000000000000000, 0.000000000000000000 ) ) ;
#194 = ORIENTED_EDGE ( 'NONE', *, *, #255, .T. ) ;
#195 = EDGE_CURVE ( 'NONE', #190, #94, #115, .T. ) ;
#196 = DIRECTION ( 'NONE',  ( 1.000000000000000000, 5.156407575357275916E-17, 0.000000000000000000 ) ) ;
#197 =( NAMED_UNIT ( * ) SI_UNIT ( $, .STERADIAN. ) SOLID_ANGLE_UNIT ( ) );
#198 =( CONVERSION_BASED_UNIT ( 'INCH', #300 ) LENGTH_UNIT ( ) NAMED_UNIT ( #127 ) );
#199 = DIRECTION ( 'NONE',  ( 0.000000000000000000, 0.000000000000000000, -1.000000000000000000 ) ) ;
#200 =( NAMED_UNIT ( * ) SI_UNIT ( $, .STERADIAN. ) SOLID_ANGLE_UNIT ( ) );
#201 = FACE_OUTER_BOUND ( 'NONE', #119, .T. ) ;
#202 = AXIS2_PLACEMENT_3D ( 'NONE', #12, #302, #159 ) ;
#203 = ORIENTED_EDGE ( 'NONE', *, *, #308, .F. ) ;
#204 =( CONVERSION_BASED_UNIT ( 'INCH', #114 ) LENGTH_UNIT ( ) NAMED_UNIT ( #189 ) );
#205 = PRESENTATION_STYLE_ASSIGNMENT (( #29 ) ) ;
#206 = FILL_AREA_STYLE ('',( #229 ) ) ;
#207 =( GEOMETRIC_REPRESENTATION_CONTEXT ( 3 ) GLOBAL_UNCERTAINTY_ASSIGNED_CONTEXT ( ( #271 ) ) GLOBAL_UNIT_ASSIGNED_CONTEXT ( ( #75, #86, #222 ) ) REPRESENTATION_CONTEXT ( 'NONE', 'WORKASPACE' ) );
#208 = ADVANCED_FACE ( 'NONE', ( #108 ), #38, .T. ) ;
#209 = ORIENTED_EDGE ( 'NONE', *, *, #18, .T. ) ;
#210 = PRODUCT_DEFINITION_CONTEXT ( 'detailed design', #130, 'design' ) ;
#211 = EDGE_CURVE ( 'NONE', #94, #190, #259, .T. ) ;
#212 = STYLED_ITEM ( 'NONE', ( #48 ), #47 ) ;
#213 = CARTESIAN_POINT ( 'NONE',  ( -1.224646799147352714E-16, 4.000000000000000000, 0.000000000000000000 ) ) ;
#214 = VERTEX_POINT ( 'NONE', #113 ) ;
#215 =( CONVERSION_BASED_UNIT ( 'INCH', #246 ) LENGTH_UNIT ( ) NAMED_UNIT ( #21 ) );
#216 = FILL_AREA_STYLE ('',( #30 ) ) ;
#217 = ORIENTED_EDGE ( 'NONE', *, *, #138, .T. ) ;
#218 = AXIS2_PLACEMENT_3D ( 'NONE', #36, #110, #257 ) ;
#219 = CARTESIAN_POINT ( 'NONE',  ( 0.000000000000000000, 0.000000000000000000, 0.000000000000000000 ) ) ;
#220 = EDGE_LOOP ( 'NONE', ( #154, #269 ) ) ;
#221 = DIRECTION ( 'NONE',  ( 0.000000000000000000, 0.000000000000000000, 1.000000000000000000 ) ) ;
#222 =( NAMED_UNIT ( * ) SI_UNIT ( $, .STERADIAN. ) SOLID_ANGLE_UNIT ( ) );
#223 = PRODUCT_RELATED_PRODUCT_CATEGORY ( 'part', '', ( #57 ) ) ;
#224 = CYLINDRICAL_SURFACE ( 'NONE', #295, 0.2500000000000000000 ) ;
#225 = CARTESIAN_POINT ( 'NONE',  ( 0.000000000000000000, 0.000000000000000000, 0.000000000000000000 ) ) ;
#226 = ADVANCED_FACE ( 'NONE', ( #123 ), #261, .T. ) ;
#227 = SURFACE_STYLE_FILL_AREA ( #160 ) ;
#228 = ORIENTED_EDGE ( 'NONE', *, *, #211, .T. ) ;
#229 = FILL_AREA_STYLE_COLOUR ( '', #176 ) ;
#230 = EDGE_CURVE ( 'NONE', #19, #273, #77, .T. ) ;
#231 = MECHANICAL_DESIGN_GEOMETRIC_PRESENTATION_REPRESENTATION (  '', ( #11 ), #263 ) ;
#232 =( CONVERSION_BASED_UNIT ( 'INCH', #74 ) LENGTH_UNIT ( ) NAMED_UNIT ( #262 ) );
#233 = ORIENTED_EDGE ( 'NONE', *, *, #230, .T. ) ;
#234 = SURFACE_STYLE_USAGE ( .BOTH. , #20 ) ;
#235 = LINE ( 'NONE', #124, #145 ) ;
#236 = AXIS2_PLACEMENT_3D ( 'NONE', #298, #163, #90 ) ;
#237 = EDGE_LOOP ( 'NONE', ( #82, #135, #61, #147 ) ) ;
#238 = ADVANCED_FACE ( 'NONE', ( #105 ), #80, .T. ) ;
#239 = DIRECTION ( 'NONE',  ( -5.156407575357275916E-17, 1.000000000000000000, 0.000000000000000000 ) ) ;
#240 = AXIS2_PLACEMENT_3D ( 'NONE', #274, #153, #134 ) ;
#241 = AXIS2_PLACEMENT_3D ( 'NONE', #296, #221, #63 ) ;
#242 = PLANE ( 'NONE',  #270 ) ;
#243 = DIRECTION ( 'NONE',  ( -1.000000000000000000, 0.000000000000000000, 0.000000000000000000 ) ) ;
#244 = EDGE_LOOP ( 'NONE', ( #166, #194, #111, #203 ) ) ;
#245 = ADVANCED_FACE ( 'NONE', ( #268 ), #59, .F. ) ;
#246 = LENGTH_MEASURE_WITH_UNIT ( LENGTH_MEASURE( 0.02539999999999999897 ), #41 );
#247 = SURFACE_SIDE_STYLE ('',( #248 ) ) ;
#248 = SURFACE_STYLE_FILL_AREA ( #9 ) ;
#249 = SURFACE_STYLE_FILL_AREA ( #216 ) ;
#250 = CIRCLE ( 'NONE', #158, 0.2500000000000000000 ) ;
#251 = DIRECTION ( 'NONE',  ( 0.000000000000000000, 0.000000000000000000, -1.000000000000000000 ) ) ;
#252 = AXIS2_PLACEMENT_3D ( 'NONE', #24, #131, #243 ) ;
#253 = DIRECTION ( 'NONE',  ( -0.000000000000000000, -1.000000000000000000, -0.000000000000000000 ) ) ;
#254 = CARTESIAN_POINT ( 'NONE',  ( 3.061616997868383018E-17, 0.000000000000000000, 0.2500000000000000000 ) ) ;
#255 = EDGE_CURVE ( 'NONE', #13, #94, #191, .T. ) ;
#256 = APPLICATION_PROTOCOL_DEFINITION ( 'draft international standard', 'automotive_design', 1998, #130 ) ;
#257 = DIRECTION ( 'NONE',  ( -1.000000000000000000, 0.000000000000000000, 0.000000000000000000 ) ) ;
#258 = ORIENTED_EDGE ( 'NONE', *, *, #230, .F. ) ;
#259 = CIRCLE ( 'NONE', #267, 0.2500000000000000000 ) ;
#260 = FILL_AREA_STYLE_COLOUR ( '', #299 ) ;
#261 = CYLINDRICAL_SURFACE ( 'NONE', #27, 0.2500000000000000555 ) ;
#262 = DIMENSIONAL_EXPONENTS ( 1.000000000000000000, 0.000000000000000000, 0.000000000000000000, 0.000000000000000000, 0.000000000000000000, 0.000000000000000000, 0.000000000000000000 ) ;
#263 =( GEOMETRIC_REPRESENTATION_CONTEXT ( 3 ) GLOBAL_UNCERTAINTY_ASSIGNED_CONTEXT ( ( #51 ) ) GLOBAL_UNIT_ASSIGNED_CONTEXT ( ( #72, #14, #39 ) ) REPRESENTATION_CONTEXT ( 'NONE', 'WORKASPACE' ) );
#264 = APPLICATION_CONTEXT ( 'automotive_design' ) ;
#265 = SURFACE_STYLE_USAGE ( .BOTH. , #73 ) ;
#266 = MECHANICAL_DESIGN_GEOMETRIC_PRESENTATION_REPRESENTATION (  '', ( #7 ), #207 ) ;
#267 = AXIS2_PLACEMENT_3D ( 'NONE', #156, #64, #33 ) ;
#268 = FACE_OUTER_BOUND ( 'NONE', #220, .T. ) ;
#269 = ORIENTED_EDGE ( 'NONE', *, *, #138, .F. ) ;
#270 = AXIS2_PLACEMENT_3D ( 'NONE', #225, #280, #251 ) ;
#271 = UNCERTAINTY_MEASURE_WITH_UNIT (LENGTH_MEASURE( 1.000000000000000082E-05 ), #75, 'distance_accuracy_value', 'NONE');
#272 = DIRECTION ( 'NONE',  ( -0.000000000000000000, -1.000000000000000000, -0.000000000000000000 ) ) ;
#273 = VERTEX_POINT ( 'NONE', #67 ) ;
#274 = CARTESIAN_POINT ( 'NONE',  ( 0.000000000000000000, 1.625000000000000000, 0.000000000000000000 ) ) ;
#275 = MECHANICAL_DESIGN_GEOMETRIC_PRESENTATION_REPRESENTATION (  '', ( #212 ), #281 ) ;
#276 = DIRECTION ( 'NONE',  ( 0.000000000000000000, 0.000000000000000000, -1.000000000000000000 ) ) ;
#277 = DIRECTION ( 'NONE',  ( 0.000000000000000000, 0.000000000000000000, -1.000000000000000000 ) ) ;
#278 = CARTESIAN_POINT ( 'NONE',  ( 0.000000000000000000, 1.625000000000000000, 0.000000000000000000 ) ) ;
#279 = EDGE_LOOP ( 'NONE', ( #50, #228 ) ) ;
#280 = DIRECTION ( 'NONE',  ( 0.000000000000000000, -1.000000000000000000, -0.000000000000000000 ) ) ;
#281 =( GEOMETRIC_REPRESENTATION_CONTEXT ( 3 ) GLOBAL_UNCERTAINTY_ASSIGNED_CONTEXT ( ( #58 ) ) GLOBAL_UNIT_ASSIGNED_CONTEXT ( ( #204, #181, #97 ) ) REPRESENTATION_CONTEXT ( 'NONE', 'WORKASPACE' ) );
#282 = DIMENSIONAL_EXPONENTS ( 1.000000000000000000, 0.000000000000000000, 0.000000000000000000, 0.000000000000000000, 0.000000000000000000, 0.000000000000000000, 0.000000000000000000 ) ;
#283 = SURFACE_STYLE_USAGE ( .BOTH. , #179 ) ;
#284 = SURFACE_STYLE_FILL_AREA ( #167 ) ;
#285 = UNCERTAINTY_MEASURE_WITH_UNIT (LENGTH_MEASURE( 1.000000000000000082E-05 ), #215, 'distance_accuracy_value', 'NONE');
#286 = PRESENTATION_STYLE_ASSIGNMENT (( #37 ) ) ;
#287 = UNCERTAINTY_MEASURE_WITH_UNIT (LENGTH_MEASURE( 1.000000000000000082E-05 ), #174, 'distance_accuracy_value', 'NONE');
#288 = LENGTH_MEASURE_WITH_UNIT ( LENGTH_MEASURE( 0.02539999999999999897 ), #56 );
#289 = ORIENTED_EDGE ( 'NONE', *, *, #188, .F. ) ;
#290 = PRESENTATION_LAYER_ASSIGNMENT (  '', '', ( #142 ) ) ;
#291 =( GEOMETRIC_REPRESENTATION_CONTEXT ( 3 ) GLOBAL_UNCERTAINTY_ASSIGNED_CONTEXT ( ( #285 ) ) GLOBAL_UNIT_ASSIGNED_CONTEXT ( ( #215, #112, #200 ) ) REPRESENTATION_CONTEXT ( 'NONE', 'WORKASPACE' ) );
#292 = ORIENTED_EDGE ( 'NONE', *, *, #18, .F. ) ;
#293 = PRESENTATION_LAYER_ASSIGNMENT (  '', '', ( #11 ) ) ;
#294 = MECHANICAL_DESIGN_GEOMETRIC_PRESENTATION_REPRESENTATION (  '', ( #142 ), #71 ) ;
#295 = AXIS2_PLACEMENT_3D ( 'NONE', #35, #155, #276 ) ;
#296 = CARTESIAN_POINT ( 'NONE',  ( 0.000000000000000000, 0.000000000000000000, 0.000000000000000000 ) ) ;
#297 = ADVANCED_FACE ( 'NONE', ( #42 ), #224, .T. ) ;
#298 = CARTESIAN_POINT ( 'NONE',  ( 3.032960542342103792E-32, 1.625000000000000000, 0.000000000000000000 ) ) ;
#299 = COLOUR_RGB ( '',0.7921568627450980005, 0.8196078431372548767, 0.9333333333333333481 ) ;
#300 = LENGTH_MEASURE_WITH_UNIT ( LENGTH_MEASURE( 0.02539999999999999897 ), #157 );
#301 =( LENGTH_UNIT ( ) NAMED_UNIT ( * ) SI_UNIT ( $, .METRE. ) );
#302 = DIRECTION ( 'NONE',  ( -5.156407575357275299E-17, 1.000000000000000000, -0.000000000000000000 ) ) ;
#303 = LENGTH_MEASURE_WITH_UNIT ( LENGTH_MEASURE( 0.02539999999999999897 ), #43 );
#304 = MECHANICAL_DESIGN_GEOMETRIC_PRESENTATION_REPRESENTATION (  '', ( #187 ), #98 ) ;
#305 = VERTEX_POINT ( 'NONE', #10 ) ;
#306 = DIMENSIONAL_EXPONENTS ( 1.000000000000000000, 0.000000000000000000, 0.000000000000000000, 0.000000000000000000, 0.000000000000000000, 0.000000000000000000, 0.000000000000000000 ) ;
#307 = FILL_AREA_STYLE ('',( #133 ) ) ;
#308 = EDGE_CURVE ( 'NONE', #305, #190, #92, .T. ) ;
#309 = LINE ( 'NONE', #99, #1 ) ;
ENDSEC;
END-ISO-10303-21;
