ISO-10303-21;
HEADER;
FILE_DESCRIPTION (( 'STEP AP214' ),
    '1' );
FILE_NAME ('83203.STEP',
    '2023-06-23T08:37:28',
    ( '' ),
    ( '' ),
    'SwSTEP 2.0',
    'SolidWorks 2023',
    '' );
FILE_SCHEMA (( 'AUTOMOTIVE_DESIGN' ));
ENDSEC;

DATA;
#1 =( LENGTH_UNIT ( ) NAMED_UNIT ( * ) SI_UNIT ( $, .METRE. ) );
#2 = EDGE_LOOP ( 'NONE', ( #296, #185, #252, #80 ) ) ;
#3 = CARTESIAN_POINT ( 'NONE',  ( -1.224646799147353207E-16, 5.000000000000000000, 0.000000000000000000 ) ) ;
#4 = DIRECTION ( 'NONE',  ( -4.898587196589413075E-17, 1.000000000000000000, -0.000000000000000000 ) ) ;
#5 =( GEOMETRIC_REPRESENTATION_CONTEXT ( 3 ) GLOBAL_UNCERTAINTY_ASSIGNED_CONTEXT ( ( #99 ) ) GLOBAL_UNIT_ASSIGNED_CONTEXT ( ( #194, #212, #190 ) ) REPRESENTATION_CONTEXT ( 'NONE', 'WORKASPACE' ) );
#6 =( NAMED_UNIT ( * ) SI_UNIT ( $, .STERADIAN. ) SOLID_ANGLE_UNIT ( ) );
#7 = CIRCLE ( 'NONE', #146, 0.2500000000000000000 ) ;
#8 = CARTESIAN_POINT ( 'NONE',  ( 0.000000000000000000, 0.000000000000000000, 0.000000000000000000 ) ) ;
#9 = CARTESIAN_POINT ( 'NONE',  ( -1.224646799147353207E-16, 5.000000000000000000, 0.000000000000000000 ) ) ;
#10 = EDGE_CURVE ( 'NONE', #245, #34, #88, .T. ) ;
#11 = CARTESIAN_POINT ( 'NONE',  ( -0.2500000000000002220, 5.000000000000000000, 0.000000000000000000 ) ) ;
#12 = DIMENSIONAL_EXPONENTS ( 1.000000000000000000, 0.000000000000000000, 0.000000000000000000, 0.000000000000000000, 0.000000000000000000, 0.000000000000000000, 0.000000000000000000 ) ;
#13 = SURFACE_STYLE_USAGE ( .BOTH. , #151 ) ;
#14 = UNCERTAINTY_MEASURE_WITH_UNIT (LENGTH_MEASURE( 1.000000000000000082E-05 ), #294, 'distance_accuracy_value', 'NONE');
#15 = PRESENTATION_STYLE_ASSIGNMENT (( #66 ) ) ;
#16 = LINE ( 'NONE', #211, #232 ) ;
#17 =( CONVERSION_BASED_UNIT ( 'INCH', #123 ) LENGTH_UNIT ( ) NAMED_UNIT ( #230 ) );
#18 = FACE_OUTER_BOUND ( 'NONE', #2, .T. ) ;
#19 = FILL_AREA_STYLE ('',( #239 ) ) ;
#20 = DIRECTION ( 'NONE',  ( 0.000000000000000000, 0.000000000000000000, -1.000000000000000000 ) ) ;
#21 = DIRECTION ( 'NONE',  ( -4.898587196589413075E-17, 1.000000000000000000, -0.000000000000000000 ) ) ;
#22 = AXIS2_PLACEMENT_3D ( 'NONE', #306, #283, #280 ) ;
#23 = DIRECTION ( 'NONE',  ( -0.000000000000000000, -1.000000000000000000, -0.000000000000000000 ) ) ;
#24 = VERTEX_POINT ( 'NONE', #133 ) ;
#25 = CARTESIAN_POINT ( 'NONE',  ( 0.000000000000000000, 0.000000000000000000, 0.000000000000000000 ) ) ;
#26 = EDGE_CURVE ( 'NONE', #245, #229, #231, .T. ) ;
#27 = DIRECTION ( 'NONE',  ( -1.000000000000000000, 0.000000000000000000, 0.000000000000000000 ) ) ;
#28 =( NAMED_UNIT ( * ) PLANE_ANGLE_UNIT ( ) SI_UNIT ( $, .RADIAN. ) );
#29 =( NAMED_UNIT ( * ) PLANE_ANGLE_UNIT ( ) SI_UNIT ( $, .RADIAN. ) );
#30 = UNCERTAINTY_MEASURE_WITH_UNIT (LENGTH_MEASURE( 1.000000000000000082E-05 ), #127, 'distance_accuracy_value', 'NONE');
#31 = CARTESIAN_POINT ( 'NONE',  ( 0.2500000000000000555, 2.500000000000000000, 3.061616997868384251E-17 ) ) ;
#32 = AXIS2_PLACEMENT_3D ( 'NONE', #44, #97, #75 ) ;
#33 = DIRECTION ( 'NONE',  ( 1.000000000000000000, 0.000000000000000000, 0.000000000000000000 ) ) ;
#34 = VERTEX_POINT ( 'NONE', #31 ) ;
#35 = ORIENTED_EDGE ( 'NONE', *, *, #301, .F. ) ;
#36 = FACE_OUTER_BOUND ( 'NONE', #176, .T. ) ;
#37 = STYLED_ITEM ( 'NONE', ( #237 ), #220 ) ;
#38 = PRODUCT_DEFINITION ( 'UNKNOWN', '', #213, #259 ) ;
#39 = CARTESIAN_POINT ( 'NONE',  ( 2.999519565323715729E-34, 2.500000000000000000, 0.000000000000000000 ) ) ;
#40 = DIRECTION ( 'NONE',  ( -1.000000000000000000, -4.898587196589412459E-17, 0.000000000000000000 ) ) ;
#41 = DIRECTION ( 'NONE',  ( 0.000000000000000000, 0.000000000000000000, -1.000000000000000000 ) ) ;
#42 =( LENGTH_UNIT ( ) NAMED_UNIT ( * ) SI_UNIT ( $, .METRE. ) );
#43 = ADVANCED_FACE ( 'NONE', ( #150 ), #243, .T. ) ;
#44 = CARTESIAN_POINT ( 'NONE',  ( 0.000000000000000000, 2.500000000000000000, 0.000000000000000000 ) ) ;
#45 =( GEOMETRIC_REPRESENTATION_CONTEXT ( 3 ) GLOBAL_UNCERTAINTY_ASSIGNED_CONTEXT ( ( #277 ) ) GLOBAL_UNIT_ASSIGNED_CONTEXT ( ( #287, #61, #273 ) ) REPRESENTATION_CONTEXT ( 'NONE', 'WORKASPACE' ) );
#46 =( NAMED_UNIT ( * ) PLANE_ANGLE_UNIT ( ) SI_UNIT ( $, .RADIAN. ) );
#47 = APPLICATION_CONTEXT ( 'automotive_design' ) ;
#48 = CYLINDRICAL_SURFACE ( 'NONE', #64, 0.2500000000000000555 ) ;
#49 = SURFACE_STYLE_FILL_AREA ( #82 ) ;
#50 = COLOUR_RGB ( '',1.000000000000000000, 0.000000000000000000, 0.000000000000000000 ) ;
#51 = AXIS2_PLACEMENT_3D ( 'NONE', #186, #249, #33 ) ;
#52 = ORIENTED_EDGE ( 'NONE', *, *, #158, .F. ) ;
#53 = DIRECTION ( 'NONE',  ( -4.898587196589413075E-17, 1.000000000000000000, -0.000000000000000000 ) ) ;
#54 = EDGE_CURVE ( 'NONE', #34, #132, #16, .T. ) ;
#55 = PRESENTATION_STYLE_ASSIGNMENT (( #175 ) ) ;
#56 = LENGTH_MEASURE_WITH_UNIT ( LENGTH_MEASURE( 0.02539999999999999897 ), #210 );
#57 = APPLICATION_CONTEXT ( 'automotive_design' ) ;
#58 = VERTEX_POINT ( 'NONE', #304 ) ;
#59 = DIMENSIONAL_EXPONENTS ( 1.000000000000000000, 0.000000000000000000, 0.000000000000000000, 0.000000000000000000, 0.000000000000000000, 0.000000000000000000, 0.000000000000000000 ) ;
#60 = ORIENTED_EDGE ( 'NONE', *, *, #188, .F. ) ;
#61 =( NAMED_UNIT ( * ) PLANE_ANGLE_UNIT ( ) SI_UNIT ( $, .RADIAN. ) );
#62 = CARTESIAN_POINT ( 'NONE',  ( 0.000000000000000000, 2.500000000000000000, 0.000000000000000000 ) ) ;
#63 = CARTESIAN_POINT ( 'NONE',  ( 0.000000000000000000, 0.000000000000000000, -0.2500000000000000000 ) ) ;
#64 = AXIS2_PLACEMENT_3D ( 'NONE', #117, #120, #93 ) ;
#65 = CARTESIAN_POINT ( 'NONE',  ( 0.2500000000000000000, 5.000000000000000000, 0.000000000000000000 ) ) ;
#66 = SURFACE_STYLE_USAGE ( .BOTH. , #87 ) ;
#67 = UNCERTAINTY_MEASURE_WITH_UNIT (LENGTH_MEASURE( 1.000000000000000082E-05 ), #71, 'distance_accuracy_value', 'NONE');
#68 = DIRECTION ( 'NONE',  ( -0.000000000000000000, -1.000000000000000000, -0.000000000000000000 ) ) ;
#69 = ADVANCED_FACE ( 'NONE', ( #113 ), #91, .T. ) ;
#70 = VECTOR ( 'NONE', #260, 39.37007874015748143 ) ;
#71 =( CONVERSION_BASED_UNIT ( 'INCH', #172 ) LENGTH_UNIT ( ) NAMED_UNIT ( #279 ) );
#72 = PRODUCT ( '83203', '83203', '', ( #131 ) ) ;
#73 =( LENGTH_UNIT ( ) NAMED_UNIT ( * ) SI_UNIT ( $, .METRE. ) );
#74 =( GEOMETRIC_REPRESENTATION_CONTEXT ( 3 ) GLOBAL_UNCERTAINTY_ASSIGNED_CONTEXT ( ( #302 ) ) GLOBAL_UNIT_ASSIGNED_CONTEXT ( ( #173, #205, #134 ) ) REPRESENTATION_CONTEXT ( 'NONE', 'WORKASPACE' ) );
#75 = DIRECTION ( 'NONE',  ( 0.000000000000000000, -0.000000000000000000, 1.000000000000000000 ) ) ;
#76 = SURFACE_STYLE_USAGE ( .BOTH. , #95 ) ;
#77 = CARTESIAN_POINT ( 'NONE',  ( 0.000000000000000000, 0.000000000000000000, 0.000000000000000000 ) ) ;
#78 = DIRECTION ( 'NONE',  ( -1.000000000000000000, 0.000000000000000000, 0.000000000000000000 ) ) ;
#79 = CIRCLE ( 'NONE', #167, 0.2500000000000000000 ) ;
#80 = ORIENTED_EDGE ( 'NONE', *, *, #293, .F. ) ;
#81 = ORIENTED_EDGE ( 'NONE', *, *, #258, .F. ) ;
#82 = FILL_AREA_STYLE ('',( #104 ) ) ;
#83 = ORIENTED_EDGE ( 'NONE', *, *, #293, .T. ) ;
#84 = VERTEX_POINT ( 'NONE', #63 ) ;
#85 = MECHANICAL_DESIGN_GEOMETRIC_PRESENTATION_REPRESENTATION (  '', ( #37 ), #254 ) ;
#86 = EDGE_LOOP ( 'NONE', ( #223, #130 ) ) ;
#87 = SURFACE_SIDE_STYLE ('',( #234 ) ) ;
#88 = CIRCLE ( 'NONE', #264, 0.2500000000000000000 ) ;
#89 = MECHANICAL_DESIGN_GEOMETRIC_PRESENTATION_REPRESENTATION (  '', ( #300 ), #102 ) ;
#90 = FILL_AREA_STYLE ('',( #161 ) ) ;
#91 = CYLINDRICAL_SURFACE ( 'NONE', #22, 0.2500000000000000000 ) ;
#92 = SHAPE_DEFINITION_REPRESENTATION ( #197, #107 ) ;
#93 = DIRECTION ( 'NONE',  ( -1.000000000000000000, 0.000000000000000000, 0.000000000000000000 ) ) ;
#94 = PRESENTATION_LAYER_ASSIGNMENT (  '', '', ( #182 ) ) ;
#95 = SURFACE_SIDE_STYLE ('',( #216 ) ) ;
#96 = EDGE_CURVE ( 'NONE', #177, #24, #79, .T. ) ;
#97 = DIRECTION ( 'NONE',  ( 0.000000000000000000, 1.000000000000000000, 0.000000000000000000 ) ) ;
#98 =( LENGTH_UNIT ( ) NAMED_UNIT ( * ) SI_UNIT ( $, .METRE. ) );
#99 = UNCERTAINTY_MEASURE_WITH_UNIT (LENGTH_MEASURE( 1.000000000000000082E-05 ), #194, 'distance_accuracy_value', 'NONE');
#100 = CARTESIAN_POINT ( 'NONE',  ( -0.2500000000000000000, 2.500000000000000000, 0.000000000000000000 ) ) ;
#101 = COLOUR_RGB ( '',1.000000000000000000, 0.000000000000000000, 0.000000000000000000 ) ;
#102 =( GEOMETRIC_REPRESENTATION_CONTEXT ( 3 ) GLOBAL_UNCERTAINTY_ASSIGNED_CONTEXT ( ( #67 ) ) GLOBAL_UNIT_ASSIGNED_CONTEXT ( ( #71, #309, #261 ) ) REPRESENTATION_CONTEXT ( 'NONE', 'WORKASPACE' ) );
#103 = ORIENTED_EDGE ( 'NONE', *, *, #10, .F. ) ;
#104 = FILL_AREA_STYLE_COLOUR ( '', #168 ) ;
#105 = DIRECTION ( 'NONE',  ( -4.898587196589413075E-17, 1.000000000000000000, -0.000000000000000000 ) ) ;
#106 = ORIENTED_EDGE ( 'NONE', *, *, #222, .F. ) ;
#107 = ADVANCED_BREP_SHAPE_REPRESENTATION ( '83203', ( #248, #250, #51 ), #142 ) ;
#108 = UNCERTAINTY_MEASURE_WITH_UNIT (LENGTH_MEASURE( 1.000000000000000082E-05 ), #17, 'distance_accuracy_value', 'NONE');
#109 = ORIENTED_EDGE ( 'NONE', *, *, #246, .T. ) ;
#110 = AXIS2_PLACEMENT_3D ( 'NONE', #39, #143, #40 ) ;
#111 = ADVANCED_FACE ( 'NONE', ( #187 ), #256, .F. ) ;
#112 =( LENGTH_UNIT ( ) NAMED_UNIT ( * ) SI_UNIT ( $, .METRE. ) );
#113 = FACE_OUTER_BOUND ( 'NONE', #278, .T. ) ;
#114 = EDGE_CURVE ( 'NONE', #24, #177, #207, .T. ) ;
#115 = CIRCLE ( 'NONE', #118, 0.2500000000000001110 ) ;
#116 = DIRECTION ( 'NONE',  ( -4.898587196589412459E-17, 1.000000000000000000, -0.000000000000000000 ) ) ;
#117 = CARTESIAN_POINT ( 'NONE',  ( -1.224646799147353207E-16, 5.000000000000000000, 0.000000000000000000 ) ) ;
#118 = AXIS2_PLACEMENT_3D ( 'NONE', #276, #53, #153 ) ;
#119 = PLANE ( 'NONE',  #281 ) ;
#120 = DIRECTION ( 'NONE',  ( -4.898587196589413075E-17, 1.000000000000000000, -0.000000000000000000 ) ) ;
#121 = SURFACE_STYLE_USAGE ( .BOTH. , #221 ) ;
#122 = CLOSED_SHELL ( 'NONE', ( #43, #164, #183, #111 ) ) ;
#123 = LENGTH_MEASURE_WITH_UNIT ( LENGTH_MEASURE( 0.02539999999999999897 ), #42 );
#124 = DIRECTION ( 'NONE',  ( -1.000000000000000000, 0.000000000000000000, 0.000000000000000000 ) ) ;
#125 = DIRECTION ( 'NONE',  ( -0.000000000000000000, -1.000000000000000000, -0.000000000000000000 ) ) ;
#126 = CARTESIAN_POINT ( 'NONE',  ( -0.2500000000000002776, 5.000000000000000000, 0.000000000000000000 ) ) ;
#127 =( CONVERSION_BASED_UNIT ( 'INCH', #156 ) LENGTH_UNIT ( ) NAMED_UNIT ( #148 ) );
#128 = ORIENTED_EDGE ( 'NONE', *, *, #10, .T. ) ;
#129 = MECHANICAL_DESIGN_GEOMETRIC_PRESENTATION_REPRESENTATION (  '', ( #182 ), #174 ) ;
#130 = ORIENTED_EDGE ( 'NONE', *, *, #96, .F. ) ;
#131 = PRODUCT_CONTEXT ( 'NONE', #57, 'mechanical' ) ;
#132 = VERTEX_POINT ( 'NONE', #233 ) ;
#133 = CARTESIAN_POINT ( 'NONE',  ( 0.000000000000000000, 2.500000000000000000, -0.2500000000000000000 ) ) ;
#134 =( NAMED_UNIT ( * ) SI_UNIT ( $, .STERADIAN. ) SOLID_ANGLE_UNIT ( ) );
#135 = SURFACE_SIDE_STYLE ('',( #193 ) ) ;
#136 = CIRCLE ( 'NONE', #163, 0.2500000000000001110 ) ;
#137 = CARTESIAN_POINT ( 'NONE',  ( 0.000000000000000000, 2.500000000000000000, 0.000000000000000000 ) ) ;
#138 = LINE ( 'NONE', #166, #70 ) ;
#139 = APPLICATION_PROTOCOL_DEFINITION ( 'draft international standard', 'automotive_design', 1998, #47 ) ;
#140 = PRESENTATION_STYLE_ASSIGNMENT (( #282 ) ) ;
#141 = MECHANICAL_DESIGN_GEOMETRIC_PRESENTATION_REPRESENTATION (  '', ( #217 ), #5 ) ;
#142 =( GEOMETRIC_REPRESENTATION_CONTEXT ( 3 ) GLOBAL_UNCERTAINTY_ASSIGNED_CONTEXT ( ( #14 ) ) GLOBAL_UNIT_ASSIGNED_CONTEXT ( ( #294, #28, #6 ) ) REPRESENTATION_CONTEXT ( 'NONE', 'WORKASPACE' ) );
#143 = DIRECTION ( 'NONE',  ( -4.898587196589412459E-17, 1.000000000000000000, 0.000000000000000000 ) ) ;
#144 = FILL_AREA_STYLE_COLOUR ( '', #101 ) ;
#145 = AXIS2_PLACEMENT_3D ( 'NONE', #290, #21, #195 ) ;
#146 = AXIS2_PLACEMENT_3D ( 'NONE', #77, #274, #149 ) ;
#147 = CARTESIAN_POINT ( 'NONE',  ( 3.061616997868383018E-17, 2.500000000000000000, 0.2500000000000000000 ) ) ;
#148 = DIMENSIONAL_EXPONENTS ( 1.000000000000000000, 0.000000000000000000, 0.000000000000000000, 0.000000000000000000, 0.000000000000000000, 0.000000000000000000, 0.000000000000000000 ) ;
#149 = DIRECTION ( 'NONE',  ( 0.000000000000000000, 0.000000000000000000, -1.000000000000000000 ) ) ;
#150 = FACE_OUTER_BOUND ( 'NONE', #275, .T. ) ;
#151 = SURFACE_SIDE_STYLE ('',( #159 ) ) ;
#152 = ORIENTED_EDGE ( 'NONE', *, *, #96, .T. ) ;
#153 = DIRECTION ( 'NONE',  ( -1.000000000000000000, 0.000000000000000000, 0.000000000000000000 ) ) ;
#154 = ORIENTED_EDGE ( 'NONE', *, *, #54, .T. ) ;
#155 = COLOUR_RGB ( '',1.000000000000000000, 0.000000000000000000, 0.000000000000000000 ) ;
#156 = LENGTH_MEASURE_WITH_UNIT ( LENGTH_MEASURE( 0.02539999999999999897 ), #98 );
#157 = EDGE_LOOP ( 'NONE', ( #180, #109 ) ) ;
#158 = EDGE_CURVE ( 'NONE', #24, #84, #138, .T. ) ;
#159 = SURFACE_STYLE_FILL_AREA ( #297 ) ;
#160 = PLANE ( 'NONE',  #110 ) ;
#161 = FILL_AREA_STYLE_COLOUR ( '', #50 ) ;
#162 = AXIS2_PLACEMENT_3D ( 'NONE', #262, #201, #240 ) ;
#163 = AXIS2_PLACEMENT_3D ( 'NONE', #3, #105, #78 ) ;
#164 = ADVANCED_FACE ( 'NONE', ( #255 ), #160, .F. ) ;
#165 = CYLINDRICAL_SURFACE ( 'NONE', #162, 0.2500000000000000000 ) ;
#166 = CARTESIAN_POINT ( 'NONE',  ( 0.000000000000000000, 0.000000000000000000, -0.2500000000000000000 ) ) ;
#167 = AXIS2_PLACEMENT_3D ( 'NONE', #137, #68, #307 ) ;
#168 = COLOUR_RGB ( '',0.7921568627450980005, 0.8196078431372548767, 0.9333333333333333481 ) ;
#169 = ADVANCED_FACE ( 'NONE', ( #36 ), #165, .T. ) ;
#170 = LENGTH_MEASURE_WITH_UNIT ( LENGTH_MEASURE( 0.02539999999999999897 ), #1 );
#171 = FACE_OUTER_BOUND ( 'NONE', #86, .T. ) ;
#172 = LENGTH_MEASURE_WITH_UNIT ( LENGTH_MEASURE( 0.02539999999999999897 ), #73 );
#173 =( CONVERSION_BASED_UNIT ( 'INCH', #56 ) LENGTH_UNIT ( ) NAMED_UNIT ( #12 ) );
#174 =( GEOMETRIC_REPRESENTATION_CONTEXT ( 3 ) GLOBAL_UNCERTAINTY_ASSIGNED_CONTEXT ( ( #108 ) ) GLOBAL_UNIT_ASSIGNED_CONTEXT ( ( #17, #46, #308 ) ) REPRESENTATION_CONTEXT ( 'NONE', 'WORKASPACE' ) );
#175 = SURFACE_STYLE_USAGE ( .BOTH. , #179 ) ;
#176 = EDGE_LOOP ( 'NONE', ( #225, #303, #106, #52 ) ) ;
#177 = VERTEX_POINT ( 'NONE', #147 ) ;
#178 = APPLICATION_PROTOCOL_DEFINITION ( 'draft international standard', 'automotive_design', 1998, #57 ) ;
#179 = SURFACE_SIDE_STYLE ('',( #49 ) ) ;
#180 = ORIENTED_EDGE ( 'NONE', *, *, #222, .T. ) ;
#181 = PRESENTATION_STYLE_ASSIGNMENT (( #13 ) ) ;
#182 = STYLED_ITEM ( 'NONE', ( #140 ), #169 ) ;
#183 = ADVANCED_FACE ( 'NONE', ( #18 ), #48, .T. ) ;
#184 = COLOUR_RGB ( '',1.000000000000000000, 0.000000000000000000, 0.000000000000000000 ) ;
#185 = ORIENTED_EDGE ( 'NONE', *, *, #188, .T. ) ;
#186 = CARTESIAN_POINT ( 'NONE',  ( 0.000000000000000000, 0.000000000000000000, 0.000000000000000000 ) ) ;
#187 = FACE_OUTER_BOUND ( 'NONE', #253, .T. ) ;
#188 = EDGE_CURVE ( 'NONE', #34, #245, #238, .T. ) ;
#189 = PRESENTATION_LAYER_ASSIGNMENT (  '', '', ( #217 ) ) ;
#190 =( NAMED_UNIT ( * ) SI_UNIT ( $, .STERADIAN. ) SOLID_ANGLE_UNIT ( ) );
#191 = MECHANICAL_DESIGN_GEOMETRIC_PRESENTATION_REPRESENTATION (  '', ( #208 ), #45 ) ;
#192 = AXIS2_PLACEMENT_3D ( 'NONE', #8, #23, #20 ) ;
#193 = SURFACE_STYLE_FILL_AREA ( #90 ) ;
#194 =( CONVERSION_BASED_UNIT ( 'INCH', #215 ) LENGTH_UNIT ( ) NAMED_UNIT ( #226 ) );
#195 = DIRECTION ( 'NONE',  ( -1.000000000000000000, 0.000000000000000000, 0.000000000000000000 ) ) ;
#196 = AXIS2_PLACEMENT_3D ( 'NONE', #9, #4, #124 ) ;
#197 = PRODUCT_DEFINITION_SHAPE ( 'NONE', 'NONE',  #38 ) ;
#198 = ADVANCED_FACE ( 'NONE', ( #171 ), #263, .T. ) ;
#199 = AXIS2_PLACEMENT_3D ( 'NONE', #65, #305, #257 ) ;
#200 = MECHANICAL_DESIGN_GEOMETRIC_PRESENTATION_REPRESENTATION (  '', ( #242 ), #74 ) ;
#201 = DIRECTION ( 'NONE',  ( -0.000000000000000000, -1.000000000000000000, -0.000000000000000000 ) ) ;
#202 = DIRECTION ( 'NONE',  ( -4.898587196589413075E-17, 1.000000000000000000, -0.000000000000000000 ) ) ;
#203 = LENGTH_MEASURE_WITH_UNIT ( LENGTH_MEASURE( 0.02539999999999999897 ), #224 );
#204 = AXIS2_PLACEMENT_3D ( 'NONE', #62, #235, #41 ) ;
#205 =( NAMED_UNIT ( * ) PLANE_ANGLE_UNIT ( ) SI_UNIT ( $, .RADIAN. ) );
#206 = FILL_AREA_STYLE_COLOUR ( '', #227 ) ;
#207 = CIRCLE ( 'NONE', #204, 0.2500000000000000000 ) ;
#208 = STYLED_ITEM ( 'NONE', ( #55 ), #248 ) ;
#209 = ORIENTED_EDGE ( 'NONE', *, *, #158, .T. ) ;
#210 =( LENGTH_UNIT ( ) NAMED_UNIT ( * ) SI_UNIT ( $, .METRE. ) );
#211 = CARTESIAN_POINT ( 'NONE',  ( 0.2499999999999999167, 5.000000000000000000, 3.061616997868383634E-17 ) ) ;
#212 =( NAMED_UNIT ( * ) PLANE_ANGLE_UNIT ( ) SI_UNIT ( $, .RADIAN. ) );
#213 = PRODUCT_DEFINITION_FORMATION_WITH_SPECIFIED_SOURCE ( 'ANY', '', #72, .NOT_KNOWN. ) ;
#214 = FILL_AREA_STYLE ('',( #236 ) ) ;
#215 = LENGTH_MEASURE_WITH_UNIT ( LENGTH_MEASURE( 0.02539999999999999897 ), #112 );
#216 = SURFACE_STYLE_FILL_AREA ( #219 ) ;
#217 = STYLED_ITEM ( 'NONE', ( #15 ), #69 ) ;
#218 = CIRCLE ( 'NONE', #192, 0.2500000000000000000 ) ;
#219 = FILL_AREA_STYLE ('',( #144 ) ) ;
#220 = ADVANCED_FACE ( 'NONE', ( #266 ), #119, .T. ) ;
#221 = SURFACE_SIDE_STYLE ('',( #284 ) ) ;
#222 = EDGE_CURVE ( 'NONE', #84, #58, #7, .T. ) ;
#223 = ORIENTED_EDGE ( 'NONE', *, *, #114, .F. ) ;
#224 =( LENGTH_UNIT ( ) NAMED_UNIT ( * ) SI_UNIT ( $, .METRE. ) );
#225 = ORIENTED_EDGE ( 'NONE', *, *, #114, .T. ) ;
#226 = DIMENSIONAL_EXPONENTS ( 1.000000000000000000, 0.000000000000000000, 0.000000000000000000, 0.000000000000000000, 0.000000000000000000, 0.000000000000000000, 0.000000000000000000 ) ;
#227 = COLOUR_RGB ( '',0.7921568627450980005, 0.8196078431372548767, 0.9333333333333333481 ) ;
#228 = ORIENTED_EDGE ( 'NONE', *, *, #26, .F. ) ;
#229 = VERTEX_POINT ( 'NONE', #126 ) ;
#230 = DIMENSIONAL_EXPONENTS ( 1.000000000000000000, 0.000000000000000000, 0.000000000000000000, 0.000000000000000000, 0.000000000000000000, 0.000000000000000000, 0.000000000000000000 ) ;
#231 = LINE ( 'NONE', #11, #288 ) ;
#232 = VECTOR ( 'NONE', #116, 39.37007874015748143 ) ;
#233 = CARTESIAN_POINT ( 'NONE',  ( 0.2500000000000000555, 5.000000000000000000, 3.061616997868384251E-17 ) ) ;
#234 = SURFACE_STYLE_FILL_AREA ( #214 ) ;
#235 = DIRECTION ( 'NONE',  ( -0.000000000000000000, -1.000000000000000000, -0.000000000000000000 ) ) ;
#236 = FILL_AREA_STYLE_COLOUR ( '', #155 ) ;
#237 = PRESENTATION_STYLE_ASSIGNMENT (( #121 ) ) ;
#238 = CIRCLE ( 'NONE', #145, 0.2500000000000000000 ) ;
#239 = FILL_AREA_STYLE_COLOUR ( '', #184 ) ;
#240 = DIRECTION ( 'NONE',  ( 0.000000000000000000, 0.000000000000000000, -1.000000000000000000 ) ) ;
#241 = PRODUCT_RELATED_PRODUCT_CATEGORY ( 'part', '', ( #72 ) ) ;
#242 = STYLED_ITEM ( 'NONE', ( #181 ), #250 ) ;
#243 = CYLINDRICAL_SURFACE ( 'NONE', #196, 0.2500000000000000555 ) ;
#244 =( NAMED_UNIT ( * ) SI_UNIT ( $, .STERADIAN. ) SOLID_ANGLE_UNIT ( ) );
#245 = VERTEX_POINT ( 'NONE', #100 ) ;
#246 = EDGE_CURVE ( 'NONE', #58, #84, #218, .T. ) ;
#247 = DIRECTION ( 'NONE',  ( -4.898587196589412459E-17, 1.000000000000000000, -0.000000000000000000 ) ) ;
#248 = MANIFOLD_SOLID_BREP ( 'Revolve - Cutting Edge', #299 ) ;
#249 = DIRECTION ( 'NONE',  ( 0.000000000000000000, 0.000000000000000000, 1.000000000000000000 ) ) ;
#250 = MANIFOLD_SOLID_BREP ( 'Revolve - Tool Body (Straight Shanked)', #122 ) ;
#251 = PRESENTATION_LAYER_ASSIGNMENT (  '', '', ( #242 ) ) ;
#252 = ORIENTED_EDGE ( 'NONE', *, *, #26, .T. ) ;
#253 = EDGE_LOOP ( 'NONE', ( #292, #83 ) ) ;
#254 =( GEOMETRIC_REPRESENTATION_CONTEXT ( 3 ) GLOBAL_UNCERTAINTY_ASSIGNED_CONTEXT ( ( #30 ) ) GLOBAL_UNIT_ASSIGNED_CONTEXT ( ( #127, #29, #244 ) ) REPRESENTATION_CONTEXT ( 'NONE', 'WORKASPACE' ) );
#255 = FACE_OUTER_BOUND ( 'NONE', #268, .T. ) ;
#256 = PLANE ( 'NONE',  #199 ) ;
#257 = DIRECTION ( 'NONE',  ( 1.000000000000000000, 4.898587196589412459E-17, 0.000000000000000000 ) ) ;
#258 = EDGE_CURVE ( 'NONE', #177, #58, #298, .T. ) ;
#259 = PRODUCT_DEFINITION_CONTEXT ( 'detailed design', #47, 'design' ) ;
#260 = DIRECTION ( 'NONE',  ( -0.000000000000000000, -1.000000000000000000, -0.000000000000000000 ) ) ;
#261 =( NAMED_UNIT ( * ) SI_UNIT ( $, .STERADIAN. ) SOLID_ANGLE_UNIT ( ) );
#262 = CARTESIAN_POINT ( 'NONE',  ( 0.000000000000000000, 0.000000000000000000, 0.000000000000000000 ) ) ;
#263 = PLANE ( 'NONE',  #32 ) ;
#264 = AXIS2_PLACEMENT_3D ( 'NONE', #272, #202, #27 ) ;
#265 = PRESENTATION_LAYER_ASSIGNMENT (  '', '', ( #208 ) ) ;
#266 = FACE_OUTER_BOUND ( 'NONE', #157, .T. ) ;
#267 = DIMENSIONAL_EXPONENTS ( 1.000000000000000000, 0.000000000000000000, 0.000000000000000000, 0.000000000000000000, 0.000000000000000000, 0.000000000000000000, 0.000000000000000000 ) ;
#268 = EDGE_LOOP ( 'NONE', ( #103, #60 ) ) ;
#269 = CARTESIAN_POINT ( 'NONE',  ( 3.061616997868383018E-17, 0.000000000000000000, 0.2500000000000000000 ) ) ;
#270 = PRESENTATION_LAYER_ASSIGNMENT (  '', '', ( #37 ) ) ;
#271 = DIRECTION ( 'NONE',  ( 0.000000000000000000, 0.000000000000000000, -1.000000000000000000 ) ) ;
#272 = CARTESIAN_POINT ( 'NONE',  ( 1.516480271171051896E-32, 2.500000000000000000, 0.000000000000000000 ) ) ;
#273 =( NAMED_UNIT ( * ) SI_UNIT ( $, .STERADIAN. ) SOLID_ANGLE_UNIT ( ) );
#274 = DIRECTION ( 'NONE',  ( -0.000000000000000000, -1.000000000000000000, -0.000000000000000000 ) ) ;
#275 = EDGE_LOOP ( 'NONE', ( #128, #154, #35, #228 ) ) ;
#276 = CARTESIAN_POINT ( 'NONE',  ( -1.224646799147353207E-16, 5.000000000000000000, 0.000000000000000000 ) ) ;
#277 = UNCERTAINTY_MEASURE_WITH_UNIT (LENGTH_MEASURE( 1.000000000000000082E-05 ), #287, 'distance_accuracy_value', 'NONE');
#278 = EDGE_LOOP ( 'NONE', ( #81, #152, #209, #295 ) ) ;
#279 = DIMENSIONAL_EXPONENTS ( 1.000000000000000000, 0.000000000000000000, 0.000000000000000000, 0.000000000000000000, 0.000000000000000000, 0.000000000000000000, 0.000000000000000000 ) ;
#280 = DIRECTION ( 'NONE',  ( 0.000000000000000000, 0.000000000000000000, -1.000000000000000000 ) ) ;
#281 = AXIS2_PLACEMENT_3D ( 'NONE', #25, #291, #271 ) ;
#282 = SURFACE_STYLE_USAGE ( .BOTH. , #135 ) ;
#283 = DIRECTION ( 'NONE',  ( -0.000000000000000000, -1.000000000000000000, -0.000000000000000000 ) ) ;
#284 = SURFACE_STYLE_FILL_AREA ( #19 ) ;
#285 = PRESENTATION_LAYER_ASSIGNMENT (  '', '', ( #300 ) ) ;
#286 = PRESENTATION_STYLE_ASSIGNMENT (( #76 ) ) ;
#287 =( CONVERSION_BASED_UNIT ( 'INCH', #170 ) LENGTH_UNIT ( ) NAMED_UNIT ( #267 ) );
#288 = VECTOR ( 'NONE', #247, 39.37007874015748143 ) ;
#289 = VECTOR ( 'NONE', #125, 39.37007874015748143 ) ;
#290 = CARTESIAN_POINT ( 'NONE',  ( 1.516480271171051896E-32, 2.500000000000000000, 0.000000000000000000 ) ) ;
#291 = DIRECTION ( 'NONE',  ( 0.000000000000000000, -1.000000000000000000, -0.000000000000000000 ) ) ;
#292 = ORIENTED_EDGE ( 'NONE', *, *, #301, .T. ) ;
#293 = EDGE_CURVE ( 'NONE', #132, #229, #115, .T. ) ;
#294 =( CONVERSION_BASED_UNIT ( 'INCH', #203 ) LENGTH_UNIT ( ) NAMED_UNIT ( #59 ) );
#295 = ORIENTED_EDGE ( 'NONE', *, *, #246, .F. ) ;
#296 = ORIENTED_EDGE ( 'NONE', *, *, #54, .F. ) ;
#297 = FILL_AREA_STYLE ('',( #206 ) ) ;
#298 = LINE ( 'NONE', #269, #289 ) ;
#299 = CLOSED_SHELL ( 'NONE', ( #169, #198, #69, #220 ) ) ;
#300 = STYLED_ITEM ( 'NONE', ( #286 ), #198 ) ;
#301 = EDGE_CURVE ( 'NONE', #229, #132, #136, .T. ) ;
#302 = UNCERTAINTY_MEASURE_WITH_UNIT (LENGTH_MEASURE( 1.000000000000000082E-05 ), #173, 'distance_accuracy_value', 'NONE');
#303 = ORIENTED_EDGE ( 'NONE', *, *, #258, .T. ) ;
#304 = CARTESIAN_POINT ( 'NONE',  ( 3.061616997868383018E-17, 0.000000000000000000, 0.2500000000000000000 ) ) ;
#305 = DIRECTION ( 'NONE',  ( 4.898587196589412459E-17, -1.000000000000000000, 0.000000000000000000 ) ) ;
#306 = CARTESIAN_POINT ( 'NONE',  ( 0.000000000000000000, 0.000000000000000000, 0.000000000000000000 ) ) ;
#307 = DIRECTION ( 'NONE',  ( 0.000000000000000000, 0.000000000000000000, -1.000000000000000000 ) ) ;
#308 =( NAMED_UNIT ( * ) SI_UNIT ( $, .STERADIAN. ) SOLID_ANGLE_UNIT ( ) );
#309 =( NAMED_UNIT ( * ) PLANE_ANGLE_UNIT ( ) SI_UNIT ( $, .RADIAN. ) );
ENDSEC;
END-ISO-10303-21;
