ISO-10303-21;
HEADER;
FILE_DESCRIPTION (( 'STEP AP214' ),
    '1' );
FILE_NAME ('Micro_SBM-187-4X.STEP',
    '2021-09-02T17:01:18',
    ( '' ),
    ( '' ),
    'SwSTEP 2.0',
    'SolidWorks 2020',
    '' );
FILE_SCHEMA (( 'AUTOMOTIVE_DESIGN' ));
ENDSEC;

DATA;
#1 = EDGE_CURVE ( 'NONE', #185, #60, #261, .T. ) ;
#2 = PRODUCT_DEFINITION_FORMATION_WITH_SPECIFIED_SOURCE ( 'ANY', '', #120, .NOT_KNOWN. ) ;
#3 = DIRECTION ( 'NONE',  ( 0.0000000000000000000, 1.000000000000000000, 0.0000000000000000000 ) ) ;
#4 = DIRECTION ( 'NONE',  ( -0.0000000000000000000, -0.0000000000000000000, -1.000000000000000000 ) ) ;
#5 = ORIENTED_EDGE ( 'NONE', *, *, #314, .T. ) ;
#6 = AXIS2_PLACEMENT_3D ( 'NONE', #201, #143, #145 ) ;
#7 = EDGE_LOOP ( 'NONE', ( #131, #264, #5, #213 ) ) ;
#8 = AXIS2_PLACEMENT_3D ( 'NONE', #42, #272, #253 ) ;
#9 = FACE_OUTER_BOUND ( 'NONE', #343, .T. ) ;
#10 = DIRECTION ( 'NONE',  ( 0.0000000000000000000, 0.0000000000000000000, 1.000000000000000000 ) ) ;
#11 = VECTOR ( 'NONE', #283, 39.37007874015748143 ) ;
#12 = LINE ( 'NONE', #198, #11 ) ;
#13 = CARTESIAN_POINT ( 'NONE',  ( 0.0000000000000000000, 0.0000000000000000000, 1.199999999999999956 ) ) ;
#14 = DIRECTION ( 'NONE',  ( -0.7071067811865566766, 0.0000000000000000000, -0.7071067811865382469 ) ) ;
#15 = FACE_OUTER_BOUND ( 'NONE', #34, .T. ) ;
#16 = VECTOR ( 'NONE', #214, 39.37007874015747433 ) ;
#17 = DIRECTION ( 'NONE',  ( -1.000000000000000000, 0.0000000000000000000, 0.0000000000000000000 ) ) ;
#18 = ADVANCED_FACE ( 'NONE', ( #33 ), #240, .T. ) ;
#19 = DIRECTION ( 'NONE',  ( 0.0000000000000000000, 0.0000000000000000000, -1.000000000000000000 ) ) ;
#20 = CARTESIAN_POINT ( 'NONE',  ( 0.1100000000000004446, 1.347111479062094019E-17, 3.000000000000000444 ) ) ;
#21 =( CONVERSION_BASED_UNIT ( 'INCH', #76 ) LENGTH_UNIT ( ) NAMED_UNIT ( #54 ) );
#22 = ADVANCED_FACE ( 'NONE', ( #55 ), #319, .T. ) ;
#23 = CIRCLE ( 'NONE', #45, 0.07499999999999998335 ) ;
#24 = DIRECTION ( 'NONE',  ( -0.0000000000000000000, -0.0000000000000000000, -1.000000000000000000 ) ) ;
#25 = SURFACE_STYLE_USAGE ( .BOTH. , #73 ) ;
#26 = DIRECTION ( 'NONE',  ( 1.000000000000000000, 0.0000000000000000000, 0.0000000000000000000 ) ) ;
#27 = ORIENTED_EDGE ( 'NONE', *, *, #330, .T. ) ;
#28 = CIRCLE ( 'NONE', #151, 0.1250000000000000000 ) ;
#29 = ORIENTED_EDGE ( 'NONE', *, *, #265, .T. ) ;
#30 = ORIENTED_EDGE ( 'NONE', *, *, #152, .T. ) ;
#31 = ORIENTED_EDGE ( 'NONE', *, *, #237, .F. ) ;
#32 = ORIENTED_EDGE ( 'NONE', *, *, #79, .T. ) ;
#33 = FACE_OUTER_BOUND ( 'NONE', #205, .T. ) ;
#34 = EDGE_LOOP ( 'NONE', ( #132, #32 ) ) ;
#35 = CARTESIAN_POINT ( 'NONE',  ( -0.07499999999999996947, 0.0000000000000000000, 0.0000000000000000000 ) ) ;
#36 = UNCERTAINTY_MEASURE_WITH_UNIT (LENGTH_MEASURE( 1.000000000000000082E-05 ), #21, 'distance_accuracy_value', 'NONE');
#37 = CARTESIAN_POINT ( 'NONE',  ( 0.0000000000000000000, 0.0000000000000000000, 0.3499999999999999778 ) ) ;
#38 = AXIS2_PLACEMENT_3D ( 'NONE', #94, #68, #328 ) ;
#39 = CARTESIAN_POINT ( 'NONE',  ( 0.0000000000000000000, 0.0000000000000000000, 0.1501332938855878263 ) ) ;
#40 = CARTESIAN_POINT ( 'NONE',  ( -0.1374999999999998446, 1.683889348827608472E-17, 1.412499999999996980 ) ) ;
#41 = LINE ( 'NONE', #100, #208 ) ;
#42 = CARTESIAN_POINT ( 'NONE',  ( 0.0000000000000000000, 0.0000000000000000000, 3.000000000000000444 ) ) ;
#43 = DIRECTION ( 'NONE',  ( 0.0000000000000000000, 1.000000000000000000, 0.0000000000000000000 ) ) ;
#44 = CARTESIAN_POINT ( 'NONE',  ( 0.0000000000000000000, 0.0000000000000000000, 0.09379999999999999449 ) ) ;
#45 = AXIS2_PLACEMENT_3D ( 'NONE', #61, #165, #137 ) ;
#46 = DIRECTION ( 'NONE',  ( 0.0000000000000000000, 0.0000000000000000000, 1.000000000000000000 ) ) ;
#47 = DIRECTION ( 'NONE',  ( 0.0000000000000000000, 0.0000000000000000000, 1.000000000000000000 ) ) ;
#48 = DIRECTION ( 'NONE',  ( 1.000000000000000000, 0.0000000000000000000, 0.0000000000000000000 ) ) ;
#49 = CYLINDRICAL_SURFACE ( 'NONE', #245, 0.07499999999999996947 ) ;
#50 =( LENGTH_UNIT ( ) NAMED_UNIT ( * ) SI_UNIT ( $, .METRE. ) );
#51 = EDGE_CURVE ( 'NONE', #53, #60, #306, .T. ) ;
#52 = ORIENTED_EDGE ( 'NONE', *, *, #238, .F. ) ;
#53 = VERTEX_POINT ( 'NONE', #327 ) ;
#54 = DIMENSIONAL_EXPONENTS ( 1.000000000000000000, 0.0000000000000000000, 0.0000000000000000000, 0.0000000000000000000, 0.0000000000000000000, 0.0000000000000000000, 0.0000000000000000000 ) ;
#55 = FACE_OUTER_BOUND ( 'NONE', #158, .T. ) ;
#56 = EDGE_CURVE ( 'NONE', #318, #211, #194, .T. ) ;
#57 = ORIENTED_EDGE ( 'NONE', *, *, #263, .T. ) ;
#58 = DIRECTION ( 'NONE',  ( -0.0000000000000000000, -0.0000000000000000000, -1.000000000000000000 ) ) ;
#59 = EDGE_CURVE ( 'NONE', #211, #294, #12, .T. ) ;
#60 = VERTEX_POINT ( 'NONE', #124 ) ;
#61 = CARTESIAN_POINT ( 'NONE',  ( 0.0000000000000000000, 0.0000000000000000000, 0.1501332938855878263 ) ) ;
#62 = DIRECTION ( 'NONE',  ( -1.000000000000000000, 0.0000000000000000000, 0.0000000000000000000 ) ) ;
#63 = FACE_OUTER_BOUND ( 'NONE', #84, .T. ) ;
#64 = AXIS2_PLACEMENT_3D ( 'NONE', #37, #93, #334 ) ;
#65 = CIRCLE ( 'NONE', #163, 0.07499999999999995559 ) ;
#66 = SURFACE_STYLE_FILL_AREA ( #101 ) ;
#67 = CIRCLE ( 'NONE', #168, 0.1250000000000000000 ) ;
#68 = DIRECTION ( 'NONE',  ( 0.0000000000000000000, 0.0000000000000000000, -1.000000000000000000 ) ) ;
#69 = FILL_AREA_STYLE_COLOUR ( '', #339 ) ;
#70 = CLOSED_SHELL ( 'NONE', ( #22, #18, #290, #333, #187, #174, #323, #178, #197, #95, #199 ) ) ;
#71 = EDGE_CURVE ( 'NONE', #88, #185, #262, .T. ) ;
#72 = PRESENTATION_STYLE_ASSIGNMENT (( #140 ) ) ;
#73 = SURFACE_SIDE_STYLE ('',( #227 ) ) ;
#74 = CIRCLE ( 'NONE', #230, 0.1250000000000000000 ) ;
#75 = DIRECTION ( 'NONE',  ( 0.0000000000000000000, 0.0000000000000000000, 1.000000000000000000 ) ) ;
#76 = LENGTH_MEASURE_WITH_UNIT ( LENGTH_MEASURE( 0.02539999999999999897 ), #50 );
#77 = CYLINDRICAL_SURFACE ( 'NONE', #96, 0.1250000000000000000 ) ;
#78 = CARTESIAN_POINT ( 'NONE',  ( 0.0000000000000000000, 0.07499999999999998335, 0.1501332938855878263 ) ) ;
#79 = EDGE_CURVE ( 'NONE', #321, #318, #130, .T. ) ;
#80 = CIRCLE ( 'NONE', #114, 0.09379999999999999449 ) ;
#81 = MANIFOLD_SOLID_BREP ( 'Cut-Revolve3', #70 ) ;
#82 = CONICAL_SURFACE ( 'NONE', #146, 0.1100000000000004446, 0.7853981633974613796 ) ;
#83 = EDGE_CURVE ( 'NONE', #53, #345, #41, .T. ) ;
#84 = EDGE_LOOP ( 'NONE', ( #164, #189, #109, #192 ) ) ;
#85 = ORIENTED_EDGE ( 'NONE', *, *, #56, .F. ) ;
#86 = ORIENTED_EDGE ( 'NONE', *, *, #136, .T. ) ;
#87 = STYLED_ITEM ( 'NONE', ( #72 ), #81 ) ;
#88 = VERTEX_POINT ( 'NONE', #125 ) ;
#89 = DIRECTION ( 'NONE',  ( 0.0000000000000000000, 0.0000000000000000000, 1.000000000000000000 ) ) ;
#90 = PRODUCT_DEFINITION_SHAPE ( 'NONE', 'NONE',  #108 ) ;
#91 = ORIENTED_EDGE ( 'NONE', *, *, #295, .T. ) ;
#92 = DIRECTION ( 'NONE',  ( 1.000000000000000000, 1.224646799147353207E-16, -0.0000000000000000000 ) ) ;
#93 = DIRECTION ( 'NONE',  ( -0.0000000000000000000, -0.0000000000000000000, -1.000000000000000000 ) ) ;
#94 = CARTESIAN_POINT ( 'NONE',  ( 0.0000000000000000000, 0.0000000000000000000, 3.000000000000000444 ) ) ;
#95 = ADVANCED_FACE ( 'NONE', ( #98 ), #281, .T. ) ;
#96 = AXIS2_PLACEMENT_3D ( 'NONE', #288, #24, #150 ) ;
#97 = CARTESIAN_POINT ( 'NONE',  ( 0.1250000000000000000, 1.530808498934191201E-17, 1.199999999999999956 ) ) ;
#98 = FACE_OUTER_BOUND ( 'NONE', #236, .T. ) ;
#99 = DIRECTION ( 'NONE',  ( -0.0000000000000000000, -0.0000000000000000000, -1.000000000000000000 ) ) ;
#100 = CARTESIAN_POINT ( 'NONE',  ( 0.1374999999999998446, 0.0000000000000000000, 1.412499999999996980 ) ) ;
#101 = FILL_AREA_STYLE ('',( #69 ) ) ;
#102 = VECTOR ( 'NONE', #126, 39.37007874015748854 ) ;
#103 = DIRECTION ( 'NONE',  ( 0.0000000000000000000, 0.0000000000000000000, -1.000000000000000000 ) ) ;
#104 = DIRECTION ( 'NONE',  ( -1.000000000000000000, 0.0000000000000000000, 0.0000000000000000000 ) ) ;
#105 = ORIENTED_EDGE ( 'NONE', *, *, #338, .T. ) ;
#106 = APPLICATION_CONTEXT ( 'automotive_design' ) ;
#107 = ORIENTED_EDGE ( 'NONE', *, *, #265, .F. ) ;
#108 = PRODUCT_DEFINITION ( 'UNKNOWN', '', #2, #117 ) ;
#109 = ORIENTED_EDGE ( 'NONE', *, *, #314, .F. ) ;
#110 = ORIENTED_EDGE ( 'NONE', *, *, #71, .T. ) ;
#111 = AXIS2_PLACEMENT_3D ( 'NONE', #134, #268, #3 ) ;
#112 = ORIENTED_EDGE ( 'NONE', *, *, #248, .T. ) ;
#113 = VERTEX_POINT ( 'NONE', #326 ) ;
#114 = AXIS2_PLACEMENT_3D ( 'NONE', #142, #92, #147 ) ;
#115 = ORIENTED_EDGE ( 'NONE', *, *, #263, .F. ) ;
#116 = LINE ( 'NONE', #40, #16 ) ;
#117 = PRODUCT_DEFINITION_CONTEXT ( 'detailed design', #184, 'design' ) ;
#118 = DIRECTION ( 'NONE',  ( -0.0000000000000000000, -0.0000000000000000000, -1.000000000000000000 ) ) ;
#119 = CARTESIAN_POINT ( 'NONE',  ( 0.0000000000000000000, 5.743593488001086766E-18, 0.0000000000000000000 ) ) ;
#120 = PRODUCT ( 'Micro_SBM-187-4X', 'Micro_SBM-187-4X', '', ( #181 ) ) ;
#121 = CARTESIAN_POINT ( 'NONE',  ( 0.0000000000000000000, 0.0000000000000000000, 2.985000000000001208 ) ) ;
#122 = SURFACE_SIDE_STYLE ('',( #66 ) ) ;
#123 = AXIS2_PLACEMENT_3D ( 'NONE', #284, #257, #203 ) ;
#124 = CARTESIAN_POINT ( 'NONE',  ( 0.07499999999999998335, 9.184850993605147205E-18, 0.1501332938855878263 ) ) ;
#125 = CARTESIAN_POINT ( 'NONE',  ( -0.07499999999999998335, 0.0000000000000000000, 0.1501332938855878263 ) ) ;
#126 = DIRECTION ( 'NONE',  ( 0.7071067811865566766, 8.659560562355046257E-17, -0.7071067811865382469 ) ) ;
#127 = FILL_AREA_STYLE ('',( #154 ) ) ;
#128 = FACE_OUTER_BOUND ( 'NONE', #209, .T. ) ;
#129 = AXIS2_PLACEMENT_3D ( 'NONE', #269, #4, #148 ) ;
#130 = CIRCLE ( 'NONE', #141, 0.1100000000000004446 ) ;
#131 = ORIENTED_EDGE ( 'NONE', *, *, #341, .T. ) ;
#132 = ORIENTED_EDGE ( 'NONE', *, *, #238, .T. ) ;
#133 = CIRCLE ( 'NONE', #310, 0.1250000000000000000 ) ;
#134 = CARTESIAN_POINT ( 'NONE',  ( 0.0000000000000000000, 0.0000000000000000000, 0.09379999999999999449 ) ) ;
#135 = ORIENTED_EDGE ( 'NONE', *, *, #51, .T. ) ;
#136 = EDGE_CURVE ( 'NONE', #53, #113, #317, .T. ) ;
#137 = DIRECTION ( 'NONE',  ( -1.000000000000000000, 0.0000000000000000000, 0.0000000000000000000 ) ) ;
#138 = CIRCLE ( 'NONE', #215, 0.09379999999999999449 ) ;
#139 =( CONVERSION_BASED_UNIT ( 'INCH', #274 ) LENGTH_UNIT ( ) NAMED_UNIT ( #206 ) );
#140 = SURFACE_STYLE_USAGE ( .BOTH. , #122 ) ;
#141 = AXIS2_PLACEMENT_3D ( 'NONE', #332, #46, #254 ) ;
#142 = CARTESIAN_POINT ( 'NONE',  ( 0.0000000000000000000, 0.0000000000000000000, 0.09379999999999999449 ) ) ;
#143 = DIRECTION ( 'NONE',  ( -0.0000000000000000000, -0.0000000000000000000, -1.000000000000000000 ) ) ;
#144 = LINE ( 'NONE', #35, #336 ) ;
#145 = DIRECTION ( 'NONE',  ( -1.000000000000000000, 0.0000000000000000000, 0.0000000000000000000 ) ) ;
#146 = AXIS2_PLACEMENT_3D ( 'NONE', #177, #259, #286 ) ;
#147 = DIRECTION ( 'NONE',  ( -1.224646799147353207E-16, 1.000000000000000000, 0.0000000000000000000 ) ) ;
#148 = DIRECTION ( 'NONE',  ( -1.000000000000000000, 0.0000000000000000000, 0.0000000000000000000 ) ) ;
#149 = FACE_OUTER_BOUND ( 'NONE', #302, .T. ) ;
#150 = DIRECTION ( 'NONE',  ( -1.000000000000000000, 0.0000000000000000000, 0.0000000000000000000 ) ) ;
#151 = AXIS2_PLACEMENT_3D ( 'NONE', #249, #307, #225 ) ;
#152 = EDGE_CURVE ( 'NONE', #298, #88, #166, .T. ) ;
#153 = DIRECTION ( 'NONE',  ( -0.0000000000000000000, -0.0000000000000000000, -1.000000000000000000 ) ) ;
#154 = FILL_AREA_STYLE_COLOUR ( '', #329 ) ;
#155 = ORIENTED_EDGE ( 'NONE', *, *, #83, .T. ) ;
#156 = PRESENTATION_LAYER_ASSIGNMENT (  '', '', ( #87 ) ) ;
#157 = AXIS2_PLACEMENT_3D ( 'NONE', #292, #47, #26 ) ;
#158 = EDGE_LOOP ( 'NONE', ( #300, #135, #271, #296, #324 ) ) ;
#159 = ORIENTED_EDGE ( 'NONE', *, *, #341, .F. ) ;
#160 = ORIENTED_EDGE ( 'NONE', *, *, #79, .F. ) ;
#161 = VECTOR ( 'NONE', #153, 39.37007874015748143 ) ;
#162 = CARTESIAN_POINT ( 'NONE',  ( 0.0000000000000000000, 0.0000000000000000000, 0.1501332938855878263 ) ) ;
#163 = AXIS2_PLACEMENT_3D ( 'NONE', #252, #118, #17 ) ;
#164 = ORIENTED_EDGE ( 'NONE', *, *, #171, .F. ) ;
#165 = DIRECTION ( 'NONE',  ( -0.0000000000000000000, -0.0000000000000000000, -1.000000000000000000 ) ) ;
#166 = CIRCLE ( 'NONE', #6, 0.07499999999999998335 ) ;
#167 =( LENGTH_UNIT ( ) NAMED_UNIT ( * ) SI_UNIT ( $, .METRE. ) );
#168 = AXIS2_PLACEMENT_3D ( 'NONE', #231, #103, #313 ) ;
#169 =( NAMED_UNIT ( * ) PLANE_ANGLE_UNIT ( ) SI_UNIT ( $, .RADIAN. ) );
#170 = DIRECTION ( 'NONE',  ( 1.000000000000000000, 0.0000000000000000000, 0.0000000000000000000 ) ) ;
#171 = EDGE_CURVE ( 'NONE', #113, #53, #65, .T. ) ;
#172 =( CONVERSION_BASED_UNIT ( 'INCH', #221 ) LENGTH_UNIT ( ) NAMED_UNIT ( #316 ) );
#173 = PLANE ( 'NONE',  #8 ) ;
#174 = ADVANCED_FACE ( 'NONE', ( #9 ), #246, .T. ) ;
#175 = CARTESIAN_POINT ( 'NONE',  ( 0.0000000000000000000, 0.0000000000000000000, 0.09379999999999999449 ) ) ;
#176 = LINE ( 'NONE', #20, #102 ) ;
#177 = CARTESIAN_POINT ( 'NONE',  ( 0.0000000000000000000, 0.0000000000000000000, 3.000000000000000444 ) ) ;
#178 = ADVANCED_FACE ( 'NONE', ( #204 ), #82, .T. ) ;
#179 = FACE_OUTER_BOUND ( 'NONE', #7, .T. ) ;
#180 = SHAPE_DEFINITION_REPRESENTATION ( #90, #293 ) ;
#181 = PRODUCT_CONTEXT ( 'NONE', #106, 'mechanical' ) ;
#182 = VERTEX_POINT ( 'NONE', #315 ) ;
#183 = CONICAL_SURFACE ( 'NONE', #38, 0.1100000000000004446, 0.7853981633974613796 ) ;
#184 = APPLICATION_CONTEXT ( 'automotive_design' ) ;
#185 = VERTEX_POINT ( 'NONE', #78 ) ;
#186 = EDGE_LOOP ( 'NONE', ( #344, #52, #235, #270 ) ) ;
#187 = ADVANCED_FACE ( 'NONE', ( #179 ), #77, .T. ) ;
#188 = MECHANICAL_DESIGN_GEOMETRIC_PRESENTATION_REPRESENTATION (  '', ( #87 ), #273 ) ;
#189 = ORIENTED_EDGE ( 'NONE', *, *, #255, .T. ) ;
#190 = ORIENTED_EDGE ( 'NONE', *, *, #255, .F. ) ;
#191 = DIRECTION ( 'NONE',  ( -1.000000000000000000, 0.0000000000000000000, 0.0000000000000000000 ) ) ;
#192 = ORIENTED_EDGE ( 'NONE', *, *, #83, .F. ) ;
#193 = CARTESIAN_POINT ( 'NONE',  ( 0.1100000000000004446, 1.438959988998142687E-17, 3.000000000000000444 ) ) ;
#194 = LINE ( 'NONE', #228, #325 ) ;
#195 = AXIS2_PLACEMENT_3D ( 'NONE', #175, #170, #43 ) ;
#196 =( NAMED_UNIT ( * ) SI_UNIT ( $, .STERADIAN. ) SOLID_ANGLE_UNIT ( ) );
#197 = ADVANCED_FACE ( 'NONE', ( #128 ), #342, .T. ) ;
#198 = CARTESIAN_POINT ( 'NONE',  ( -0.1250000000000000000, 0.0000000000000000000, 3.000000000000000444 ) ) ;
#199 = ADVANCED_FACE ( 'NONE', ( #149 ), #49, .T. ) ;
#200 = MECHANICAL_DESIGN_GEOMETRIC_PRESENTATION_REPRESENTATION (  '', ( #282 ), #223 ) ;
#201 = CARTESIAN_POINT ( 'NONE',  ( 0.0000000000000000000, 0.0000000000000000000, 0.1501332938855878263 ) ) ;
#202 = CARTESIAN_POINT ( 'NONE',  ( 0.1250000000000000000, 1.530808498934191201E-17, 3.000000000000000444 ) ) ;
#203 = DIRECTION ( 'NONE',  ( 1.000000000000000000, 0.0000000000000000000, 0.0000000000000000000 ) ) ;
#204 = FACE_OUTER_BOUND ( 'NONE', #186, .T. ) ;
#205 = EDGE_LOOP ( 'NONE', ( #267, #105, #57, #239 ) ) ;
#206 = DIMENSIONAL_EXPONENTS ( 1.000000000000000000, 0.0000000000000000000, 0.0000000000000000000, 0.0000000000000000000, 0.0000000000000000000, 0.0000000000000000000, 0.0000000000000000000 ) ;
#207 = ORIENTED_EDGE ( 'NONE', *, *, #152, .F. ) ;
#208 = VECTOR ( 'NONE', #309, 39.37007874015747433 ) ;
#209 = EDGE_LOOP ( 'NONE', ( #190, #234, #155, #107 ) ) ;
#210 = CIRCLE ( 'NONE', #291, 0.1100000000000004446 ) ;
#211 = VERTEX_POINT ( 'NONE', #311 ) ;
#212 = DIRECTION ( 'NONE',  ( -1.000000000000000000, 0.0000000000000000000, 0.0000000000000000000 ) ) ;
#213 = ORIENTED_EDGE ( 'NONE', *, *, #59, .F. ) ;
#214 = DIRECTION ( 'NONE',  ( -0.05872202195147040865, 7.191373622232884802E-18, 0.9982743731749960103 ) ) ;
#215 = AXIS2_PLACEMENT_3D ( 'NONE', #44, #191, #10 ) ;
#216 = EDGE_LOOP ( 'NONE', ( #160, #299, #159, #85 ) ) ;
#217 = CARTESIAN_POINT ( 'NONE',  ( -0.1250000000000000000, 0.0000000000000000000, 1.199999999999999956 ) ) ;
#218 = AXIS2_PLACEMENT_3D ( 'NONE', #219, #303, #104 ) ;
#219 = CARTESIAN_POINT ( 'NONE',  ( 0.0000000000000000000, 0.0000000000000000000, 3.000000000000000444 ) ) ;
#220 = UNCERTAINTY_MEASURE_WITH_UNIT (LENGTH_MEASURE( 1.000000000000000082E-05 ), #139, 'distance_accuracy_value', 'NONE');
#221 = LENGTH_MEASURE_WITH_UNIT ( LENGTH_MEASURE( 0.02539999999999999897 ), #224 );
#222 = DIRECTION ( 'NONE',  ( 1.000000000000000000, 0.0000000000000000000, 0.0000000000000000000 ) ) ;
#223 =( GEOMETRIC_REPRESENTATION_CONTEXT ( 3 ) GLOBAL_UNCERTAINTY_ASSIGNED_CONTEXT ( ( #36 ) ) GLOBAL_UNIT_ASSIGNED_CONTEXT ( ( #21, #312, #335 ) ) REPRESENTATION_CONTEXT ( 'NONE', 'WORKASPACE' ) );
#224 =( LENGTH_UNIT ( ) NAMED_UNIT ( * ) SI_UNIT ( $, .METRE. ) );
#225 = DIRECTION ( 'NONE',  ( 1.000000000000000000, 0.0000000000000000000, 0.0000000000000000000 ) ) ;
#226 = DIRECTION ( 'NONE',  ( -0.0000000000000000000, -0.0000000000000000000, -1.000000000000000000 ) ) ;
#227 = SURFACE_STYLE_FILL_AREA ( #127 ) ;
#228 = CARTESIAN_POINT ( 'NONE',  ( -0.1100000000000004446, 0.0000000000000000000, 3.000000000000000444 ) ) ;
#229 = PRODUCT_RELATED_PRODUCT_CATEGORY ( 'part', '', ( #120 ) ) ;
#230 = AXIS2_PLACEMENT_3D ( 'NONE', #121, #19, #243 ) ;
#231 = CARTESIAN_POINT ( 'NONE',  ( 0.0000000000000000000, 0.0000000000000000000, 2.985000000000001208 ) ) ;
#232 = CARTESIAN_POINT ( 'NONE',  ( 0.0000000000000000000, 0.0000000000000000000, 0.0000000000000000000 ) ) ;
#233 = AXIS2_PLACEMENT_3D ( 'NONE', #322, #89, #222 ) ;
#234 = ORIENTED_EDGE ( 'NONE', *, *, #136, .F. ) ;
#235 = ORIENTED_EDGE ( 'NONE', *, *, #56, .T. ) ;
#236 = EDGE_LOOP ( 'NONE', ( #115, #30, #110, #91 ) ) ;
#237 = EDGE_CURVE ( 'NONE', #182, #345, #340, .T. ) ;
#238 = EDGE_CURVE ( 'NONE', #318, #321, #210, .T. ) ;
#239 = ORIENTED_EDGE ( 'NONE', *, *, #295, .F. ) ;
#240 = SPHERICAL_SURFACE ( 'NONE', #111, 0.09379999999999999449 ) ;
#241 = ORIENTED_EDGE ( 'NONE', *, *, #338, .F. ) ;
#242 = ORIENTED_EDGE ( 'NONE', *, *, #59, .T. ) ;
#243 = DIRECTION ( 'NONE',  ( 1.000000000000000000, 0.0000000000000000000, 0.0000000000000000000 ) ) ;
#244 = EDGE_CURVE ( 'NONE', #321, #182, #176, .T. ) ;
#245 = AXIS2_PLACEMENT_3D ( 'NONE', #232, #337, #256 ) ;
#246 = CYLINDRICAL_SURFACE ( 'NONE', #218, 0.1250000000000000000 ) ;
#247 =( NAMED_UNIT ( * ) PLANE_ANGLE_UNIT ( ) SI_UNIT ( $, .RADIAN. ) );
#248 = EDGE_CURVE ( 'NONE', #182, #211, #67, .T. ) ;
#249 = CARTESIAN_POINT ( 'NONE',  ( 0.0000000000000000000, 0.0000000000000000000, 1.199999999999999956 ) ) ;
#250 = CARTESIAN_POINT ( 'NONE',  ( 0.07499999999999996947, 9.184850993605145664E-18, 0.0000000000000000000 ) ) ;
#251 = FACE_OUTER_BOUND ( 'NONE', #216, .T. ) ;
#252 = CARTESIAN_POINT ( 'NONE',  ( 0.0000000000000000000, 0.0000000000000000000, 0.3499999999999999778 ) ) ;
#253 = DIRECTION ( 'NONE',  ( 1.000000000000000000, 0.0000000000000000000, -0.0000000000000000000 ) ) ;
#254 = DIRECTION ( 'NONE',  ( 1.000000000000000000, 0.0000000000000000000, 0.0000000000000000000 ) ) ;
#255 = EDGE_CURVE ( 'NONE', #113, #294, #116, .T. ) ;
#256 = DIRECTION ( 'NONE',  ( -1.000000000000000000, 0.0000000000000000000, 0.0000000000000000000 ) ) ;
#257 = DIRECTION ( 'NONE',  ( 0.0000000000000000000, 0.0000000000000000000, 1.000000000000000000 ) ) ;
#258 = PRESENTATION_LAYER_ASSIGNMENT (  '', '', ( #282 ) ) ;
#259 = DIRECTION ( 'NONE',  ( 0.0000000000000000000, 0.0000000000000000000, -1.000000000000000000 ) ) ;
#260 = CARTESIAN_POINT ( 'NONE',  ( 0.0000000000000000000, 0.0000000000000000000, 3.000000000000000444 ) ) ;
#261 = CIRCLE ( 'NONE', #297, 0.07499999999999998335 ) ;
#262 = CIRCLE ( 'NONE', #285, 0.07499999999999998335 ) ;
#263 = EDGE_CURVE ( 'NONE', #298, #320, #80, .T. ) ;
#264 = ORIENTED_EDGE ( 'NONE', *, *, #237, .T. ) ;
#265 = EDGE_CURVE ( 'NONE', #294, #345, #28, .T. ) ;
#266 = ORIENTED_EDGE ( 'NONE', *, *, #51, .F. ) ;
#267 = ORIENTED_EDGE ( 'NONE', *, *, #1, .T. ) ;
#268 = DIRECTION ( 'NONE',  ( 1.000000000000000000, 0.0000000000000000000, 0.0000000000000000000 ) ) ;
#269 = CARTESIAN_POINT ( 'NONE',  ( 0.0000000000000000000, 0.0000000000000000000, 0.0000000000000000000 ) ) ;
#270 = ORIENTED_EDGE ( 'NONE', *, *, #248, .F. ) ;
#271 = ORIENTED_EDGE ( 'NONE', *, *, #1, .F. ) ;
#272 = DIRECTION ( 'NONE',  ( 0.0000000000000000000, 0.0000000000000000000, 1.000000000000000000 ) ) ;
#273 =( GEOMETRIC_REPRESENTATION_CONTEXT ( 3 ) GLOBAL_UNCERTAINTY_ASSIGNED_CONTEXT ( ( #275 ) ) GLOBAL_UNIT_ASSIGNED_CONTEXT ( ( #172, #169, #308 ) ) REPRESENTATION_CONTEXT ( 'NONE', 'WORKASPACE' ) );
#274 = LENGTH_MEASURE_WITH_UNIT ( LENGTH_MEASURE( 0.02539999999999999897 ), #167 );
#275 = UNCERTAINTY_MEASURE_WITH_UNIT (LENGTH_MEASURE( 1.000000000000000082E-05 ), #172, 'distance_accuracy_value', 'NONE');
#276 =( GEOMETRIC_REPRESENTATION_CONTEXT ( 3 ) GLOBAL_UNCERTAINTY_ASSIGNED_CONTEXT ( ( #220 ) ) GLOBAL_UNIT_ASSIGNED_CONTEXT ( ( #139, #247, #196 ) ) REPRESENTATION_CONTEXT ( 'NONE', 'WORKASPACE' ) );
#277 = DIRECTION ( 'NONE',  ( -0.0000000000000000000, -0.0000000000000000000, -1.000000000000000000 ) ) ;
#278 = CARTESIAN_POINT ( 'NONE',  ( -0.1100000000000004446, 0.0000000000000000000, 3.000000000000000444 ) ) ;
#279 = VECTOR ( 'NONE', #277, 39.37007874015748143 ) ;
#280 = APPLICATION_PROTOCOL_DEFINITION ( 'draft international standard', 'automotive_design', 1998, #106 ) ;
#281 = SPHERICAL_SURFACE ( 'NONE', #195, 0.09379999999999999449 ) ;
#282 = STYLED_ITEM ( 'NONE', ( #289 ), #293 ) ;
#283 = DIRECTION ( 'NONE',  ( -0.0000000000000000000, -0.0000000000000000000, -1.000000000000000000 ) ) ;
#284 = CARTESIAN_POINT ( 'NONE',  ( 0.0000000000000000000, 0.0000000000000000000, 0.0000000000000000000 ) ) ;
#285 = AXIS2_PLACEMENT_3D ( 'NONE', #39, #226, #62 ) ;
#286 = DIRECTION ( 'NONE',  ( -1.000000000000000000, 0.0000000000000000000, 0.0000000000000000000 ) ) ;
#287 = APPLICATION_PROTOCOL_DEFINITION ( 'draft international standard', 'automotive_design', 1998, #184 ) ;
#288 = CARTESIAN_POINT ( 'NONE',  ( 0.0000000000000000000, 0.0000000000000000000, 3.000000000000000444 ) ) ;
#289 = PRESENTATION_STYLE_ASSIGNMENT (( #25 ) ) ;
#290 = ADVANCED_FACE ( 'NONE', ( #63 ), #305, .T. ) ;
#291 = AXIS2_PLACEMENT_3D ( 'NONE', #260, #75, #48 ) ;
#292 = CARTESIAN_POINT ( 'NONE',  ( 0.0000000000000000000, 0.0000000000000000000, 1.412499999999996980 ) ) ;
#293 = ADVANCED_BREP_SHAPE_REPRESENTATION ( 'Micro_SBM-187-4X', ( #81, #123 ), #276 ) ;
#294 = VERTEX_POINT ( 'NONE', #217 ) ;
#295 = EDGE_CURVE ( 'NONE', #185, #320, #138, .T. ) ;
#296 = ORIENTED_EDGE ( 'NONE', *, *, #71, .F. ) ;
#297 = AXIS2_PLACEMENT_3D ( 'NONE', #162, #58, #212 ) ;
#298 = VERTEX_POINT ( 'NONE', #304 ) ;
#299 = ORIENTED_EDGE ( 'NONE', *, *, #244, .T. ) ;
#300 = ORIENTED_EDGE ( 'NONE', *, *, #171, .T. ) ;
#301 = DIRECTION ( 'NONE',  ( 0.0000000000000000000, 0.0000000000000000000, 1.000000000000000000 ) ) ;
#302 = EDGE_LOOP ( 'NONE', ( #266, #86, #27, #207, #241 ) ) ;
#303 = DIRECTION ( 'NONE',  ( -0.0000000000000000000, -0.0000000000000000000, -1.000000000000000000 ) ) ;
#304 = CARTESIAN_POINT ( 'NONE',  ( 9.184850993605145664E-18, -0.07499999999999998335, 0.1501332938855878263 ) ) ;
#305 = CONICAL_SURFACE ( 'NONE', #233, 0.1374999999999998446, 0.05875582271572274418 ) ;
#306 = LINE ( 'NONE', #250, #279 ) ;
#307 = DIRECTION ( 'NONE',  ( 0.0000000000000000000, 0.0000000000000000000, 1.000000000000000000 ) ) ;
#308 =( NAMED_UNIT ( * ) SI_UNIT ( $, .STERADIAN. ) SOLID_ANGLE_UNIT ( ) );
#309 = DIRECTION ( 'NONE',  ( 0.05872202195147040865, 0.0000000000000000000, 0.9982743731749960103 ) ) ;
#310 = AXIS2_PLACEMENT_3D ( 'NONE', #13, #301, #331 ) ;
#311 = CARTESIAN_POINT ( 'NONE',  ( -0.1250000000000000000, 0.0000000000000000000, 2.985000000000001208 ) ) ;
#312 =( NAMED_UNIT ( * ) PLANE_ANGLE_UNIT ( ) SI_UNIT ( $, .RADIAN. ) );
#313 = DIRECTION ( 'NONE',  ( 1.000000000000000000, 0.0000000000000000000, 0.0000000000000000000 ) ) ;
#314 = EDGE_CURVE ( 'NONE', #345, #294, #133, .T. ) ;
#315 = CARTESIAN_POINT ( 'NONE',  ( 0.1250000000000000000, 1.530808498934191201E-17, 2.985000000000001208 ) ) ;
#316 = DIMENSIONAL_EXPONENTS ( 1.000000000000000000, 0.0000000000000000000, 0.0000000000000000000, 0.0000000000000000000, 0.0000000000000000000, 0.0000000000000000000, 0.0000000000000000000 ) ;
#317 = CIRCLE ( 'NONE', #64, 0.07499999999999995559 ) ;
#318 = VERTEX_POINT ( 'NONE', #278 ) ;
#319 = CYLINDRICAL_SURFACE ( 'NONE', #129, 0.07499999999999996947 ) ;
#320 = VERTEX_POINT ( 'NONE', #119 ) ;
#321 = VERTEX_POINT ( 'NONE', #193 ) ;
#322 = CARTESIAN_POINT ( 'NONE',  ( 0.0000000000000000000, 0.0000000000000000000, 1.412499999999996980 ) ) ;
#323 = ADVANCED_FACE ( 'NONE', ( #15 ), #173, .T. ) ;
#324 = ORIENTED_EDGE ( 'NONE', *, *, #330, .F. ) ;
#325 = VECTOR ( 'NONE', #14, 39.37007874015748854 ) ;
#326 = CARTESIAN_POINT ( 'NONE',  ( -0.07499999999999995559, 1.224646799147352807E-17, 0.3499999999999999778 ) ) ;
#327 = CARTESIAN_POINT ( 'NONE',  ( 0.07499999999999995559, 0.0000000000000000000, 0.3499999999999999778 ) ) ;
#328 = DIRECTION ( 'NONE',  ( -1.000000000000000000, 0.0000000000000000000, 0.0000000000000000000 ) ) ;
#329 = COLOUR_RGB ( '',0.7921568627450980005, 0.8196078431372548767, 0.9333333333333333481 ) ;
#330 = EDGE_CURVE ( 'NONE', #113, #88, #144, .T. ) ;
#331 = DIRECTION ( 'NONE',  ( 1.000000000000000000, 0.0000000000000000000, 0.0000000000000000000 ) ) ;
#332 = CARTESIAN_POINT ( 'NONE',  ( 0.0000000000000000000, 0.0000000000000000000, 3.000000000000000444 ) ) ;
#333 = ADVANCED_FACE ( 'NONE', ( #251 ), #183, .T. ) ;
#334 = DIRECTION ( 'NONE',  ( -1.000000000000000000, 0.0000000000000000000, 0.0000000000000000000 ) ) ;
#335 =( NAMED_UNIT ( * ) SI_UNIT ( $, .STERADIAN. ) SOLID_ANGLE_UNIT ( ) );
#336 = VECTOR ( 'NONE', #99, 39.37007874015748143 ) ;
#337 = DIRECTION ( 'NONE',  ( -0.0000000000000000000, -0.0000000000000000000, -1.000000000000000000 ) ) ;
#338 = EDGE_CURVE ( 'NONE', #60, #298, #23, .T. ) ;
#339 = COLOUR_RGB ( '',0.7921568627450980005, 0.8196078431372548767, 0.9333333333333333481 ) ;
#340 = LINE ( 'NONE', #202, #161 ) ;
#341 = EDGE_CURVE ( 'NONE', #211, #182, #74, .T. ) ;
#342 = CONICAL_SURFACE ( 'NONE', #157, 0.1374999999999998446, 0.05875582271572274418 ) ;
#343 = EDGE_LOOP ( 'NONE', ( #31, #112, #242, #29 ) ) ;
#344 = ORIENTED_EDGE ( 'NONE', *, *, #244, .F. ) ;
#345 = VERTEX_POINT ( 'NONE', #97 ) ;
ENDSEC;
END-ISO-10303-21;
