ISO-10303-21;
HEADER;
FILE_DESCRIPTION (( 'STEP AP214' ),
    '1' );
FILE_NAME ('Micro_BMS-033-2X.STEP',
    '2021-09-03T15:14:06',
    ( '' ),
    ( '' ),
    'SwSTEP 2.0',
    'SolidWorks 2020',
    '' );
FILE_SCHEMA (( 'AUTOMOTIVE_DESIGN' ));
ENDSEC;

DATA;
#1 = FILL_AREA_STYLE ('',( #212 ) ) ;
#2 = EDGE_LOOP ( 'NONE', ( #298, #318, #190, #230 ) ) ;
#3 = APPLICATION_PROTOCOL_DEFINITION ( 'draft international standard', 'automotive_design', 1998, #22 ) ;
#4 = DIRECTION ( 'NONE',  ( -1.224646799147353454E-16, -0.0000000000000000000, -1.000000000000000000 ) ) ;
#5 =( NAMED_UNIT ( * ) PLANE_ANGLE_UNIT ( ) SI_UNIT ( $, .RADIAN. ) );
#6 = DIRECTION ( 'NONE',  ( 1.000000000000000000, 0.0000000000000000000, 0.0000000000000000000 ) ) ;
#7 = STYLED_ITEM ( 'NONE', ( #188 ), #71 ) ;
#8 = CARTESIAN_POINT ( 'NONE',  ( -0.06250000000000000000, 0.0000000000000000000, 1.485000000000000764 ) ) ;
#9 = EDGE_CURVE ( 'NONE', #66, #47, #24, .T. ) ;
#10 = LINE ( 'NONE', #60, #12 ) ;
#11 = CIRCLE ( 'NONE', #166, 0.06250000000000000000 ) ;
#12 = VECTOR ( 'NONE', #249, 39.37007874015748143 ) ;
#13 = ORIENTED_EDGE ( 'NONE', *, *, #308, .F. ) ;
#14 = DIRECTION ( 'NONE',  ( 1.224646799147353454E-16, 0.0000000000000000000, 1.000000000000000000 ) ) ;
#15 = ORIENTED_EDGE ( 'NONE', *, *, #247, .T. ) ;
#16 = CYLINDRICAL_SURFACE ( 'NONE', #46, 0.06250000000000000000 ) ;
#17 = CARTESIAN_POINT ( 'NONE',  ( 0.0000000000000000000, 0.0000000000000000000, 0.0000000000000000000 ) ) ;
#18 = ORIENTED_EDGE ( 'NONE', *, *, #165, .T. ) ;
#19 = FACE_OUTER_BOUND ( 'NONE', #220, .T. ) ;
#20 = CIRCLE ( 'NONE', #306, 0.06250000000000000000 ) ;
#21 = EDGE_CURVE ( 'NONE', #150, #105, #278, .T. ) ;
#22 = APPLICATION_CONTEXT ( 'automotive_design' ) ;
#23 = EDGE_LOOP ( 'NONE', ( #203, #89, #101, #233 ) ) ;
#24 = LINE ( 'NONE', #127, #64 ) ;
#25 = CIRCLE ( 'NONE', #216, 0.01648350000000000509 ) ;
#26 = CARTESIAN_POINT ( 'NONE',  ( -0.06250000000000000000, 0.0000000000000000000, 1.500000000000000222 ) ) ;
#27 = EDGE_LOOP ( 'NONE', ( #159, #295 ) ) ;
#28 = CIRCLE ( 'NONE', #205, 0.06250000000000000000 ) ;
#29 = CARTESIAN_POINT ( 'NONE',  ( 2.018646551374540468E-18, 0.0000000000000000000, 0.01648350000000000162 ) ) ;
#30 = FACE_OUTER_BOUND ( 'NONE', #260, .T. ) ;
#31 = ADVANCED_FACE ( 'NONE', ( #102 ), #208, .T. ) ;
#32 = DIRECTION ( 'NONE',  ( 1.000000000000000000, 0.0000000000000000000, 0.0000000000000000000 ) ) ;
#33 = VECTOR ( 'NONE', #153, 39.37007874015748143 ) ;
#34 = DIRECTION ( 'NONE',  ( 0.0000000000000000000, 0.0000000000000000000, 1.000000000000000000 ) ) ;
#35 = AXIS2_PLACEMENT_3D ( 'NONE', #134, #53, #163 ) ;
#36 = DIRECTION ( 'NONE',  ( 0.0000000000000000000, 0.0000000000000000000, -1.000000000000000000 ) ) ;
#37 = EDGE_CURVE ( 'NONE', #271, #105, #11, .T. ) ;
#38 = DIRECTION ( 'NONE',  ( 1.224646799147353454E-16, 0.0000000000000000000, 1.000000000000000000 ) ) ;
#39 = AXIS2_PLACEMENT_3D ( 'NONE', #307, #94, #268 ) ;
#40 = PRODUCT_DEFINITION_FORMATION_WITH_SPECIFIED_SOURCE ( 'ANY', '', #81, .NOT_KNOWN. ) ;
#41 = ORIENTED_EDGE ( 'NONE', *, *, #231, .T. ) ;
#42 = DIRECTION ( 'NONE',  ( -1.000000000000000000, 0.0000000000000000000, 1.224646799147353207E-16 ) ) ;
#43 = ORIENTED_EDGE ( 'NONE', *, *, #259, .T. ) ;
#44 = DIRECTION ( 'NONE',  ( -1.000000000000000000, 0.0000000000000000000, 0.0000000000000000000 ) ) ;
#45 = DIRECTION ( 'NONE',  ( 0.0000000000000000000, 0.0000000000000000000, 1.000000000000000000 ) ) ;
#46 = AXIS2_PLACEMENT_3D ( 'NONE', #224, #288, #44 ) ;
#47 = VERTEX_POINT ( 'NONE', #57 ) ;
#48 = CIRCLE ( 'NONE', #116, 0.06250000000000000000 ) ;
#49 = ORIENTED_EDGE ( 'NONE', *, *, #210, .F. ) ;
#50 = DIRECTION ( 'NONE',  ( 1.000000000000000000, 0.0000000000000000000, 0.0000000000000000000 ) ) ;
#51 = AXIS2_PLACEMENT_3D ( 'NONE', #158, #258, #85 ) ;
#52 = AXIS2_PLACEMENT_3D ( 'NONE', #214, #164, #264 ) ;
#53 = DIRECTION ( 'NONE',  ( 0.0000000000000000000, 0.0000000000000000000, 1.000000000000000000 ) ) ;
#54 = SPHERICAL_SURFACE ( 'NONE', #221, 0.01648350000000000162 ) ;
#55 = FACE_OUTER_BOUND ( 'NONE', #2, .T. ) ;
#56 = CIRCLE ( 'NONE', #257, 0.04750000000000064587 ) ;
#57 = CARTESIAN_POINT ( 'NONE',  ( -0.01648350000000000162, 0.0000000000000000000, 0.01648350000000000509 ) ) ;
#58 = DIMENSIONAL_EXPONENTS ( 1.000000000000000000, 0.0000000000000000000, 0.0000000000000000000, 0.0000000000000000000, 0.0000000000000000000, 0.0000000000000000000, 0.0000000000000000000 ) ;
#59 = ADVANCED_FACE ( 'NONE', ( #305 ), #114, .T. ) ;
#60 = CARTESIAN_POINT ( 'NONE',  ( 0.04750000000000064587, 5.817072295950006528E-18, 1.500000000000000222 ) ) ;
#61 = CARTESIAN_POINT ( 'NONE',  ( 0.0000000000000000000, 0.0000000000000000000, 0.0000000000000000000 ) ) ;
#62 = ORIENTED_EDGE ( 'NONE', *, *, #187, .T. ) ;
#63 = DIRECTION ( 'NONE',  ( -1.224646799147353454E-16, -0.0000000000000000000, -1.000000000000000000 ) ) ;
#64 = VECTOR ( 'NONE', #181, 39.37007874015748143 ) ;
#65 = CONICAL_SURFACE ( 'NONE', #148, 0.01648350000000000162, 0.1745329251994338915 ) ;
#66 = VERTEX_POINT ( 'NONE', #261 ) ;
#67 = ADVANCED_FACE ( 'NONE', ( #77 ), #107, .T. ) ;
#68 = CARTESIAN_POINT ( 'NONE',  ( 2.018646551374540468E-18, 0.0000000000000000000, 0.01648350000000000162 ) ) ;
#69 = ORIENTED_EDGE ( 'NONE', *, *, #165, .F. ) ;
#70 = DIRECTION ( 'NONE',  ( 1.224646799147353454E-16, 0.0000000000000000000, 1.000000000000000000 ) ) ;
#71 = MANIFOLD_SOLID_BREP ( 'Fillet1', #182 ) ;
#72 = ORIENTED_EDGE ( 'NONE', *, *, #231, .F. ) ;
#73 = ORIENTED_EDGE ( 'NONE', *, *, #193, .F. ) ;
#74 = CONICAL_SURFACE ( 'NONE', #234, 0.01648350000000000162, 0.1745329251994338915 ) ;
#75 = ORIENTED_EDGE ( 'NONE', *, *, #236, .F. ) ;
#76 = CARTESIAN_POINT ( 'NONE',  ( 2.018646551374540468E-18, 0.0000000000000000000, 0.01648350000000000162 ) ) ;
#77 = FACE_OUTER_BOUND ( 'NONE', #126, .T. ) ;
#78 = PRESENTATION_STYLE_ASSIGNMENT (( #209 ) ) ;
#79 = DIRECTION ( 'NONE',  ( 0.0000000000000000000, -1.000000000000000000, 0.0000000000000000000 ) ) ;
#80 = VECTOR ( 'NONE', #63, 39.37007874015748143 ) ;
#81 = PRODUCT ( 'Micro_BMS-033-2X', 'Micro_BMS-033-2X', '', ( #242 ) ) ;
#82 = SPHERICAL_SURFACE ( 'NONE', #155, 0.01648350000000000162 ) ;
#83 = SURFACE_SIDE_STYLE ('',( #189 ) ) ;
#84 = ADVANCED_FACE ( 'NONE', ( #184 ), #82, .T. ) ;
#85 = DIRECTION ( 'NONE',  ( -1.000000000000000000, 0.0000000000000000000, 1.224646799147353207E-16 ) ) ;
#86 = CIRCLE ( 'NONE', #252, 0.01648350000000000162 ) ;
#87 = CARTESIAN_POINT ( 'NONE',  ( 0.01648350000000000509, 2.018646551374540083E-18, -2.018646551374540468E-18 ) ) ;
#88 = ORIENTED_EDGE ( 'NONE', *, *, #290, .F. ) ;
#89 = ORIENTED_EDGE ( 'NONE', *, *, #152, .T. ) ;
#90 = DIRECTION ( 'NONE',  ( -0.7071067811865456854, 0.0000000000000000000, -0.7071067811865493491 ) ) ;
#91 = DIRECTION ( 'NONE',  ( 1.000000000000000000, 0.0000000000000000000, 0.0000000000000000000 ) ) ;
#92 = EDGE_CURVE ( 'NONE', #105, #271, #20, .T. ) ;
#93 = ORIENTED_EDGE ( 'NONE', *, *, #37, .F. ) ;
#94 = DIRECTION ( 'NONE',  ( -1.224646799147353454E-16, -0.0000000000000000000, -1.000000000000000000 ) ) ;
#95 = VECTOR ( 'NONE', #90, 39.37007874015748143 ) ;
#96 = UNCERTAINTY_MEASURE_WITH_UNIT (LENGTH_MEASURE( 1.000000000000000082E-05 ), #297, 'distance_accuracy_value', 'NONE');
#97 = LENGTH_MEASURE_WITH_UNIT ( LENGTH_MEASURE( 0.02539999999999999897 ), #248 );
#98 = ADVANCED_FACE ( 'NONE', ( #55 ), #74, .T. ) ;
#99 = PRODUCT_DEFINITION_SHAPE ( 'NONE', 'NONE',  #109 ) ;
#100 = CARTESIAN_POINT ( 'NONE',  ( 0.04750000000000064587, 6.735557395310482421E-18, 1.500000000000000222 ) ) ;
#101 = ORIENTED_EDGE ( 'NONE', *, *, #9, .T. ) ;
#102 = FACE_OUTER_BOUND ( 'NONE', #23, .T. ) ;
#103 = EDGE_CURVE ( 'NONE', #194, #244, #86, .T. ) ;
#104 = LENGTH_MEASURE_WITH_UNIT ( LENGTH_MEASURE( 0.02539999999999999897 ), #263 );
#105 = VERTEX_POINT ( 'NONE', #284 ) ;
#106 = PRODUCT_DEFINITION_CONTEXT ( 'detailed design', #157, 'design' ) ;
#107 = CONICAL_SURFACE ( 'NONE', #154, 0.04750000000000064587, 0.7853981633974457255 ) ;
#108 = AXIS2_PLACEMENT_3D ( 'NONE', #173, #296, #192 ) ;
#109 = PRODUCT_DEFINITION ( 'UNKNOWN', '', #40, #106 ) ;
#110 = SURFACE_SIDE_STYLE ('',( #303 ) ) ;
#111 = ORIENTED_EDGE ( 'NONE', *, *, #196, .F. ) ;
#112 = DIRECTION ( 'NONE',  ( 1.000000000000000000, 0.0000000000000000000, 0.0000000000000000000 ) ) ;
#113 = SURFACE_STYLE_USAGE ( .BOTH. , #83 ) ;
#114 = PLANE ( 'NONE',  #251 ) ;
#115 = DIRECTION ( 'NONE',  ( 0.0000000000000000000, 0.0000000000000000000, -1.000000000000000000 ) ) ;
#116 = AXIS2_PLACEMENT_3D ( 'NONE', #310, #115, #294 ) ;
#117 = CARTESIAN_POINT ( 'NONE',  ( -0.04750000000000064587, 0.0000000000000000000, 1.500000000000000222 ) ) ;
#118 = ORIENTED_EDGE ( 'NONE', *, *, #196, .T. ) ;
#119 = LINE ( 'NONE', #267, #177 ) ;
#120 = EDGE_CURVE ( 'NONE', #293, #200, #162, .T. ) ;
#121 = ORIENTED_EDGE ( 'NONE', *, *, #103, .T. ) ;
#122 = DIRECTION ( 'NONE',  ( -1.224646799147353454E-16, -0.0000000000000000000, -1.000000000000000000 ) ) ;
#123 = EDGE_LOOP ( 'NONE', ( #160, #43, #49 ) ) ;
#124 = CARTESIAN_POINT ( 'NONE',  ( -0.01648349999999999468, 2.018646551374540083E-18, 0.05000000000000000278 ) ) ;
#125 = CIRCLE ( 'NONE', #299, 0.01648350000000000509 ) ;
#126 = EDGE_LOOP ( 'NONE', ( #75, #292, #13, #111 ) ) ;
#127 = CARTESIAN_POINT ( 'NONE',  ( -0.01648350000000000509, 0.0000000000000000000, 2.018646551374540468E-18 ) ) ;
#128 = ADVANCED_FACE ( 'NONE', ( #30 ), #133, .T. ) ;
#129 = DIRECTION ( 'NONE',  ( 1.000000000000000000, 0.0000000000000000000, 0.0000000000000000000 ) ) ;
#130 = CONICAL_SURFACE ( 'NONE', #311, 0.04750000000000064587, 0.7853981633974457255 ) ;
#131 = DIRECTION ( 'NONE',  ( 0.0000000000000000000, 1.000000000000000000, 0.0000000000000000000 ) ) ;
#132 =( LENGTH_UNIT ( ) NAMED_UNIT ( * ) SI_UNIT ( $, .METRE. ) );
#133 = CYLINDRICAL_SURFACE ( 'NONE', #52, 0.06250000000000000000 ) ;
#134 = CARTESIAN_POINT ( 'NONE',  ( 0.0000000000000000000, 0.0000000000000000000, 1.500000000000000222 ) ) ;
#135 = AXIS2_PLACEMENT_3D ( 'NONE', #17, #141, #32 ) ;
#136 = FILL_AREA_STYLE ('',( #137 ) ) ;
#137 = FILL_AREA_STYLE_COLOUR ( '', #281 ) ;
#138 = ORIENTED_EDGE ( 'NONE', *, *, #215, .T. ) ;
#139 = EDGE_LOOP ( 'NONE', ( #69, #138, #206, #171 ) ) ;
#140 = LINE ( 'NONE', #124, #168 ) ;
#141 = DIRECTION ( 'NONE',  ( 0.0000000000000000000, 0.0000000000000000000, 1.000000000000000000 ) ) ;
#142 = EDGE_LOOP ( 'NONE', ( #72, #62, #178, #93 ) ) ;
#143 = STYLED_ITEM ( 'NONE', ( #78 ), #273 ) ;
#144 = CARTESIAN_POINT ( 'NONE',  ( -0.04750000000000064587, 0.0000000000000000000, 1.500000000000000222 ) ) ;
#145 = DIRECTION ( 'NONE',  ( -1.000000000000000000, 0.0000000000000000000, 1.294783416780541090E-16 ) ) ;
#146 = CARTESIAN_POINT ( 'NONE',  ( 0.06250000000000000000, 7.654042494670956004E-18, 1.485000000000000764 ) ) ;
#147 = CARTESIAN_POINT ( 'NONE',  ( 0.01648350000000000509, 2.018646551374540083E-18, 0.01648349999999999815 ) ) ;
#148 = AXIS2_PLACEMENT_3D ( 'NONE', #314, #14, #197 ) ;
#149 = PRODUCT_RELATED_PRODUCT_CATEGORY ( 'part', '', ( #81 ) ) ;
#150 = VERTEX_POINT ( 'NONE', #8 ) ;
#151 = DIRECTION ( 'NONE',  ( 0.0000000000000000000, 0.0000000000000000000, -1.000000000000000000 ) ) ;
#152 = EDGE_CURVE ( 'NONE', #179, #66, #191, .T. ) ;
#153 = DIRECTION ( 'NONE',  ( -0.0000000000000000000, -0.0000000000000000000, -1.000000000000000000 ) ) ;
#154 = AXIS2_PLACEMENT_3D ( 'NONE', #304, #169, #238 ) ;
#155 = AXIS2_PLACEMENT_3D ( 'NONE', #302, #309, #112 ) ;
#156 =( CONVERSION_BASED_UNIT ( 'INCH', #104 ) LENGTH_UNIT ( ) NAMED_UNIT ( #58 ) );
#157 = APPLICATION_CONTEXT ( 'automotive_design' ) ;
#158 = CARTESIAN_POINT ( 'NONE',  ( 0.0000000000000000000, 0.0000000000000000000, 0.0000000000000000000 ) ) ;
#159 = ORIENTED_EDGE ( 'NONE', *, *, #120, .T. ) ;
#160 = ORIENTED_EDGE ( 'NONE', *, *, #103, .F. ) ;
#161 = CARTESIAN_POINT ( 'NONE',  ( 6.123233995736767885E-18, 0.0000000000000000000, 0.05000000000000000278 ) ) ;
#162 = CIRCLE ( 'NONE', #35, 0.04750000000000064587 ) ;
#163 = DIRECTION ( 'NONE',  ( 1.000000000000000000, 0.0000000000000000000, 0.0000000000000000000 ) ) ;
#164 = DIRECTION ( 'NONE',  ( -0.0000000000000000000, -0.0000000000000000000, -1.000000000000000000 ) ) ;
#165 = EDGE_CURVE ( 'NONE', #66, #179, #317, .T. ) ;
#166 = AXIS2_PLACEMENT_3D ( 'NONE', #213, #4, #266 ) ;
#167 =( GEOMETRIC_REPRESENTATION_CONTEXT ( 3 ) GLOBAL_UNCERTAINTY_ASSIGNED_CONTEXT ( ( #250 ) ) GLOBAL_UNIT_ASSIGNED_CONTEXT ( ( #240, #286, #217 ) ) REPRESENTATION_CONTEXT ( 'NONE', 'WORKASPACE' ) );
#168 = VECTOR ( 'NONE', #276, 39.37007874015747433 ) ;
#169 = DIRECTION ( 'NONE',  ( 0.0000000000000000000, 0.0000000000000000000, -1.000000000000000000 ) ) ;
#170 = LINE ( 'NONE', #202, #185 ) ;
#171 = ORIENTED_EDGE ( 'NONE', *, *, #180, .F. ) ;
#172 = CARTESIAN_POINT ( 'NONE',  ( 6.123233995736767885E-18, 0.0000000000000000000, 0.05000000000000000278 ) ) ;
#173 = CARTESIAN_POINT ( 'NONE',  ( 2.018646551374540468E-18, 0.0000000000000000000, 0.01648350000000000162 ) ) ;
#174 = ORIENTED_EDGE ( 'NONE', *, *, #92, .F. ) ;
#175 = FACE_OUTER_BOUND ( 'NONE', #228, .T. ) ;
#176 = DIRECTION ( 'NONE',  ( -1.224646799147353454E-16, -0.0000000000000000000, -1.000000000000000000 ) ) ;
#177 = VECTOR ( 'NONE', #219, 39.37007874015748143 ) ;
#178 = ORIENTED_EDGE ( 'NONE', *, *, #21, .T. ) ;
#179 = VERTEX_POINT ( 'NONE', #313 ) ;
#180 = EDGE_CURVE ( 'NONE', #179, #271, #170, .T. ) ;
#181 = DIRECTION ( 'NONE',  ( -1.224646799147353454E-16, -0.0000000000000000000, -1.000000000000000000 ) ) ;
#182 = CLOSED_SHELL ( 'NONE', ( #84, #207, #225, #67, #128, #279, #59, #320, #98, #31, #323 ) ) ;
#183 = DIRECTION ( 'NONE',  ( -1.224646799147353454E-16, -0.0000000000000000000, -1.000000000000000000 ) ) ;
#184 = FACE_OUTER_BOUND ( 'NONE', #123, .T. ) ;
#185 = VECTOR ( 'NONE', #253, 39.37007874015748143 ) ;
#186 = DIMENSIONAL_EXPONENTS ( 1.000000000000000000, 0.0000000000000000000, 0.0000000000000000000, 0.0000000000000000000, 0.0000000000000000000, 0.0000000000000000000, 0.0000000000000000000 ) ;
#187 = EDGE_CURVE ( 'NONE', #312, #150, #48, .T. ) ;
#188 = PRESENTATION_STYLE_ASSIGNMENT (( #113 ) ) ;
#189 = SURFACE_STYLE_FILL_AREA ( #136 ) ;
#190 = ORIENTED_EDGE ( 'NONE', *, *, #180, .T. ) ;
#191 = CIRCLE ( 'NONE', #39, 0.01648350000000000162 ) ;
#192 = DIRECTION ( 'NONE',  ( -1.000000000000000000, 1.224646799147353454E-16, 0.0000000000000000000 ) ) ;
#193 = EDGE_CURVE ( 'NONE', #47, #244, #25, .T. ) ;
#194 = VERTEX_POINT ( 'NONE', #223 ) ;
#195 = DIRECTION ( 'NONE',  ( -1.000000000000000000, 0.0000000000000000000, 1.294783416780541090E-16 ) ) ;
#196 = EDGE_CURVE ( 'NONE', #293, #150, #272, .T. ) ;
#197 = DIRECTION ( 'NONE',  ( 1.000000000000000000, 0.0000000000000000000, 0.0000000000000000000 ) ) ;
#198 = UNCERTAINTY_MEASURE_WITH_UNIT (LENGTH_MEASURE( 1.000000000000000082E-05 ), #156, 'distance_accuracy_value', 'NONE');
#199 = PRESENTATION_LAYER_ASSIGNMENT (  '', '', ( #7 ) ) ;
#200 = VERTEX_POINT ( 'NONE', #100 ) ;
#201 =( GEOMETRIC_REPRESENTATION_CONTEXT ( 3 ) GLOBAL_UNCERTAINTY_ASSIGNED_CONTEXT ( ( #96 ) ) GLOBAL_UNIT_ASSIGNED_CONTEXT ( ( #297, #265, #269 ) ) REPRESENTATION_CONTEXT ( 'NONE', 'WORKASPACE' ) );
#202 = CARTESIAN_POINT ( 'NONE',  ( 0.01648350000000000856, 0.0000000000000000000, 0.05000000000000000278 ) ) ;
#203 = ORIENTED_EDGE ( 'NONE', *, *, #247, .F. ) ;
#204 = CARTESIAN_POINT ( 'NONE',  ( 0.0000000000000000000, 0.0000000000000000000, 1.500000000000000222 ) ) ;
#205 = AXIS2_PLACEMENT_3D ( 'NONE', #319, #36, #275 ) ;
#206 = ORIENTED_EDGE ( 'NONE', *, *, #92, .T. ) ;
#207 = ADVANCED_FACE ( 'NONE', ( #175 ), #289, .T. ) ;
#208 = CYLINDRICAL_SURFACE ( 'NONE', #51, 0.01648350000000000509 ) ;
#209 = SURFACE_STYLE_USAGE ( .BOTH. , #110 ) ;
#210 = EDGE_CURVE ( 'NONE', #244, #47, #125, .T. ) ;
#211 = CARTESIAN_POINT ( 'NONE',  ( 3.808315255530095537E-17, 0.0000000000000000000, 0.3109725398524368356 ) ) ;
#212 = FILL_AREA_STYLE_COLOUR ( '', #283 ) ;
#213 = CARTESIAN_POINT ( 'NONE',  ( 3.808315255530095537E-17, 0.0000000000000000000, 0.3109725398524368356 ) ) ;
#214 = CARTESIAN_POINT ( 'NONE',  ( 0.0000000000000000000, 0.0000000000000000000, 1.500000000000000222 ) ) ;
#215 = EDGE_CURVE ( 'NONE', #66, #105, #140, .T. ) ;
#216 = AXIS2_PLACEMENT_3D ( 'NONE', #68, #38, #195 ) ;
#217 =( NAMED_UNIT ( * ) SI_UNIT ( $, .STERADIAN. ) SOLID_ANGLE_UNIT ( ) );
#218 = LENGTH_MEASURE_WITH_UNIT ( LENGTH_MEASURE( 0.02539999999999999897 ), #132 );
#219 = DIRECTION ( 'NONE',  ( -0.0000000000000000000, -0.0000000000000000000, -1.000000000000000000 ) ) ;
#220 = EDGE_LOOP ( 'NONE', ( #88, #300, #118, #321 ) ) ;
#221 = AXIS2_PLACEMENT_3D ( 'NONE', #76, #131, #129 ) ;
#222 = DIRECTION ( 'NONE',  ( -1.000000000000000000, 0.0000000000000000000, 0.0000000000000000000 ) ) ;
#223 = CARTESIAN_POINT ( 'NONE',  ( 3.027969827061810124E-18, 0.0000000000000000000, 0.0000000000000000000 ) ) ;
#224 = CARTESIAN_POINT ( 'NONE',  ( 0.0000000000000000000, 0.0000000000000000000, 1.500000000000000222 ) ) ;
#225 = ADVANCED_FACE ( 'NONE', ( #316 ), #65, .T. ) ;
#226 = CARTESIAN_POINT ( 'NONE',  ( 0.0000000000000000000, 0.0000000000000000000, 1.500000000000000222 ) ) ;
#227 = APPLICATION_PROTOCOL_DEFINITION ( 'draft international standard', 'automotive_design', 1998, #157 ) ;
#228 = EDGE_LOOP ( 'NONE', ( #18, #15, #255, #315 ) ) ;
#229 = ORIENTED_EDGE ( 'NONE', *, *, #21, .F. ) ;
#230 = ORIENTED_EDGE ( 'NONE', *, *, #37, .T. ) ;
#231 = EDGE_CURVE ( 'NONE', #312, #271, #119, .T. ) ;
#232 =( NAMED_UNIT ( * ) SI_UNIT ( $, .STERADIAN. ) SOLID_ANGLE_UNIT ( ) );
#233 = ORIENTED_EDGE ( 'NONE', *, *, #193, .T. ) ;
#234 = AXIS2_PLACEMENT_3D ( 'NONE', #161, #235, #50 ) ;
#235 = DIRECTION ( 'NONE',  ( 1.224646799147353454E-16, 0.0000000000000000000, 1.000000000000000000 ) ) ;
#236 = EDGE_CURVE ( 'NONE', #200, #293, #56, .T. ) ;
#237 = DIRECTION ( 'NONE',  ( 1.000000000000000000, 0.0000000000000000000, -0.0000000000000000000 ) ) ;
#238 = DIRECTION ( 'NONE',  ( -1.000000000000000000, 0.0000000000000000000, 0.0000000000000000000 ) ) ;
#239 = AXIS2_PLACEMENT_3D ( 'NONE', #172, #176, #222 ) ;
#240 =( CONVERSION_BASED_UNIT ( 'INCH', #218 ) LENGTH_UNIT ( ) NAMED_UNIT ( #186 ) );
#241 = CARTESIAN_POINT ( 'NONE',  ( 0.06250000000000002776, 7.654042494670959086E-18, 0.3109725398524368356 ) ) ;
#242 = PRODUCT_CONTEXT ( 'NONE', #22, 'mechanical' ) ;
#243 = DIMENSIONAL_EXPONENTS ( 1.000000000000000000, 0.0000000000000000000, 0.0000000000000000000, 0.0000000000000000000, 0.0000000000000000000, 0.0000000000000000000, 0.0000000000000000000 ) ;
#244 = VERTEX_POINT ( 'NONE', #147 ) ;
#245 = CARTESIAN_POINT ( 'NONE',  ( 2.018646551374540468E-18, 0.0000000000000000000, 0.01648350000000000162 ) ) ;
#246 = FACE_OUTER_BOUND ( 'NONE', #142, .T. ) ;
#247 = EDGE_CURVE ( 'NONE', #179, #244, #291, .T. ) ;
#248 =( LENGTH_UNIT ( ) NAMED_UNIT ( * ) SI_UNIT ( $, .METRE. ) );
#249 = DIRECTION ( 'NONE',  ( 0.7071067811865456854, 8.659560562354911904E-17, -0.7071067811865493491 ) ) ;
#250 = UNCERTAINTY_MEASURE_WITH_UNIT (LENGTH_MEASURE( 1.000000000000000082E-05 ), #240, 'distance_accuracy_value', 'NONE');
#251 = AXIS2_PLACEMENT_3D ( 'NONE', #285, #34, #237 ) ;
#252 = AXIS2_PLACEMENT_3D ( 'NONE', #29, #79, #282 ) ;
#253 = DIRECTION ( 'NONE',  ( 0.1736481776669313859, 0.0000000000000000000, 0.9848077530122077983 ) ) ;
#254 = SHAPE_DEFINITION_REPRESENTATION ( #99, #273 ) ;
#255 = ORIENTED_EDGE ( 'NONE', *, *, #210, .T. ) ;
#256 = DIRECTION ( 'NONE',  ( -1.000000000000000000, 0.0000000000000000000, 0.0000000000000000000 ) ) ;
#257 = AXIS2_PLACEMENT_3D ( 'NONE', #204, #45, #91 ) ;
#258 = DIRECTION ( 'NONE',  ( -1.224646799147353454E-16, -0.0000000000000000000, -1.000000000000000000 ) ) ;
#259 = EDGE_CURVE ( 'NONE', #194, #47, #301, .T. ) ;
#260 = EDGE_LOOP ( 'NONE', ( #325, #41, #174, #229 ) ) ;
#261 = CARTESIAN_POINT ( 'NONE',  ( -0.01648349999999999468, 4.836344523022748429E-18, 0.05000000000000000278 ) ) ;
#262 =( GEOMETRIC_REPRESENTATION_CONTEXT ( 3 ) GLOBAL_UNCERTAINTY_ASSIGNED_CONTEXT ( ( #198 ) ) GLOBAL_UNIT_ASSIGNED_CONTEXT ( ( #156, #5, #232 ) ) REPRESENTATION_CONTEXT ( 'NONE', 'WORKASPACE' ) );
#263 =( LENGTH_UNIT ( ) NAMED_UNIT ( * ) SI_UNIT ( $, .METRE. ) );
#264 = DIRECTION ( 'NONE',  ( -1.000000000000000000, 0.0000000000000000000, 0.0000000000000000000 ) ) ;
#265 =( NAMED_UNIT ( * ) PLANE_ANGLE_UNIT ( ) SI_UNIT ( $, .RADIAN. ) );
#266 = DIRECTION ( 'NONE',  ( 1.000000000000000000, 0.0000000000000000000, 0.0000000000000000000 ) ) ;
#267 = CARTESIAN_POINT ( 'NONE',  ( 0.06250000000000000000, 7.654042494670956004E-18, 1.500000000000000222 ) ) ;
#268 = DIRECTION ( 'NONE',  ( -1.000000000000000000, 0.0000000000000000000, 0.0000000000000000000 ) ) ;
#269 =( NAMED_UNIT ( * ) SI_UNIT ( $, .STERADIAN. ) SOLID_ANGLE_UNIT ( ) );
#270 = MECHANICAL_DESIGN_GEOMETRIC_PRESENTATION_REPRESENTATION (  '', ( #143 ), #201 ) ;
#271 = VERTEX_POINT ( 'NONE', #241 ) ;
#272 = LINE ( 'NONE', #144, #95 ) ;
#273 = ADVANCED_BREP_SHAPE_REPRESENTATION ( 'Micro_BMS-033-2X', ( #71, #135 ), #262 ) ;
#274 = EDGE_LOOP ( 'NONE', ( #277, #121, #73 ) ) ;
#275 = DIRECTION ( 'NONE',  ( 1.000000000000000000, 0.0000000000000000000, 0.0000000000000000000 ) ) ;
#276 = DIRECTION ( 'NONE',  ( -0.1736481776669311916, 2.126576849575783316E-17, 0.9848077530122080203 ) ) ;
#277 = ORIENTED_EDGE ( 'NONE', *, *, #259, .F. ) ;
#278 = LINE ( 'NONE', #26, #33 ) ;
#279 = ADVANCED_FACE ( 'NONE', ( #246 ), #16, .T. ) ;
#280 = PRESENTATION_LAYER_ASSIGNMENT (  '', '', ( #143 ) ) ;
#281 = COLOUR_RGB ( '',0.7921568627450980005, 0.8196078431372548767, 0.9333333333333333481 ) ;
#282 = DIRECTION ( 'NONE',  ( 0.0000000000000000000, 0.0000000000000000000, -1.000000000000000000 ) ) ;
#283 = COLOUR_RGB ( '',0.7921568627450980005, 0.8196078431372548767, 0.9333333333333333481 ) ;
#284 = CARTESIAN_POINT ( 'NONE',  ( -0.06249999999999996531, 0.0000000000000000000, 0.3109725398524368356 ) ) ;
#285 = CARTESIAN_POINT ( 'NONE',  ( 0.0000000000000000000, 0.0000000000000000000, 1.500000000000000222 ) ) ;
#286 =( NAMED_UNIT ( * ) PLANE_ANGLE_UNIT ( ) SI_UNIT ( $, .RADIAN. ) );
#287 = AXIS2_PLACEMENT_3D ( 'NONE', #61, #122, #42 ) ;
#288 = DIRECTION ( 'NONE',  ( -0.0000000000000000000, -0.0000000000000000000, -1.000000000000000000 ) ) ;
#289 = CYLINDRICAL_SURFACE ( 'NONE', #287, 0.01648350000000000509 ) ;
#290 = EDGE_CURVE ( 'NONE', #200, #312, #10, .T. ) ;
#291 = LINE ( 'NONE', #87, #80 ) ;
#292 = ORIENTED_EDGE ( 'NONE', *, *, #290, .T. ) ;
#293 = VERTEX_POINT ( 'NONE', #117 ) ;
#294 = DIRECTION ( 'NONE',  ( 1.000000000000000000, 0.0000000000000000000, 0.0000000000000000000 ) ) ;
#295 = ORIENTED_EDGE ( 'NONE', *, *, #236, .T. ) ;
#296 = DIRECTION ( 'NONE',  ( 1.224646799147353207E-16, 1.000000000000000000, -0.0000000000000000000 ) ) ;
#297 =( CONVERSION_BASED_UNIT ( 'INCH', #97 ) LENGTH_UNIT ( ) NAMED_UNIT ( #243 ) );
#298 = ORIENTED_EDGE ( 'NONE', *, *, #215, .F. ) ;
#299 = AXIS2_PLACEMENT_3D ( 'NONE', #245, #70, #145 ) ;
#300 = ORIENTED_EDGE ( 'NONE', *, *, #120, .F. ) ;
#301 = CIRCLE ( 'NONE', #108, 0.01648350000000000162 ) ;
#302 = CARTESIAN_POINT ( 'NONE',  ( 2.018646551374540468E-18, 0.0000000000000000000, 0.01648350000000000162 ) ) ;
#303 = SURFACE_STYLE_FILL_AREA ( #1 ) ;
#304 = CARTESIAN_POINT ( 'NONE',  ( 0.0000000000000000000, 0.0000000000000000000, 1.500000000000000222 ) ) ;
#305 = FACE_OUTER_BOUND ( 'NONE', #27, .T. ) ;
#306 = AXIS2_PLACEMENT_3D ( 'NONE', #211, #183, #6 ) ;
#307 = CARTESIAN_POINT ( 'NONE',  ( 6.123233995736767885E-18, 0.0000000000000000000, 0.05000000000000000278 ) ) ;
#308 = EDGE_CURVE ( 'NONE', #150, #312, #28, .T. ) ;
#309 = DIRECTION ( 'NONE',  ( 0.0000000000000000000, 1.000000000000000000, 0.0000000000000000000 ) ) ;
#310 = CARTESIAN_POINT ( 'NONE',  ( 0.0000000000000000000, 0.0000000000000000000, 1.485000000000000764 ) ) ;
#311 = AXIS2_PLACEMENT_3D ( 'NONE', #226, #151, #256 ) ;
#312 = VERTEX_POINT ( 'NONE', #146 ) ;
#313 = CARTESIAN_POINT ( 'NONE',  ( 0.01648350000000000856, 0.0000000000000000000, 0.05000000000000000278 ) ) ;
#314 = CARTESIAN_POINT ( 'NONE',  ( 6.123233995736767885E-18, 0.0000000000000000000, 0.05000000000000000278 ) ) ;
#315 = ORIENTED_EDGE ( 'NONE', *, *, #9, .F. ) ;
#316 = FACE_OUTER_BOUND ( 'NONE', #139, .T. ) ;
#317 = CIRCLE ( 'NONE', #239, 0.01648350000000000162 ) ;
#318 = ORIENTED_EDGE ( 'NONE', *, *, #152, .F. ) ;
#319 = CARTESIAN_POINT ( 'NONE',  ( 0.0000000000000000000, 0.0000000000000000000, 1.485000000000000764 ) ) ;
#320 = ADVANCED_FACE ( 'NONE', ( #19 ), #130, .T. ) ;
#321 = ORIENTED_EDGE ( 'NONE', *, *, #187, .F. ) ;
#322 = MECHANICAL_DESIGN_GEOMETRIC_PRESENTATION_REPRESENTATION (  '', ( #7 ), #167 ) ;
#323 = ADVANCED_FACE ( 'NONE', ( #324 ), #54, .T. ) ;
#324 = FACE_OUTER_BOUND ( 'NONE', #274, .T. ) ;
#325 = ORIENTED_EDGE ( 'NONE', *, *, #308, .T. ) ;
ENDSEC;
END-ISO-10303-21;
