ISO-10303-21;
HEADER;
FILE_DESCRIPTION (( 'STEP AP214' ),
    '1' );
FILE_NAME ('Micro_AMRM-008-2.STEP',
    '2021-09-01T17:11:23',
    ( '' ),
    ( '' ),
    'SwSTEP 2.0',
    'SolidWorks 2020',
    '' );
FILE_SCHEMA (( 'AUTOMOTIVE_DESIGN' ));
ENDSEC;

DATA;
#1 = CARTESIAN_POINT ( 'NONE',  ( 0.0000000000000000000, 0.0000000000000000000, 1.968503999999999809 ) ) ;
#2 = CARTESIAN_POINT ( 'NONE',  ( 5.533232181047529343E-17, 0.0000000000000000000, 0.4518226957274522615 ) ) ;
#3 = CIRCLE ( 'NONE', #181, 0.07874000000000001831 ) ;
#4 = CYLINDRICAL_SURFACE ( 'NONE', #40, 0.01573225199999999865 ) ;
#5 = DIMENSIONAL_EXPONENTS ( 1.000000000000000000, 0.0000000000000000000, 0.0000000000000000000, 0.0000000000000000000, 0.0000000000000000000, 0.0000000000000000000, 0.0000000000000000000 ) ;
#6 = CARTESIAN_POINT ( 'NONE',  ( 0.01573225199999999865, 1.926645205517954404E-18, 0.0000000000000000000 ) ) ;
#7 = CARTESIAN_POINT ( 'NONE',  ( 1.157144267578351175E-17, 0.0000000000000000000, 0.09448800000000000254 ) ) ;
#8 = CARTESIAN_POINT ( 'NONE',  ( -0.01573225199999998825, 5.784757051002106649E-18, 0.09448800000000000254 ) ) ;
#9 = DIRECTION ( 'NONE',  ( -1.000000000000000000, 0.0000000000000000000, 0.0000000000000000000 ) ) ;
#10 = EDGE_CURVE ( 'NONE', #18, #38, #246, .T. ) ;
#11 = PRODUCT_DEFINITION_SHAPE ( 'NONE', 'NONE',  #296 ) ;
#12 = PRESENTATION_STYLE_ASSIGNMENT (( #37 ) ) ;
#13 = ORIENTED_EDGE ( 'NONE', *, *, #235, .T. ) ;
#14 = EDGE_LOOP ( 'NONE', ( #295, #129 ) ) ;
#15 = LENGTH_MEASURE_WITH_UNIT ( LENGTH_MEASURE( 0.02539999999999999897 ), #242 );
#16 = ORIENTED_EDGE ( 'NONE', *, *, #26, .F. ) ;
#17 = AXIS2_PLACEMENT_3D ( 'NONE', #1, #45, #202 ) ;
#18 = VERTEX_POINT ( 'NONE', #150 ) ;
#19 = ORIENTED_EDGE ( 'NONE', *, *, #266, .F. ) ;
#20 = EDGE_CURVE ( 'NONE', #170, #267, #116, .T. ) ;
#21 = CARTESIAN_POINT ( 'NONE',  ( -0.01573225199999999865, 0.0000000000000000000, 3.853290411035908808E-18 ) ) ;
#22 = MECHANICAL_DESIGN_GEOMETRIC_PRESENTATION_REPRESENTATION (  '', ( #294 ), #239 ) ;
#23 = CYLINDRICAL_SURFACE ( 'NONE', #100, 0.07874000000000001831 ) ;
#24 = FACE_OUTER_BOUND ( 'NONE', #80, .T. ) ;
#25 = DIRECTION ( 'NONE',  ( -0.0000000000000000000, -0.0000000000000000000, -1.000000000000000000 ) ) ;
#26 = EDGE_CURVE ( 'NONE', #247, #271, #193, .T. ) ;
#27 = CARTESIAN_POINT ( 'NONE',  ( 0.0000000000000000000, 0.0000000000000000000, 1.968503999999999809 ) ) ;
#28 = DIRECTION ( 'NONE',  ( -1.224646799147353207E-16, -0.0000000000000000000, -1.000000000000000000 ) ) ;
#29 = DIRECTION ( 'NONE',  ( -1.000000000000000000, 0.0000000000000000000, 1.224646799147353207E-16 ) ) ;
#30 = LENGTH_MEASURE_WITH_UNIT ( LENGTH_MEASURE( 0.02539999999999999897 ), #192 );
#31 = CARTESIAN_POINT ( 'NONE',  ( 0.01573225200000000906, 0.0000000000000000000, 0.09448800000000000254 ) ) ;
#32 = CARTESIAN_POINT ( 'NONE',  ( 0.07874000000000001831, 9.642868896486260050E-18, 1.968503999999999809 ) ) ;
#33 = VECTOR ( 'NONE', #91, 39.37007874015748143 ) ;
#34 = SURFACE_SIDE_STYLE ('',( #126 ) ) ;
#35 = ORIENTED_EDGE ( 'NONE', *, *, #266, .T. ) ;
#36 = EDGE_CURVE ( 'NONE', #271, #247, #152, .T. ) ;
#37 = SURFACE_STYLE_USAGE ( .BOTH. , #34 ) ;
#38 = VERTEX_POINT ( 'NONE', #62 ) ;
#39 = APPLICATION_CONTEXT ( 'automotive_design' ) ;
#40 = AXIS2_PLACEMENT_3D ( 'NONE', #276, #86, #93 ) ;
#41 = ORIENTED_EDGE ( 'NONE', *, *, #20, .F. ) ;
#42 = CARTESIAN_POINT ( 'NONE',  ( 0.0000000000000000000, 0.0000000000000000000, 1.968503999999999809 ) ) ;
#43 = DIRECTION ( 'NONE',  ( -0.0000000000000000000, -0.0000000000000000000, -1.000000000000000000 ) ) ;
#44 = DIRECTION ( 'NONE',  ( 0.0000000000000000000, 0.0000000000000000000, -1.000000000000000000 ) ) ;
#45 = DIRECTION ( 'NONE',  ( 0.0000000000000000000, 0.0000000000000000000, 1.000000000000000000 ) ) ;
#46 = DIRECTION ( 'NONE',  ( 1.000000000000000000, 0.0000000000000000000, 0.0000000000000000000 ) ) ;
#47 = VECTOR ( 'NONE', #43, 39.37007874015748143 ) ;
#48 = STYLED_ITEM ( 'NONE', ( #119 ), #220 ) ;
#49 = SURFACE_STYLE_FILL_AREA ( #210 ) ;
#50 = DIRECTION ( 'NONE',  ( -1.000000000000000000, 0.0000000000000000000, 1.224646799147353207E-16 ) ) ;
#51 = EDGE_LOOP ( 'NONE', ( #85, #77, #168, #153 ) ) ;
#52 =( CONVERSION_BASED_UNIT ( 'INCH', #219 ) LENGTH_UNIT ( ) NAMED_UNIT ( #216 ) );
#53 = VECTOR ( 'NONE', #145, 39.37007874015747433 ) ;
#54 = APPLICATION_PROTOCOL_DEFINITION ( 'draft international standard', 'automotive_design', 1998, #39 ) ;
#55 = ORIENTED_EDGE ( 'NONE', *, *, #112, .T. ) ;
#56 = ORIENTED_EDGE ( 'NONE', *, *, #36, .F. ) ;
#57 = EDGE_CURVE ( 'NONE', #289, #250, #143, .T. ) ;
#58 = ORIENTED_EDGE ( 'NONE', *, *, #113, .F. ) ;
#59 = EDGE_CURVE ( 'NONE', #267, #38, #3, .T. ) ;
#60 = CARTESIAN_POINT ( 'NONE',  ( 0.0000000000000000000, 0.0000000000000000000, 1.968503999999999809 ) ) ;
#61 = DIRECTION ( 'NONE',  ( -1.000000000000000000, 0.0000000000000000000, 0.0000000000000000000 ) ) ;
#62 = CARTESIAN_POINT ( 'NONE',  ( 0.07874000000000007382, 9.642868896486266213E-18, 0.4518226957274522615 ) ) ;
#63 = CLOSED_SHELL ( 'NONE', ( #292, #130, #283, #124, #201, #263, #159, #223, #94, #179 ) ) ;
#64 = AXIS2_PLACEMENT_3D ( 'NONE', #191, #28, #233 ) ;
#65 = APPLICATION_CONTEXT ( 'automotive_design' ) ;
#66 = PLANE ( 'NONE',  #249 ) ;
#67 = CARTESIAN_POINT ( 'NONE',  ( 0.06374000000000018540, 7.805898697765251255E-18, 1.968503999999999809 ) ) ;
#68 = EDGE_CURVE ( 'NONE', #250, #18, #278, .T. ) ;
#69 = FACE_OUTER_BOUND ( 'NONE', #197, .T. ) ;
#70 = VECTOR ( 'NONE', #167, 39.37007874015748143 ) ;
#71 = DIRECTION ( 'NONE',  ( -1.224646799147353207E-16, -0.0000000000000000000, -1.000000000000000000 ) ) ;
#72 = FACE_OUTER_BOUND ( 'NONE', #51, .T. ) ;
#73 = DIRECTION ( 'NONE',  ( -1.224646799147353207E-16, -0.0000000000000000000, -1.000000000000000000 ) ) ;
#74 = AXIS2_PLACEMENT_3D ( 'NONE', #184, #204, #134 ) ;
#75 = AXIS2_PLACEMENT_3D ( 'NONE', #27, #285, #9 ) ;
#76 = CARTESIAN_POINT ( 'NONE',  ( 0.01573225200000000906, 0.0000000000000000000, 0.09448800000000000254 ) ) ;
#77 = ORIENTED_EDGE ( 'NONE', *, *, #68, .T. ) ;
#78 = CARTESIAN_POINT ( 'NONE',  ( 0.0000000000000000000, 0.0000000000000000000, 0.0000000000000000000 ) ) ;
#79 = ORIENTED_EDGE ( 'NONE', *, *, #108, .T. ) ;
#80 = EDGE_LOOP ( 'NONE', ( #16, #35, #297, #103 ) ) ;
#81 = AXIS2_PLACEMENT_3D ( 'NONE', #161, #211, #29 ) ;
#82 = DIRECTION ( 'NONE',  ( 0.0000000000000000000, 0.0000000000000000000, 1.000000000000000000 ) ) ;
#83 = EDGE_LOOP ( 'NONE', ( #58, #132, #13, #146 ) ) ;
#84 =( LENGTH_UNIT ( ) NAMED_UNIT ( * ) SI_UNIT ( $, .METRE. ) );
#85 = ORIENTED_EDGE ( 'NONE', *, *, #112, .F. ) ;
#86 = DIRECTION ( 'NONE',  ( -1.224646799147353207E-16, -0.0000000000000000000, -1.000000000000000000 ) ) ;
#87 = VECTOR ( 'NONE', #274, 39.37007874015748143 ) ;
#88 = UNCERTAINTY_MEASURE_WITH_UNIT (LENGTH_MEASURE( 1.000000000000000082E-05 ), #171, 'distance_accuracy_value', 'NONE');
#89 = FACE_OUTER_BOUND ( 'NONE', #269, .T. ) ;
#90 = DIRECTION ( 'NONE',  ( 0.0000000000000000000, 0.0000000000000000000, 1.000000000000000000 ) ) ;
#91 = DIRECTION ( 'NONE',  ( -0.7071067811865507924, 0.0000000000000000000, -0.7071067811865443531 ) ) ;
#92 = VECTOR ( 'NONE', #251, 39.37007874015748143 ) ;
#93 = DIRECTION ( 'NONE',  ( -1.000000000000000000, 0.0000000000000000000, 1.224646799147353207E-16 ) ) ;
#94 = ADVANCED_FACE ( 'NONE', ( #137 ), #4, .T. ) ;
#95 = DIRECTION ( 'NONE',  ( 0.0000000000000000000, 0.0000000000000000000, 1.000000000000000000 ) ) ;
#96 = CARTESIAN_POINT ( 'NONE',  ( 0.0000000000000000000, 0.0000000000000000000, 1.953504000000000129 ) ) ;
#97 = CONICAL_SURFACE ( 'NONE', #135, 0.06374000000000018540, 0.7853981633974528309 ) ;
#98 = LINE ( 'NONE', #76, #70 ) ;
#99 = PLANE ( 'NONE',  #166 ) ;
#100 = AXIS2_PLACEMENT_3D ( 'NONE', #60, #154, #182 ) ;
#101 = DIRECTION ( 'NONE',  ( 1.000000000000000000, 0.0000000000000000000, 0.0000000000000000000 ) ) ;
#102 = ORIENTED_EDGE ( 'NONE', *, *, #59, .F. ) ;
#103 = ORIENTED_EDGE ( 'NONE', *, *, #231, .F. ) ;
#104 = AXIS2_PLACEMENT_3D ( 'NONE', #136, #115, #275 ) ;
#105 =( NAMED_UNIT ( * ) SI_UNIT ( $, .STERADIAN. ) SOLID_ANGLE_UNIT ( ) );
#106 = ORIENTED_EDGE ( 'NONE', *, *, #165, .T. ) ;
#107 = ORIENTED_EDGE ( 'NONE', *, *, #141, .F. ) ;
#108 = EDGE_CURVE ( 'NONE', #170, #18, #164, .T. ) ;
#109 = FACE_OUTER_BOUND ( 'NONE', #14, .T. ) ;
#110 = CARTESIAN_POINT ( 'NONE',  ( 0.0000000000000000000, 0.0000000000000000000, 1.968503999999999809 ) ) ;
#111 = PRESENTATION_LAYER_ASSIGNMENT (  '', '', ( #294 ) ) ;
#112 = EDGE_CURVE ( 'NONE', #250, #289, #248, .T. ) ;
#113 = EDGE_CURVE ( 'NONE', #271, #272, #177, .T. ) ;
#114 = CARTESIAN_POINT ( 'NONE',  ( 1.157144267578351175E-17, 0.0000000000000000000, 0.09448800000000000254 ) ) ;
#115 = DIRECTION ( 'NONE',  ( -1.224646799147353207E-16, -0.0000000000000000000, -1.000000000000000000 ) ) ;
#116 = LINE ( 'NONE', #205, #47 ) ;
#117 = AXIS2_PLACEMENT_3D ( 'NONE', #42, #90, #156 ) ;
#118 = VECTOR ( 'NONE', #73, 39.37007874015748143 ) ;
#119 = PRESENTATION_STYLE_ASSIGNMENT (( #237 ) ) ;
#120 = CARTESIAN_POINT ( 'NONE',  ( -0.01573225199999999865, 0.0000000000000000000, 1.926645205517954404E-18 ) ) ;
#121 = PRESENTATION_LAYER_ASSIGNMENT (  '', '', ( #48 ) ) ;
#122 =( NAMED_UNIT ( * ) PLANE_ANGLE_UNIT ( ) SI_UNIT ( $, .RADIAN. ) );
#123 = DIRECTION ( 'NONE',  ( 1.224646799147353207E-16, 0.0000000000000000000, 1.000000000000000000 ) ) ;
#124 = ADVANCED_FACE ( 'NONE', ( #160 ), #23, .T. ) ;
#125 = CONICAL_SURFACE ( 'NONE', #222, 0.01573225199999999865, 0.1745329251994338915 ) ;
#126 = SURFACE_STYLE_FILL_AREA ( #291 ) ;
#127 = DIRECTION ( 'NONE',  ( -0.0000000000000000000, -0.0000000000000000000, -1.000000000000000000 ) ) ;
#128 =( NAMED_UNIT ( * ) SI_UNIT ( $, .STERADIAN. ) SOLID_ANGLE_UNIT ( ) );
#129 = ORIENTED_EDGE ( 'NONE', *, *, #270, .T. ) ;
#130 = ADVANCED_FACE ( 'NONE', ( #24 ), #139, .T. ) ;
#131 = ORIENTED_EDGE ( 'NONE', *, *, #26, .T. ) ;
#132 = ORIENTED_EDGE ( 'NONE', *, *, #36, .T. ) ;
#133 = CARTESIAN_POINT ( 'NONE',  ( 0.01573225199999999865, 1.926645205517954404E-18, -1.926645205517954404E-18 ) ) ;
#134 = DIRECTION ( 'NONE',  ( 1.000000000000000000, 0.0000000000000000000, 0.0000000000000000000 ) ) ;
#135 = AXIS2_PLACEMENT_3D ( 'NONE', #138, #44, #226 ) ;
#136 = CARTESIAN_POINT ( 'NONE',  ( 1.157144267578351175E-17, 0.0000000000000000000, 0.09448800000000000254 ) ) ;
#137 = FACE_OUTER_BOUND ( 'NONE', #83, .T. ) ;
#138 = CARTESIAN_POINT ( 'NONE',  ( 0.0000000000000000000, 0.0000000000000000000, 1.968503999999999809 ) ) ;
#139 = CONICAL_SURFACE ( 'NONE', #217, 0.01573225199999999865, 0.1745329251994338915 ) ;
#140 = FACE_OUTER_BOUND ( 'NONE', #196, .T. ) ;
#141 = EDGE_CURVE ( 'NONE', #38, #267, #273, .T. ) ;
#142 =( CONVERSION_BASED_UNIT ( 'INCH', #30 ) LENGTH_UNIT ( ) NAMED_UNIT ( #5 ) );
#143 = CIRCLE ( 'NONE', #17, 0.06374000000000018540 ) ;
#144 = FILL_AREA_STYLE_COLOUR ( '', #253 ) ;
#145 = DIRECTION ( 'NONE',  ( -0.1736481776669311916, 2.126576849575783316E-17, 0.9848077530122080203 ) ) ;
#146 = ORIENTED_EDGE ( 'NONE', *, *, #270, .F. ) ;
#147 = FILL_AREA_STYLE_COLOUR ( '', #244 ) ;
#148 = EDGE_LOOP ( 'NONE', ( #218, #245, #198, #107 ) ) ;
#149 = APPLICATION_PROTOCOL_DEFINITION ( 'draft international standard', 'automotive_design', 1998, #65 ) ;
#150 = CARTESIAN_POINT ( 'NONE',  ( 0.07874000000000001831, 9.642868896486260050E-18, 1.953504000000000129 ) ) ;
#151 = EDGE_LOOP ( 'NONE', ( #221, #55 ) ) ;
#152 = CIRCLE ( 'NONE', #104, 0.01573225199999999865 ) ;
#153 = ORIENTED_EDGE ( 'NONE', *, *, #165, .F. ) ;
#154 = DIRECTION ( 'NONE',  ( -0.0000000000000000000, -0.0000000000000000000, -1.000000000000000000 ) ) ;
#155 = FACE_OUTER_BOUND ( 'NONE', #148, .T. ) ;
#156 = DIRECTION ( 'NONE',  ( 1.000000000000000000, 0.0000000000000000000, 0.0000000000000000000 ) ) ;
#157 = CIRCLE ( 'NONE', #227, 0.07874000000000001831 ) ;
#158 = CARTESIAN_POINT ( 'NONE',  ( 0.0000000000000000000, 0.0000000000000000000, 0.0000000000000000000 ) ) ;
#159 = ADVANCED_FACE ( 'NONE', ( #89 ), #97, .T. ) ;
#160 = FACE_OUTER_BOUND ( 'NONE', #290, .T. ) ;
#161 = CARTESIAN_POINT ( 'NONE',  ( 2.359459884030157069E-34, 0.0000000000000000000, 1.926645205517954404E-18 ) ) ;
#162 = CARTESIAN_POINT ( 'NONE',  ( 0.06374000000000018540, 8.724383797125754882E-18, 1.968503999999999809 ) ) ;
#163 = FACE_OUTER_BOUND ( 'NONE', #151, .T. ) ;
#164 = CIRCLE ( 'NONE', #74, 0.07874000000000001831 ) ;
#165 = EDGE_CURVE ( 'NONE', #289, #170, #232, .T. ) ;
#166 = AXIS2_PLACEMENT_3D ( 'NONE', #265, #95, #261 ) ;
#167 = DIRECTION ( 'NONE',  ( 0.1736481776669313859, 0.0000000000000000000, 0.9848077530122077983 ) ) ;
#168 = ORIENTED_EDGE ( 'NONE', *, *, #108, .F. ) ;
#169 = PRODUCT_CONTEXT ( 'NONE', #39, 'mechanical' ) ;
#170 = VERTEX_POINT ( 'NONE', #277 ) ;
#171 =( CONVERSION_BASED_UNIT ( 'INCH', #15 ) LENGTH_UNIT ( ) NAMED_UNIT ( #183 ) );
#172 = ORIENTED_EDGE ( 'NONE', *, *, #68, .F. ) ;
#173 = ORIENTED_EDGE ( 'NONE', *, *, #10, .T. ) ;
#174 =( NAMED_UNIT ( * ) PLANE_ANGLE_UNIT ( ) SI_UNIT ( $, .RADIAN. ) );
#175 = ORIENTED_EDGE ( 'NONE', *, *, #231, .T. ) ;
#176 = AXIS2_PLACEMENT_3D ( 'NONE', #110, #25, #61 ) ;
#177 = LINE ( 'NONE', #133, #87 ) ;
#178 = DIRECTION ( 'NONE',  ( 0.0000000000000000000, 0.0000000000000000000, 1.000000000000000000 ) ) ;
#179 = ADVANCED_FACE ( 'NONE', ( #109 ), #66, .F. ) ;
#180 = DIRECTION ( 'NONE',  ( 1.000000000000000000, 0.0000000000000000000, 0.0000000000000000000 ) ) ;
#181 = AXIS2_PLACEMENT_3D ( 'NONE', #252, #298, #180 ) ;
#182 = DIRECTION ( 'NONE',  ( -1.000000000000000000, 0.0000000000000000000, 0.0000000000000000000 ) ) ;
#183 = DIMENSIONAL_EXPONENTS ( 1.000000000000000000, 0.0000000000000000000, 0.0000000000000000000, 0.0000000000000000000, 0.0000000000000000000, 0.0000000000000000000, 0.0000000000000000000 ) ;
#184 = CARTESIAN_POINT ( 'NONE',  ( 0.0000000000000000000, 0.0000000000000000000, 1.953504000000000129 ) ) ;
#185 = SURFACE_SIDE_STYLE ('',( #49 ) ) ;
#186 = PRODUCT_RELATED_PRODUCT_CATEGORY ( 'part', '', ( #257 ) ) ;
#187 = DIRECTION ( 'NONE',  ( 0.0000000000000000000, 0.0000000000000000000, -1.000000000000000000 ) ) ;
#188 = VECTOR ( 'NONE', #127, 39.37007874015748143 ) ;
#189 = CIRCLE ( 'NONE', #64, 0.01573225199999999865 ) ;
#190 = DIRECTION ( 'NONE',  ( 1.000000000000000000, 0.0000000000000000000, 0.0000000000000000000 ) ) ;
#191 = CARTESIAN_POINT ( 'NONE',  ( 2.359459884030157069E-34, 0.0000000000000000000, 1.926645205517954404E-18 ) ) ;
#192 =( LENGTH_UNIT ( ) NAMED_UNIT ( * ) SI_UNIT ( $, .METRE. ) );
#193 = CIRCLE ( 'NONE', #238, 0.01573225199999999865 ) ;
#194 = CONICAL_SURFACE ( 'NONE', #75, 0.06374000000000018540, 0.7853981633974528309 ) ;
#195 =( NAMED_UNIT ( * ) PLANE_ANGLE_UNIT ( ) SI_UNIT ( $, .RADIAN. ) );
#196 = EDGE_LOOP ( 'NONE', ( #19, #56, #175, #200 ) ) ;
#197 = EDGE_LOOP ( 'NONE', ( #131, #293, #243, #224 ) ) ;
#198 = ORIENTED_EDGE ( 'NONE', *, *, #20, .T. ) ;
#199 = VERTEX_POINT ( 'NONE', #21 ) ;
#200 = ORIENTED_EDGE ( 'NONE', *, *, #141, .T. ) ;
#201 = ADVANCED_FACE ( 'NONE', ( #155 ), #255, .T. ) ;
#202 = DIRECTION ( 'NONE',  ( 1.000000000000000000, 0.0000000000000000000, 0.0000000000000000000 ) ) ;
#203 =( GEOMETRIC_REPRESENTATION_CONTEXT ( 3 ) GLOBAL_UNCERTAINTY_ASSIGNED_CONTEXT ( ( #206 ) ) GLOBAL_UNIT_ASSIGNED_CONTEXT ( ( #52, #174, #128 ) ) REPRESENTATION_CONTEXT ( 'NONE', 'WORKASPACE' ) );
#204 = DIRECTION ( 'NONE',  ( 0.0000000000000000000, 0.0000000000000000000, -1.000000000000000000 ) ) ;
#205 = CARTESIAN_POINT ( 'NONE',  ( -0.07874000000000001831, 0.0000000000000000000, 1.968503999999999809 ) ) ;
#206 = UNCERTAINTY_MEASURE_WITH_UNIT (LENGTH_MEASURE( 1.000000000000000082E-05 ), #52, 'distance_accuracy_value', 'NONE');
#207 = DIRECTION ( 'NONE',  ( 1.224646799147353207E-16, 0.0000000000000000000, 1.000000000000000000 ) ) ;
#208 = DIRECTION ( 'NONE',  ( -1.224646799147353207E-16, -0.0000000000000000000, -1.000000000000000000 ) ) ;
#209 = CIRCLE ( 'NONE', #81, 0.01573225199999999865 ) ;
#210 = FILL_AREA_STYLE ('',( #144 ) ) ;
#211 = DIRECTION ( 'NONE',  ( -1.224646799147353207E-16, -0.0000000000000000000, -1.000000000000000000 ) ) ;
#212 = PRODUCT_DEFINITION_FORMATION_WITH_SPECIFIED_SOURCE ( 'ANY', '', #257, .NOT_KNOWN. ) ;
#213 = EDGE_CURVE ( 'NONE', #199, #272, #209, .T. ) ;
#214 =( NAMED_UNIT ( * ) SI_UNIT ( $, .STERADIAN. ) SOLID_ANGLE_UNIT ( ) );
#215 = CARTESIAN_POINT ( 'NONE',  ( -0.01573225199999998825, 1.926645205517954404E-18, 0.09448800000000000254 ) ) ;
#216 = DIMENSIONAL_EXPONENTS ( 1.000000000000000000, 0.0000000000000000000, 0.0000000000000000000, 0.0000000000000000000, 0.0000000000000000000, 0.0000000000000000000, 0.0000000000000000000 ) ;
#217 = AXIS2_PLACEMENT_3D ( 'NONE', #299, #207, #46 ) ;
#218 = ORIENTED_EDGE ( 'NONE', *, *, #10, .F. ) ;
#219 = LENGTH_MEASURE_WITH_UNIT ( LENGTH_MEASURE( 0.02539999999999999897 ), #84 );
#220 = MANIFOLD_SOLID_BREP ( 'Cut-Revolve1', #63 ) ;
#221 = ORIENTED_EDGE ( 'NONE', *, *, #57, .T. ) ;
#222 = AXIS2_PLACEMENT_3D ( 'NONE', #7, #123, #190 ) ;
#223 = ADVANCED_FACE ( 'NONE', ( #140 ), #125, .T. ) ;
#224 = ORIENTED_EDGE ( 'NONE', *, *, #235, .F. ) ;
#225 = ORIENTED_EDGE ( 'NONE', *, *, #288, .F. ) ;
#226 = DIRECTION ( 'NONE',  ( -1.000000000000000000, 0.0000000000000000000, 0.0000000000000000000 ) ) ;
#227 = AXIS2_PLACEMENT_3D ( 'NONE', #96, #187, #240 ) ;
#228 = DIRECTION ( 'NONE',  ( -1.000000000000000000, 0.0000000000000000000, 0.0000000000000000000 ) ) ;
#229 = CARTESIAN_POINT ( 'NONE',  ( -0.06374000000000018540, 0.0000000000000000000, 1.968503999999999809 ) ) ;
#230 = DIRECTION ( 'NONE',  ( 1.000000000000000000, 0.0000000000000000000, -0.0000000000000000000 ) ) ;
#231 = EDGE_CURVE ( 'NONE', #271, #38, #98, .T. ) ;
#232 = LINE ( 'NONE', #229, #33 ) ;
#233 = DIRECTION ( 'NONE',  ( -1.000000000000000000, 0.0000000000000000000, 1.224646799147353207E-16 ) ) ;
#234 = LINE ( 'NONE', #120, #118 ) ;
#235 = EDGE_CURVE ( 'NONE', #247, #199, #234, .T. ) ;
#236 = UNCERTAINTY_MEASURE_WITH_UNIT (LENGTH_MEASURE( 1.000000000000000082E-05 ), #142, 'distance_accuracy_value', 'NONE');
#237 = SURFACE_STYLE_USAGE ( .BOTH. , #185 ) ;
#238 = AXIS2_PLACEMENT_3D ( 'NONE', #114, #208, #228 ) ;
#239 =( GEOMETRIC_REPRESENTATION_CONTEXT ( 3 ) GLOBAL_UNCERTAINTY_ASSIGNED_CONTEXT ( ( #88 ) ) GLOBAL_UNIT_ASSIGNED_CONTEXT ( ( #171, #195, #105 ) ) REPRESENTATION_CONTEXT ( 'NONE', 'WORKASPACE' ) );
#240 = DIRECTION ( 'NONE',  ( 1.000000000000000000, 0.0000000000000000000, 0.0000000000000000000 ) ) ;
#241 = SHAPE_DEFINITION_REPRESENTATION ( #11, #286 ) ;
#242 =( LENGTH_UNIT ( ) NAMED_UNIT ( * ) SI_UNIT ( $, .METRE. ) );
#243 = ORIENTED_EDGE ( 'NONE', *, *, #213, .F. ) ;
#244 = COLOUR_RGB ( '',0.7921568627450980005, 0.8196078431372548767, 0.9333333333333333481 ) ;
#245 = ORIENTED_EDGE ( 'NONE', *, *, #288, .T. ) ;
#246 = LINE ( 'NONE', #32, #188 ) ;
#247 = VERTEX_POINT ( 'NONE', #8 ) ;
#248 = CIRCLE ( 'NONE', #117, 0.06374000000000018540 ) ;
#249 = AXIS2_PLACEMENT_3D ( 'NONE', #158, #178, #230 ) ;
#250 = VERTEX_POINT ( 'NONE', #162 ) ;
#251 = DIRECTION ( 'NONE',  ( 0.7071067811865507924, 8.659560562354973534E-17, -0.7071067811865443531 ) ) ;
#252 = CARTESIAN_POINT ( 'NONE',  ( 5.533232181047529343E-17, 0.0000000000000000000, 0.4518226957274522615 ) ) ;
#253 = COLOUR_RGB ( '',0.7921568627450980005, 0.8196078431372548767, 0.9333333333333333481 ) ;
#254 = DIRECTION ( 'NONE',  ( 1.000000000000000000, 0.0000000000000000000, 0.0000000000000000000 ) ) ;
#255 = CYLINDRICAL_SURFACE ( 'NONE', #176, 0.07874000000000001831 ) ;
#256 = DIRECTION ( 'NONE',  ( -1.224646799147353207E-16, -0.0000000000000000000, -1.000000000000000000 ) ) ;
#257 = PRODUCT ( 'Micro_AMRM-008-2', 'Micro_AMRM-008-2', '', ( #169 ) ) ;
#258 = AXIS2_PLACEMENT_3D ( 'NONE', #2, #256, #254 ) ;
#259 = CYLINDRICAL_SURFACE ( 'NONE', #287, 0.01573225199999999865 ) ;
#260 =( GEOMETRIC_REPRESENTATION_CONTEXT ( 3 ) GLOBAL_UNCERTAINTY_ASSIGNED_CONTEXT ( ( #236 ) ) GLOBAL_UNIT_ASSIGNED_CONTEXT ( ( #142, #122, #214 ) ) REPRESENTATION_CONTEXT ( 'NONE', 'WORKASPACE' ) );
#261 = DIRECTION ( 'NONE',  ( 1.000000000000000000, 0.0000000000000000000, -0.0000000000000000000 ) ) ;
#262 = LINE ( 'NONE', #215, #53 ) ;
#263 = ADVANCED_FACE ( 'NONE', ( #163 ), #99, .T. ) ;
#264 = AXIS2_PLACEMENT_3D ( 'NONE', #78, #82, #101 ) ;
#265 = CARTESIAN_POINT ( 'NONE',  ( 0.0000000000000000000, 0.0000000000000000000, 1.968503999999999809 ) ) ;
#266 = EDGE_CURVE ( 'NONE', #247, #267, #262, .T. ) ;
#267 = VERTEX_POINT ( 'NONE', #284 ) ;
#268 = ORIENTED_EDGE ( 'NONE', *, *, #57, .F. ) ;
#269 = EDGE_LOOP ( 'NONE', ( #172, #268, #106, #225 ) ) ;
#270 = EDGE_CURVE ( 'NONE', #272, #199, #189, .T. ) ;
#271 = VERTEX_POINT ( 'NONE', #31 ) ;
#272 = VERTEX_POINT ( 'NONE', #6 ) ;
#273 = CIRCLE ( 'NONE', #258, 0.07874000000000001831 ) ;
#274 = DIRECTION ( 'NONE',  ( -1.224646799147353207E-16, -0.0000000000000000000, -1.000000000000000000 ) ) ;
#275 = DIRECTION ( 'NONE',  ( -1.000000000000000000, 0.0000000000000000000, 0.0000000000000000000 ) ) ;
#276 = CARTESIAN_POINT ( 'NONE',  ( 0.0000000000000000000, 0.0000000000000000000, 0.0000000000000000000 ) ) ;
#277 = CARTESIAN_POINT ( 'NONE',  ( -0.07874000000000001831, 0.0000000000000000000, 1.953504000000000129 ) ) ;
#278 = LINE ( 'NONE', #67, #92 ) ;
#279 = PRODUCT_DEFINITION_CONTEXT ( 'detailed design', #65, 'design' ) ;
#280 = CARTESIAN_POINT ( 'NONE',  ( -0.06374000000000018540, 0.0000000000000000000, 1.968503999999999809 ) ) ;
#281 = CARTESIAN_POINT ( 'NONE',  ( 0.0000000000000000000, 0.0000000000000000000, 0.0000000000000000000 ) ) ;
#282 = MECHANICAL_DESIGN_GEOMETRIC_PRESENTATION_REPRESENTATION (  '', ( #48 ), #260 ) ;
#283 = ADVANCED_FACE ( 'NONE', ( #72 ), #194, .T. ) ;
#284 = CARTESIAN_POINT ( 'NONE',  ( -0.07873999999999996280, 0.0000000000000000000, 0.4518226957274522615 ) ) ;
#285 = DIRECTION ( 'NONE',  ( 0.0000000000000000000, 0.0000000000000000000, -1.000000000000000000 ) ) ;
#286 = ADVANCED_BREP_SHAPE_REPRESENTATION ( 'Micro_AMRM-008-2', ( #220, #264 ), #203 ) ;
#287 = AXIS2_PLACEMENT_3D ( 'NONE', #281, #71, #50 ) ;
#288 = EDGE_CURVE ( 'NONE', #18, #170, #157, .T. ) ;
#289 = VERTEX_POINT ( 'NONE', #280 ) ;
#290 = EDGE_LOOP ( 'NONE', ( #79, #173, #102, #41 ) ) ;
#291 = FILL_AREA_STYLE ('',( #147 ) ) ;
#292 = ADVANCED_FACE ( 'NONE', ( #69 ), #259, .T. ) ;
#293 = ORIENTED_EDGE ( 'NONE', *, *, #113, .T. ) ;
#294 = STYLED_ITEM ( 'NONE', ( #12 ), #286 ) ;
#295 = ORIENTED_EDGE ( 'NONE', *, *, #213, .T. ) ;
#296 = PRODUCT_DEFINITION ( 'UNKNOWN', '', #212, #279 ) ;
#297 = ORIENTED_EDGE ( 'NONE', *, *, #59, .T. ) ;
#298 = DIRECTION ( 'NONE',  ( -1.224646799147353207E-16, -0.0000000000000000000, -1.000000000000000000 ) ) ;
#299 = CARTESIAN_POINT ( 'NONE',  ( 1.157144267578351175E-17, 0.0000000000000000000, 0.09448800000000000254 ) ) ;
ENDSEC;
END-ISO-10303-21;
