ISO-10303-21;
HEADER;
FILE_DESCRIPTION (( 'STEP AP214' ),
    '1' );
FILE_NAME ('03045.STEP',
    '2023-06-22T14:52:29',
    ( '' ),
    ( '' ),
    'SwSTEP 2.0',
    'SolidWorks 2023',
    '' );
FILE_SCHEMA (( 'AUTOMOTIVE_DESIGN' ));
ENDSEC;

DATA;
#1 = PLANE ( 'NONE',  #199 ) ;
#2 = SURFACE_STYLE_USAGE ( .BOTH. , #221 ) ;
#3 = DIRECTION ( 'NONE',  ( -0.000000000000000000, -1.000000000000000000, -0.000000000000000000 ) ) ;
#4 = ORIENTED_EDGE ( 'NONE', *, *, #194, .F. ) ;
#5 = PRESENTATION_STYLE_ASSIGNMENT (( #282 ) ) ;
#6 =( CONVERSION_BASED_UNIT ( 'INCH', #53 ) LENGTH_UNIT ( ) NAMED_UNIT ( #176 ) );
#7 = DIRECTION ( 'NONE',  ( -0.000000000000000000, -1.000000000000000000, -0.000000000000000000 ) ) ;
#8 = STYLED_ITEM ( 'NONE', ( #193 ), #301 ) ;
#9 =( NAMED_UNIT ( * ) SI_UNIT ( $, .STERADIAN. ) SOLID_ANGLE_UNIT ( ) );
#10 = LENGTH_MEASURE_WITH_UNIT ( LENGTH_MEASURE( 0.02539999999999999897 ), #290 );
#11 = CARTESIAN_POINT ( 'NONE',  ( 0.06250000000000000000, 2.500000000000000000, 7.654042494670963708E-18 ) ) ;
#12 = ORIENTED_EDGE ( 'NONE', *, *, #90, .F. ) ;
#13 = PRODUCT_DEFINITION_CONTEXT ( 'detailed design', #152, 'design' ) ;
#14 = UNCERTAINTY_MEASURE_WITH_UNIT (LENGTH_MEASURE( 1.000000000000000082E-05 ), #36, 'distance_accuracy_value', 'NONE');
#15 = PRODUCT ( '03045', '03045', '', ( #276 ) ) ;
#16 = PRESENTATION_LAYER_ASSIGNMENT (  '', '', ( #208 ) ) ;
#17 = ORIENTED_EDGE ( 'NONE', *, *, #250, .F. ) ;
#18 = EDGE_CURVE ( 'NONE', #122, #142, #161, .T. ) ;
#19 = STYLED_ITEM ( 'NONE', ( #182 ), #303 ) ;
#20 = EDGE_LOOP ( 'NONE', ( #223, #236 ) ) ;
#21 = AXIS2_PLACEMENT_3D ( 'NONE', #24, #159, #225 ) ;
#22 = EDGE_CURVE ( 'NONE', #37, #213, #133, .T. ) ;
#23 = DIRECTION ( 'NONE',  ( -0.000000000000000000, -1.000000000000000000, -0.000000000000000000 ) ) ;
#24 = CARTESIAN_POINT ( 'NONE',  ( 0.000000000000000000, 0.5000000000000000000, 0.000000000000000000 ) ) ;
#25 = CARTESIAN_POINT ( 'NONE',  ( -6.123233995736766036E-17, 2.500000000000000000, 0.000000000000000000 ) ) ;
#26 = AXIS2_PLACEMENT_3D ( 'NONE', #247, #226, #204 ) ;
#27 = SURFACE_SIDE_STYLE ('',( #35 ) ) ;
#28 = DIRECTION ( 'NONE',  ( -0.000000000000000000, -1.000000000000000000, -0.000000000000000000 ) ) ;
#29 = AXIS2_PLACEMENT_3D ( 'NONE', #296, #93, #291 ) ;
#30 = UNCERTAINTY_MEASURE_WITH_UNIT (LENGTH_MEASURE( 1.000000000000000082E-05 ), #171, 'distance_accuracy_value', 'NONE');
#31 = DIMENSIONAL_EXPONENTS ( 1.000000000000000000, 0.000000000000000000, 0.000000000000000000, 0.000000000000000000, 0.000000000000000000, 0.000000000000000000, 0.000000000000000000 ) ;
#32 = ADVANCED_FACE ( 'NONE', ( #56 ), #136, .T. ) ;
#33 = LENGTH_MEASURE_WITH_UNIT ( LENGTH_MEASURE( 0.02539999999999999897 ), #245 );
#34 = ORIENTED_EDGE ( 'NONE', *, *, #278, .F. ) ;
#35 = SURFACE_STYLE_FILL_AREA ( #227 ) ;
#36 =( CONVERSION_BASED_UNIT ( 'INCH', #33 ) LENGTH_UNIT ( ) NAMED_UNIT ( #246 ) );
#37 = VERTEX_POINT ( 'NONE', #180 ) ;
#38 = SURFACE_STYLE_USAGE ( .BOTH. , #191 ) ;
#39 = SURFACE_STYLE_FILL_AREA ( #165 ) ;
#40 = DIRECTION ( 'NONE',  ( 0.000000000000000000, 0.000000000000000000, -1.000000000000000000 ) ) ;
#41 = PLANE ( 'NONE',  #21 ) ;
#42 = DIRECTION ( 'NONE',  ( -0.000000000000000000, -1.000000000000000000, -0.000000000000000000 ) ) ;
#43 = CARTESIAN_POINT ( 'NONE',  ( 0.000000000000000000, 0.000000000000000000, -0.06250000000000001388 ) ) ;
#44 = PRODUCT_DEFINITION_SHAPE ( 'NONE', 'NONE',  #58 ) ;
#45 = CARTESIAN_POINT ( 'NONE',  ( 7.654042494670959086E-18, 0.000000000000000000, 0.06250000000000001388 ) ) ;
#46 = CYLINDRICAL_SURFACE ( 'NONE', #251, 0.06250000000000002776 ) ;
#47 = CLOSED_SHELL ( 'NONE', ( #32, #301, #266, #303 ) ) ;
#48 = SURFACE_SIDE_STYLE ('',( #39 ) ) ;
#49 = ADVANCED_FACE ( 'NONE', ( #80 ), #138, .T. ) ;
#50 = VECTOR ( 'NONE', #114, 39.37007874015748143 ) ;
#51 = LINE ( 'NONE', #177, #92 ) ;
#52 = DIMENSIONAL_EXPONENTS ( 1.000000000000000000, 0.000000000000000000, 0.000000000000000000, 0.000000000000000000, 0.000000000000000000, 0.000000000000000000, 0.000000000000000000 ) ;
#53 = LENGTH_MEASURE_WITH_UNIT ( LENGTH_MEASURE( 0.02539999999999999897 ), #200 );
#54 = CIRCLE ( 'NONE', #172, 0.06250000000000000000 ) ;
#55 = FILL_AREA_STYLE_COLOUR ( '', #104 ) ;
#56 = FACE_OUTER_BOUND ( 'NONE', #137, .T. ) ;
#57 = ORIENTED_EDGE ( 'NONE', *, *, #273, .F. ) ;
#58 = PRODUCT_DEFINITION ( 'UNKNOWN', '', #79, #13 ) ;
#59 = AXIS2_PLACEMENT_3D ( 'NONE', #154, #173, #235 ) ;
#60 = CARTESIAN_POINT ( 'NONE',  ( -0.06250000000000012490, 2.500000000000000000, 0.000000000000000000 ) ) ;
#61 = EDGE_CURVE ( 'NONE', #166, #122, #160, .T. ) ;
#62 = MECHANICAL_DESIGN_GEOMETRIC_PRESENTATION_REPRESENTATION (  '', ( #285 ), #155 ) ;
#63 = CARTESIAN_POINT ( 'NONE',  ( 0.06249999999999997224, 2.500000000000000000, 7.654042494670960626E-18 ) ) ;
#64 = MECHANICAL_DESIGN_GEOMETRIC_PRESENTATION_REPRESENTATION (  '', ( #113 ), #271 ) ;
#65 = ORIENTED_EDGE ( 'NONE', *, *, #250, .T. ) ;
#66 = CARTESIAN_POINT ( 'NONE',  ( 0.000000000000000000, 0.5000000000000000000, 0.000000000000000000 ) ) ;
#67 =( LENGTH_UNIT ( ) NAMED_UNIT ( * ) SI_UNIT ( $, .METRE. ) );
#68 = LENGTH_MEASURE_WITH_UNIT ( LENGTH_MEASURE( 0.02539999999999999897 ), #150 );
#69 = MECHANICAL_DESIGN_GEOMETRIC_PRESENTATION_REPRESENTATION (  '', ( #102 ), #117 ) ;
#70 = EDGE_LOOP ( 'NONE', ( #17, #209, #239, #57 ) ) ;
#71 = AXIS2_PLACEMENT_3D ( 'NONE', #253, #120, #169 ) ;
#72 = CARTESIAN_POINT ( 'NONE',  ( -6.123233995736766036E-17, 2.500000000000000000, 0.000000000000000000 ) ) ;
#73 = EDGE_CURVE ( 'NONE', #213, #181, #51, .T. ) ;
#74 = DIRECTION ( 'NONE',  ( -1.000000000000000000, 0.000000000000000000, 0.000000000000000000 ) ) ;
#75 = SURFACE_STYLE_USAGE ( .BOTH. , #48 ) ;
#76 =( NAMED_UNIT ( * ) PLANE_ANGLE_UNIT ( ) SI_UNIT ( $, .RADIAN. ) );
#77 = CARTESIAN_POINT ( 'NONE',  ( -6.123233995736766036E-17, 2.500000000000000000, 0.000000000000000000 ) ) ;
#78 = SURFACE_SIDE_STYLE ('',( #111 ) ) ;
#79 = PRODUCT_DEFINITION_FORMATION_WITH_SPECIFIED_SOURCE ( 'ANY', '', #15, .NOT_KNOWN. ) ;
#80 = FACE_OUTER_BOUND ( 'NONE', #70, .T. ) ;
#81 = COLOUR_RGB ( '',1.000000000000000000, 0.000000000000000000, 0.000000000000000000 ) ;
#82 = SURFACE_SIDE_STYLE ('',( #110 ) ) ;
#83 = MANIFOLD_SOLID_BREP ( 'Revolve - Cutting Edge', #47 ) ;
#84 = AXIS2_PLACEMENT_3D ( 'NONE', #25, #179, #109 ) ;
#85 =( NAMED_UNIT ( * ) SI_UNIT ( $, .STERADIAN. ) SOLID_ANGLE_UNIT ( ) );
#86 =( NAMED_UNIT ( * ) PLANE_ANGLE_UNIT ( ) SI_UNIT ( $, .RADIAN. ) );
#87 = SHAPE_DEFINITION_REPRESENTATION ( #44, #237 ) ;
#88 = EDGE_LOOP ( 'NONE', ( #242, #139, #121, #4 ) ) ;
#89 = FACE_OUTER_BOUND ( 'NONE', #229, .T. ) ;
#90 = EDGE_CURVE ( 'NONE', #213, #37, #224, .T. ) ;
#91 = DIRECTION ( 'NONE',  ( -3.061616997868383018E-17, 1.000000000000000000, -0.000000000000000000 ) ) ;
#92 = VECTOR ( 'NONE', #107, 39.37007874015748143 ) ;
#93 = DIRECTION ( 'NONE',  ( 3.061616997868383018E-17, -1.000000000000000000, 0.000000000000000000 ) ) ;
#94 = DIRECTION ( 'NONE',  ( -1.000000000000000000, -3.061616997868383018E-17, 0.000000000000000000 ) ) ;
#95 = FACE_OUTER_BOUND ( 'NONE', #20, .T. ) ;
#96 = CARTESIAN_POINT ( 'NONE',  ( 2.929218325511440640E-35, 0.5000000000000000000, 0.000000000000000000 ) ) ;
#97 = ORIENTED_EDGE ( 'NONE', *, *, #278, .T. ) ;
#98 =( GEOMETRIC_REPRESENTATION_CONTEXT ( 3 ) GLOBAL_UNCERTAINTY_ASSIGNED_CONTEXT ( ( #164 ) ) GLOBAL_UNIT_ASSIGNED_CONTEXT ( ( #151, #123, #99 ) ) REPRESENTATION_CONTEXT ( 'NONE', 'WORKASPACE' ) );
#99 =( NAMED_UNIT ( * ) SI_UNIT ( $, .STERADIAN. ) SOLID_ANGLE_UNIT ( ) );
#100 = SURFACE_STYLE_FILL_AREA ( #215 ) ;
#101 = ORIENTED_EDGE ( 'NONE', *, *, #18, .F. ) ;
#102 = STYLED_ITEM ( 'NONE', ( #222 ), #32 ) ;
#103 = ORIENTED_EDGE ( 'NONE', *, *, #298, .T. ) ;
#104 = COLOUR_RGB ( '',1.000000000000000000, 0.000000000000000000, 0.000000000000000000 ) ;
#105 = PRODUCT_RELATED_PRODUCT_CATEGORY ( 'part', '', ( #15 ) ) ;
#106 = LENGTH_MEASURE_WITH_UNIT ( LENGTH_MEASURE( 0.02539999999999999897 ), #129 );
#107 = DIRECTION ( 'NONE',  ( -3.061616997868383018E-17, 1.000000000000000000, -0.000000000000000000 ) ) ;
#108 = EDGE_CURVE ( 'NONE', #188, #142, #299, .T. ) ;
#109 = DIRECTION ( 'NONE',  ( -1.000000000000000000, 0.000000000000000000, 0.000000000000000000 ) ) ;
#110 = SURFACE_STYLE_FILL_AREA ( #289 ) ;
#111 = SURFACE_STYLE_FILL_AREA ( #196 ) ;
#112 =( NAMED_UNIT ( * ) PLANE_ANGLE_UNIT ( ) SI_UNIT ( $, .RADIAN. ) );
#113 = STYLED_ITEM ( 'NONE', ( #231 ), #279 ) ;
#114 = DIRECTION ( 'NONE',  ( -3.061616997868383018E-17, 1.000000000000000000, -0.000000000000000000 ) ) ;
#115 = ORIENTED_EDGE ( 'NONE', *, *, #108, .T. ) ;
#116 =( NAMED_UNIT ( * ) SI_UNIT ( $, .STERADIAN. ) SOLID_ANGLE_UNIT ( ) );
#117 =( GEOMETRIC_REPRESENTATION_CONTEXT ( 3 ) GLOBAL_UNCERTAINTY_ASSIGNED_CONTEXT ( ( #14 ) ) GLOBAL_UNIT_ASSIGNED_CONTEXT ( ( #36, #86, #85 ) ) REPRESENTATION_CONTEXT ( 'NONE', 'WORKASPACE' ) );
#118 = PLANE ( 'NONE',  #29 ) ;
#119 = VECTOR ( 'NONE', #42, 39.37007874015748143 ) ;
#120 = DIRECTION ( 'NONE',  ( -0.000000000000000000, -1.000000000000000000, -0.000000000000000000 ) ) ;
#121 = ORIENTED_EDGE ( 'NONE', *, *, #61, .T. ) ;
#122 = VERTEX_POINT ( 'NONE', #43 ) ;
#123 =( NAMED_UNIT ( * ) PLANE_ANGLE_UNIT ( ) SI_UNIT ( $, .RADIAN. ) );
#124 = MECHANICAL_DESIGN_GEOMETRIC_PRESENTATION_REPRESENTATION (  '', ( #19 ), #98 ) ;
#125 = PRESENTATION_LAYER_ASSIGNMENT (  '', '', ( #285 ) ) ;
#126 = ADVANCED_FACE ( 'NONE', ( #186 ), #118, .F. ) ;
#127 = AXIS2_PLACEMENT_3D ( 'NONE', #230, #7, #203 ) ;
#128 = FILL_AREA_STYLE_COLOUR ( '', #81 ) ;
#129 =( LENGTH_UNIT ( ) NAMED_UNIT ( * ) SI_UNIT ( $, .METRE. ) );
#130 = APPLICATION_CONTEXT ( 'automotive_design' ) ;
#131 = SURFACE_STYLE_FILL_AREA ( #240 ) ;
#132 = DIRECTION ( 'NONE',  ( -1.000000000000000000, 0.000000000000000000, 0.000000000000000000 ) ) ;
#133 = CIRCLE ( 'NONE', #26, 0.06250000000000000000 ) ;
#134 =( GEOMETRIC_REPRESENTATION_CONTEXT ( 3 ) GLOBAL_UNCERTAINTY_ASSIGNED_CONTEXT ( ( #210 ) ) GLOBAL_UNIT_ASSIGNED_CONTEXT ( ( #6, #201, #9 ) ) REPRESENTATION_CONTEXT ( 'NONE', 'WORKASPACE' ) );
#135 = FILL_AREA_STYLE_COLOUR ( '', #143 ) ;
#136 = CYLINDRICAL_SURFACE ( 'NONE', #304, 0.06250000000000001388 ) ;
#137 = EDGE_LOOP ( 'NONE', ( #97, #115, #101, #145 ) ) ;
#138 = CYLINDRICAL_SURFACE ( 'NONE', #255, 0.06250000000000002776 ) ;
#139 = ORIENTED_EDGE ( 'NONE', *, *, #147, .T. ) ;
#140 = UNCERTAINTY_MEASURE_WITH_UNIT (LENGTH_MEASURE( 1.000000000000000082E-05 ), #141, 'distance_accuracy_value', 'NONE');
#141 =( CONVERSION_BASED_UNIT ( 'INCH', #10 ) LENGTH_UNIT ( ) NAMED_UNIT ( #31 ) );
#142 = VERTEX_POINT ( 'NONE', #144 ) ;
#143 = COLOUR_RGB ( '',1.000000000000000000, 0.000000000000000000, 0.000000000000000000 ) ;
#144 = CARTESIAN_POINT ( 'NONE',  ( 7.654042494670960626E-18, 0.000000000000000000, 0.06250000000000002776 ) ) ;
#145 = ORIENTED_EDGE ( 'NONE', *, *, #61, .F. ) ;
#146 = MECHANICAL_DESIGN_GEOMETRIC_PRESENTATION_REPRESENTATION (  '', ( #208 ), #134 ) ;
#147 = EDGE_CURVE ( 'NONE', #188, #166, #54, .T. ) ;
#148 = ORIENTED_EDGE ( 'NONE', *, *, #90, .T. ) ;
#149 = FACE_OUTER_BOUND ( 'NONE', #300, .T. ) ;
#150 =( LENGTH_UNIT ( ) NAMED_UNIT ( * ) SI_UNIT ( $, .METRE. ) );
#151 =( CONVERSION_BASED_UNIT ( 'INCH', #170 ) LENGTH_UNIT ( ) NAMED_UNIT ( #264 ) );
#152 = APPLICATION_CONTEXT ( 'automotive_design' ) ;
#153 = FILL_AREA_STYLE_COLOUR ( '', #232 ) ;
#154 = CARTESIAN_POINT ( 'NONE',  ( 0.000000000000000000, 0.000000000000000000, 0.000000000000000000 ) ) ;
#155 =( GEOMETRIC_REPRESENTATION_CONTEXT ( 3 ) GLOBAL_UNCERTAINTY_ASSIGNED_CONTEXT ( ( #268 ) ) GLOBAL_UNIT_ASSIGNED_CONTEXT ( ( #262, #112, #195 ) ) REPRESENTATION_CONTEXT ( 'NONE', 'WORKASPACE' ) );
#156 = AXIS2_PLACEMENT_3D ( 'NONE', #77, #293, #248 ) ;
#157 = CARTESIAN_POINT ( 'NONE',  ( 0.000000000000000000, 0.5000000000000000000, 0.000000000000000000 ) ) ;
#158 =( GEOMETRIC_REPRESENTATION_CONTEXT ( 3 ) GLOBAL_UNCERTAINTY_ASSIGNED_CONTEXT ( ( #272 ) ) GLOBAL_UNIT_ASSIGNED_CONTEXT ( ( #305, #76, #256 ) ) REPRESENTATION_CONTEXT ( 'NONE', 'WORKASPACE' ) );
#159 = DIRECTION ( 'NONE',  ( 0.000000000000000000, 1.000000000000000000, 0.000000000000000000 ) ) ;
#160 = LINE ( 'NONE', #260, #185 ) ;
#161 = CIRCLE ( 'NONE', #220, 0.06250000000000001388 ) ;
#162 = ORIENTED_EDGE ( 'NONE', *, *, #73, .F. ) ;
#163 = CYLINDRICAL_SURFACE ( 'NONE', #127, 0.06250000000000001388 ) ;
#164 = UNCERTAINTY_MEASURE_WITH_UNIT (LENGTH_MEASURE( 1.000000000000000082E-05 ), #151, 'distance_accuracy_value', 'NONE');
#165 = FILL_AREA_STYLE ('',( #55 ) ) ;
#166 = VERTEX_POINT ( 'NONE', #267 ) ;
#167 = CARTESIAN_POINT ( 'NONE',  ( 7.654042494670959086E-18, 0.5000000000000000000, 0.06250000000000000000 ) ) ;
#168 =( GEOMETRIC_REPRESENTATION_CONTEXT ( 3 ) GLOBAL_UNCERTAINTY_ASSIGNED_CONTEXT ( ( #30 ) ) GLOBAL_UNIT_ASSIGNED_CONTEXT ( ( #171, #274, #306 ) ) REPRESENTATION_CONTEXT ( 'NONE', 'WORKASPACE' ) );
#169 = DIRECTION ( 'NONE',  ( 0.000000000000000000, 0.000000000000000000, -1.000000000000000000 ) ) ;
#170 = LENGTH_MEASURE_WITH_UNIT ( LENGTH_MEASURE( 0.02539999999999999897 ), #67 );
#171 =( CONVERSION_BASED_UNIT ( 'INCH', #68 ) LENGTH_UNIT ( ) NAMED_UNIT ( #206 ) );
#172 = AXIS2_PLACEMENT_3D ( 'NONE', #66, #212, #190 ) ;
#173 = DIRECTION ( 'NONE',  ( 0.000000000000000000, 0.000000000000000000, 1.000000000000000000 ) ) ;
#174 = CARTESIAN_POINT ( 'NONE',  ( 0.000000000000000000, 0.5000000000000001110, 0.000000000000000000 ) ) ;
#175 = COLOUR_RGB ( '',0.7921568627450980005, 0.8196078431372548767, 0.9333333333333333481 ) ;
#176 = DIMENSIONAL_EXPONENTS ( 1.000000000000000000, 0.000000000000000000, 0.000000000000000000, 0.000000000000000000, 0.000000000000000000, 0.000000000000000000, 0.000000000000000000 ) ;
#177 = CARTESIAN_POINT ( 'NONE',  ( -0.06250000000000009714, 2.500000000000000000, 0.000000000000000000 ) ) ;
#178 = APPLICATION_PROTOCOL_DEFINITION ( 'draft international standard', 'automotive_design', 1998, #152 ) ;
#179 = DIRECTION ( 'NONE',  ( -3.061616997868383018E-17, 1.000000000000000000, -0.000000000000000000 ) ) ;
#180 = CARTESIAN_POINT ( 'NONE',  ( 0.06250000000000000000, 0.5000000000000001110, 7.654042494670963708E-18 ) ) ;
#181 = VERTEX_POINT ( 'NONE', #60 ) ;
#182 = PRESENTATION_STYLE_ASSIGNMENT (( #38 ) ) ;
#183 = FACE_OUTER_BOUND ( 'NONE', #270, .T. ) ;
#184 = DIMENSIONAL_EXPONENTS ( 1.000000000000000000, 0.000000000000000000, 0.000000000000000000, 0.000000000000000000, 0.000000000000000000, 0.000000000000000000, 0.000000000000000000 ) ;
#185 = VECTOR ( 'NONE', #3, 39.37007874015748143 ) ;
#186 = FACE_OUTER_BOUND ( 'NONE', #288, .T. ) ;
#187 = CARTESIAN_POINT ( 'NONE',  ( -0.06250000000000000000, 0.5000000000000001110, 0.000000000000000000 ) ) ;
#188 = VERTEX_POINT ( 'NONE', #167 ) ;
#189 = PRESENTATION_LAYER_ASSIGNMENT (  '', '', ( #113 ) ) ;
#190 = DIRECTION ( 'NONE',  ( 0.000000000000000000, 0.000000000000000000, -1.000000000000000000 ) ) ;
#191 = SURFACE_SIDE_STYLE ('',( #100 ) ) ;
#192 = MECHANICAL_DESIGN_GEOMETRIC_PRESENTATION_REPRESENTATION (  '', ( #8 ), #168 ) ;
#193 = PRESENTATION_STYLE_ASSIGNMENT (( #75 ) ) ;
#194 = EDGE_CURVE ( 'NONE', #142, #122, #233, .T. ) ;
#195 =( NAMED_UNIT ( * ) SI_UNIT ( $, .STERADIAN. ) SOLID_ANGLE_UNIT ( ) );
#196 = FILL_AREA_STYLE ('',( #258 ) ) ;
#197 = ADVANCED_FACE ( 'NONE', ( #149 ), #211, .F. ) ;
#198 = DIRECTION ( 'NONE',  ( -0.000000000000000000, -1.000000000000000000, -0.000000000000000000 ) ) ;
#199 = AXIS2_PLACEMENT_3D ( 'NONE', #281, #302, #307 ) ;
#200 =( LENGTH_UNIT ( ) NAMED_UNIT ( * ) SI_UNIT ( $, .METRE. ) );
#201 =( NAMED_UNIT ( * ) PLANE_ANGLE_UNIT ( ) SI_UNIT ( $, .RADIAN. ) );
#202 = CIRCLE ( 'NONE', #84, 0.06250000000000005551 ) ;
#203 = DIRECTION ( 'NONE',  ( 0.000000000000000000, 0.000000000000000000, -1.000000000000000000 ) ) ;
#204 = DIRECTION ( 'NONE',  ( -1.000000000000000000, 0.000000000000000000, 0.000000000000000000 ) ) ;
#205 = ORIENTED_EDGE ( 'NONE', *, *, #273, .T. ) ;
#206 = DIMENSIONAL_EXPONENTS ( 1.000000000000000000, 0.000000000000000000, 0.000000000000000000, 0.000000000000000000, 0.000000000000000000, 0.000000000000000000, 0.000000000000000000 ) ;
#207 = PRESENTATION_LAYER_ASSIGNMENT (  '', '', ( #102 ) ) ;
#208 = STYLED_ITEM ( 'NONE', ( #261 ), #83 ) ;
#209 = ORIENTED_EDGE ( 'NONE', *, *, #22, .T. ) ;
#210 = UNCERTAINTY_MEASURE_WITH_UNIT (LENGTH_MEASURE( 1.000000000000000082E-05 ), #6, 'distance_accuracy_value', 'NONE');
#211 = PLANE ( 'NONE',  #244 ) ;
#212 = DIRECTION ( 'NONE',  ( -0.000000000000000000, -1.000000000000000000, -0.000000000000000000 ) ) ;
#213 = VERTEX_POINT ( 'NONE', #187 ) ;
#214 = CARTESIAN_POINT ( 'NONE',  ( 0.000000000000000000, 0.000000000000000000, 0.000000000000000000 ) ) ;
#215 = FILL_AREA_STYLE ('',( #153 ) ) ;
#216 = ORIENTED_EDGE ( 'NONE', *, *, #298, .F. ) ;
#217 = DIRECTION ( 'NONE',  ( -3.061616997868383018E-17, 1.000000000000000000, -0.000000000000000000 ) ) ;
#218 = CIRCLE ( 'NONE', #156, 0.06250000000000005551 ) ;
#219 = FACE_OUTER_BOUND ( 'NONE', #88, .T. ) ;
#220 = AXIS2_PLACEMENT_3D ( 'NONE', #214, #28, #263 ) ;
#221 = SURFACE_SIDE_STYLE ('',( #131 ) ) ;
#222 = PRESENTATION_STYLE_ASSIGNMENT (( #287 ) ) ;
#223 = ORIENTED_EDGE ( 'NONE', *, *, #18, .T. ) ;
#224 = CIRCLE ( 'NONE', #295, 0.06250000000000000000 ) ;
#225 = DIRECTION ( 'NONE',  ( 0.000000000000000000, -0.000000000000000000, 1.000000000000000000 ) ) ;
#226 = DIRECTION ( 'NONE',  ( -3.061616997868383018E-17, 1.000000000000000000, -0.000000000000000000 ) ) ;
#227 = FILL_AREA_STYLE ('',( #128 ) ) ;
#228 = CARTESIAN_POINT ( 'NONE',  ( -6.123233995736766036E-17, 2.500000000000000000, 0.000000000000000000 ) ) ;
#229 = EDGE_LOOP ( 'NONE', ( #34, #292 ) ) ;
#230 = CARTESIAN_POINT ( 'NONE',  ( 0.000000000000000000, 0.000000000000000000, 0.000000000000000000 ) ) ;
#231 = PRESENTATION_STYLE_ASSIGNMENT (( #2 ) ) ;
#232 = COLOUR_RGB ( '',1.000000000000000000, 0.000000000000000000, 0.000000000000000000 ) ;
#233 = CIRCLE ( 'NONE', #71, 0.06250000000000001388 ) ;
#234 = VERTEX_POINT ( 'NONE', #11 ) ;
#235 = DIRECTION ( 'NONE',  ( 1.000000000000000000, 0.000000000000000000, 0.000000000000000000 ) ) ;
#236 = ORIENTED_EDGE ( 'NONE', *, *, #194, .T. ) ;
#237 = ADVANCED_BREP_SHAPE_REPRESENTATION ( '03045', ( #83, #279, #59 ), #158 ) ;
#238 = AXIS2_PLACEMENT_3D ( 'NONE', #157, #23, #280 ) ;
#239 = ORIENTED_EDGE ( 'NONE', *, *, #73, .T. ) ;
#240 = FILL_AREA_STYLE ('',( #257 ) ) ;
#241 = DIRECTION ( 'NONE',  ( -3.061616997868383018E-17, 1.000000000000000000, -0.000000000000000000 ) ) ;
#242 = ORIENTED_EDGE ( 'NONE', *, *, #108, .F. ) ;
#243 = SURFACE_STYLE_USAGE ( .BOTH. , #78 ) ;
#244 = AXIS2_PLACEMENT_3D ( 'NONE', #96, #297, #94 ) ;
#245 =( LENGTH_UNIT ( ) NAMED_UNIT ( * ) SI_UNIT ( $, .METRE. ) );
#246 = DIMENSIONAL_EXPONENTS ( 1.000000000000000000, 0.000000000000000000, 0.000000000000000000, 0.000000000000000000, 0.000000000000000000, 0.000000000000000000, 0.000000000000000000 ) ;
#247 = CARTESIAN_POINT ( 'NONE',  ( 0.000000000000000000, 0.5000000000000001110, 0.000000000000000000 ) ) ;
#248 = DIRECTION ( 'NONE',  ( -1.000000000000000000, 0.000000000000000000, 0.000000000000000000 ) ) ;
#249 = PRESENTATION_LAYER_ASSIGNMENT (  '', '', ( #19 ) ) ;
#250 = EDGE_CURVE ( 'NONE', #37, #234, #269, .T. ) ;
#251 = AXIS2_PLACEMENT_3D ( 'NONE', #72, #217, #74 ) ;
#252 = ORIENTED_EDGE ( 'NONE', *, *, #22, .F. ) ;
#253 = CARTESIAN_POINT ( 'NONE',  ( 0.000000000000000000, 0.000000000000000000, 0.000000000000000000 ) ) ;
#254 = ADVANCED_FACE ( 'NONE', ( #183 ), #46, .T. ) ;
#255 = AXIS2_PLACEMENT_3D ( 'NONE', #228, #241, #132 ) ;
#256 =( NAMED_UNIT ( * ) SI_UNIT ( $, .STERADIAN. ) SOLID_ANGLE_UNIT ( ) );
#257 = FILL_AREA_STYLE_COLOUR ( '', #175 ) ;
#258 = FILL_AREA_STYLE_COLOUR ( '', #277 ) ;
#259 = PRESENTATION_LAYER_ASSIGNMENT (  '', '', ( #8 ) ) ;
#260 = CARTESIAN_POINT ( 'NONE',  ( 0.000000000000000000, 0.000000000000000000, -0.06250000000000001388 ) ) ;
#261 = PRESENTATION_STYLE_ASSIGNMENT (( #243 ) ) ;
#262 =( CONVERSION_BASED_UNIT ( 'INCH', #284 ) LENGTH_UNIT ( ) NAMED_UNIT ( #184 ) );
#263 = DIRECTION ( 'NONE',  ( 0.000000000000000000, 0.000000000000000000, -1.000000000000000000 ) ) ;
#264 = DIMENSIONAL_EXPONENTS ( 1.000000000000000000, 0.000000000000000000, 0.000000000000000000, 0.000000000000000000, 0.000000000000000000, 0.000000000000000000, 0.000000000000000000 ) ;
#265 =( NAMED_UNIT ( * ) PLANE_ANGLE_UNIT ( ) SI_UNIT ( $, .RADIAN. ) );
#266 = ADVANCED_FACE ( 'NONE', ( #219 ), #163, .T. ) ;
#267 = CARTESIAN_POINT ( 'NONE',  ( 0.000000000000000000, 0.5000000000000000000, -0.06250000000000000000 ) ) ;
#268 = UNCERTAINTY_MEASURE_WITH_UNIT (LENGTH_MEASURE( 1.000000000000000082E-05 ), #262, 'distance_accuracy_value', 'NONE');
#269 = LINE ( 'NONE', #63, #50 ) ;
#270 = EDGE_LOOP ( 'NONE', ( #148, #65, #216, #162 ) ) ;
#271 =( GEOMETRIC_REPRESENTATION_CONTEXT ( 3 ) GLOBAL_UNCERTAINTY_ASSIGNED_CONTEXT ( ( #140 ) ) GLOBAL_UNIT_ASSIGNED_CONTEXT ( ( #141, #265, #116 ) ) REPRESENTATION_CONTEXT ( 'NONE', 'WORKASPACE' ) );
#272 = UNCERTAINTY_MEASURE_WITH_UNIT (LENGTH_MEASURE( 1.000000000000000082E-05 ), #305, 'distance_accuracy_value', 'NONE');
#273 = EDGE_CURVE ( 'NONE', #234, #181, #202, .T. ) ;
#274 =( NAMED_UNIT ( * ) PLANE_ANGLE_UNIT ( ) SI_UNIT ( $, .RADIAN. ) );
#275 = CLOSED_SHELL ( 'NONE', ( #254, #197, #49, #126 ) ) ;
#276 = PRODUCT_CONTEXT ( 'NONE', #130, 'mechanical' ) ;
#277 = COLOUR_RGB ( '',0.7921568627450980005, 0.8196078431372548767, 0.9333333333333333481 ) ;
#278 = EDGE_CURVE ( 'NONE', #166, #188, #286, .T. ) ;
#279 = MANIFOLD_SOLID_BREP ( 'Revolve - Tool Body (Straight Shanked)', #275 ) ;
#280 = DIRECTION ( 'NONE',  ( 0.000000000000000000, 0.000000000000000000, -1.000000000000000000 ) ) ;
#281 = CARTESIAN_POINT ( 'NONE',  ( 0.000000000000000000, 0.000000000000000000, 0.000000000000000000 ) ) ;
#282 = SURFACE_STYLE_USAGE ( .BOTH. , #27 ) ;
#283 = CARTESIAN_POINT ( 'NONE',  ( 0.000000000000000000, 0.000000000000000000, 0.000000000000000000 ) ) ;
#284 = LENGTH_MEASURE_WITH_UNIT ( LENGTH_MEASURE( 0.02539999999999999897 ), #309 );
#285 = STYLED_ITEM ( 'NONE', ( #5 ), #266 ) ;
#286 = CIRCLE ( 'NONE', #238, 0.06250000000000000000 ) ;
#287 = SURFACE_STYLE_USAGE ( .BOTH. , #82 ) ;
#288 = EDGE_LOOP ( 'NONE', ( #103, #205 ) ) ;
#289 = FILL_AREA_STYLE ('',( #135 ) ) ;
#290 =( LENGTH_UNIT ( ) NAMED_UNIT ( * ) SI_UNIT ( $, .METRE. ) );
#291 = DIRECTION ( 'NONE',  ( 1.000000000000000000, 3.061616997868383018E-17, 0.000000000000000000 ) ) ;
#292 = ORIENTED_EDGE ( 'NONE', *, *, #147, .F. ) ;
#293 = DIRECTION ( 'NONE',  ( -3.061616997868383018E-17, 1.000000000000000000, -0.000000000000000000 ) ) ;
#294 = DIRECTION ( 'NONE',  ( -1.000000000000000000, 0.000000000000000000, 0.000000000000000000 ) ) ;
#295 = AXIS2_PLACEMENT_3D ( 'NONE', #174, #91, #294 ) ;
#296 = CARTESIAN_POINT ( 'NONE',  ( 0.06250000000000000000, 2.500000000000000000, 0.000000000000000000 ) ) ;
#297 = DIRECTION ( 'NONE',  ( -3.061616997868383018E-17, 1.000000000000000000, 0.000000000000000000 ) ) ;
#298 = EDGE_CURVE ( 'NONE', #181, #234, #218, .T. ) ;
#299 = LINE ( 'NONE', #45, #119 ) ;
#300 = EDGE_LOOP ( 'NONE', ( #12, #252 ) ) ;
#301 = ADVANCED_FACE ( 'NONE', ( #89 ), #41, .T. ) ;
#302 = DIRECTION ( 'NONE',  ( 0.000000000000000000, -1.000000000000000000, -0.000000000000000000 ) ) ;
#303 = ADVANCED_FACE ( 'NONE', ( #95 ), #1, .T. ) ;
#304 = AXIS2_PLACEMENT_3D ( 'NONE', #283, #198, #40 ) ;
#305 =( CONVERSION_BASED_UNIT ( 'INCH', #106 ) LENGTH_UNIT ( ) NAMED_UNIT ( #52 ) );
#306 =( NAMED_UNIT ( * ) SI_UNIT ( $, .STERADIAN. ) SOLID_ANGLE_UNIT ( ) );
#307 = DIRECTION ( 'NONE',  ( 0.000000000000000000, 0.000000000000000000, -1.000000000000000000 ) ) ;
#308 = APPLICATION_PROTOCOL_DEFINITION ( 'draft international standard', 'automotive_design', 1998, #130 ) ;
#309 =( LENGTH_UNIT ( ) NAMED_UNIT ( * ) SI_UNIT ( $, .METRE. ) );
ENDSEC;
END-ISO-10303-21;
