ISO-10303-21;
HEADER;
FILE_DESCRIPTION (( 'STEP AP214' ),
    '1' );
FILE_NAME ('Micro_EMS-125-4X.STEP',
    '2021-09-01T17:42:41',
    ( '' ),
    ( '' ),
    'SwSTEP 2.0',
    'SolidWorks 2020',
    '' );
FILE_SCHEMA (( 'AUTOMOTIVE_DESIGN' ));
ENDSEC;

DATA;
#1 = ADVANCED_FACE ( 'NONE', ( #19 ), #249, .T. ) ;
#2 = DIRECTION ( 'NONE',  ( -1.000000000000000000, 0.0000000000000000000, 1.224646799147353700E-16 ) ) ;
#3 = DIRECTION ( 'NONE',  ( -0.0000000000000000000, -0.0000000000000000000, -1.000000000000000000 ) ) ;
#4 = AXIS2_PLACEMENT_3D ( 'NONE', #258, #145, #30 ) ;
#5 = PRODUCT_DEFINITION ( 'UNKNOWN', '', #129, #84 ) ;
#6 = UNCERTAINTY_MEASURE_WITH_UNIT (LENGTH_MEASURE( 1.000000000000000082E-05 ), #119, 'distance_accuracy_value', 'NONE');
#7 = VERTEX_POINT ( 'NONE', #297 ) ;
#8 = FILL_AREA_STYLE ('',( #197 ) ) ;
#9 = CIRCLE ( 'NONE', #141, 0.06250000000000002776 ) ;
#10 = ORIENTED_EDGE ( 'NONE', *, *, #51, .F. ) ;
#11 = LENGTH_MEASURE_WITH_UNIT ( LENGTH_MEASURE( 0.02539999999999999897 ), #211 );
#12 = EDGE_CURVE ( 'NONE', #287, #204, #168, .T. ) ;
#13 = DIRECTION ( 'NONE',  ( -0.0000000000000000000, -0.0000000000000000000, -1.000000000000000000 ) ) ;
#14 = DIMENSIONAL_EXPONENTS ( 1.000000000000000000, 0.0000000000000000000, 0.0000000000000000000, 0.0000000000000000000, 0.0000000000000000000, 0.0000000000000000000, 0.0000000000000000000 ) ;
#15 = LINE ( 'NONE', #158, #299 ) ;
#16 = AXIS2_PLACEMENT_3D ( 'NONE', #138, #108, #252 ) ;
#17 = ADVANCED_FACE ( 'NONE', ( #270 ), #272, .T. ) ;
#18 = CARTESIAN_POINT ( 'NONE',  ( 0.0000000000000000000, 0.0000000000000000000, 1.500000000000000222 ) ) ;
#19 = FACE_OUTER_BOUND ( 'NONE', #250, .T. ) ;
#20 = CARTESIAN_POINT ( 'NONE',  ( 6.123233995736768501E-17, 0.0000000000000000000, 0.5000000000000000000 ) ) ;
#21 = FACE_OUTER_BOUND ( 'NONE', #106, .T. ) ;
#22 = ORIENTED_EDGE ( 'NONE', *, *, #62, .T. ) ;
#23 = DIRECTION ( 'NONE',  ( -1.224646799147353700E-16, -0.0000000000000000000, -1.000000000000000000 ) ) ;
#24 = CARTESIAN_POINT ( 'NONE',  ( 0.0000000000000000000, 0.0000000000000000000, 1.500000000000000222 ) ) ;
#25 = DIRECTION ( 'NONE',  ( 1.000000000000000000, 0.0000000000000000000, -0.0000000000000000000 ) ) ;
#26 = ADVANCED_FACE ( 'NONE', ( #248 ), #67, .T. ) ;
#27 = VECTOR ( 'NONE', #137, 39.37007874015748143 ) ;
#28 = CARTESIAN_POINT ( 'NONE',  ( 0.0000000000000000000, 0.0000000000000000000, 1.500000000000000222 ) ) ;
#29 = DIRECTION ( 'NONE',  ( -1.000000000000000000, 0.0000000000000000000, 0.0000000000000000000 ) ) ;
#30 = DIRECTION ( 'NONE',  ( -1.000000000000000000, 0.0000000000000000000, 1.224646799147353947E-16 ) ) ;
#31 = AXIS2_PLACEMENT_3D ( 'NONE', #229, #114, #296 ) ;
#32 = ORIENTED_EDGE ( 'NONE', *, *, #148, .F. ) ;
#33 = FILL_AREA_STYLE ('',( #134 ) ) ;
#34 = EDGE_CURVE ( 'NONE', #86, #7, #135, .T. ) ;
#35 = CONICAL_SURFACE ( 'NONE', #31, 0.06243750000000001382, 0.1745329251994337805 ) ;
#36 = EDGE_LOOP ( 'NONE', ( #95, #265 ) ) ;
#37 = FACE_OUTER_BOUND ( 'NONE', #40, .T. ) ;
#38 = VERTEX_POINT ( 'NONE', #231 ) ;
#39 = CARTESIAN_POINT ( 'NONE',  ( -0.06243749999999999994, 0.0000000000000000000, 1.529277690435258091E-17 ) ) ;
#40 = EDGE_LOOP ( 'NONE', ( #188, #130 ) ) ;
#41 = STYLED_ITEM ( 'NONE', ( #49 ), #202 ) ;
#42 = AXIS2_PLACEMENT_3D ( 'NONE', #294, #194, #170 ) ;
#43 = CARTESIAN_POINT ( 'NONE',  ( 0.06243750000000001382, 7.646388452176288915E-18, -7.646388452176291997E-18 ) ) ;
#44 = VERTEX_POINT ( 'NONE', #133 ) ;
#45 = CARTESIAN_POINT ( 'NONE',  ( 6.123233995736768501E-17, 0.0000000000000000000, 0.5000000000000000000 ) ) ;
#46 = LENGTH_MEASURE_WITH_UNIT ( LENGTH_MEASURE( 0.02539999999999999897 ), #132 );
#47 = ORIENTED_EDGE ( 'NONE', *, *, #237, .T. ) ;
#48 = VECTOR ( 'NONE', #139, 39.37007874015748854 ) ;
#49 = PRESENTATION_STYLE_ASSIGNMENT (( #286 ) ) ;
#50 = PRODUCT_DEFINITION_SHAPE ( 'NONE', 'NONE',  #5 ) ;
#51 = EDGE_CURVE ( 'NONE', #44, #86, #218, .T. ) ;
#52 = FACE_OUTER_BOUND ( 'NONE', #217, .T. ) ;
#53 = ORIENTED_EDGE ( 'NONE', *, *, #159, .T. ) ;
#54 = CLOSED_SHELL ( 'NONE', ( #17, #69, #131, #203, #172, #113, #1, #26, #179, #245 ) ) ;
#55 = DIRECTION ( 'NONE',  ( -0.0000000000000000000, -0.0000000000000000000, -1.000000000000000000 ) ) ;
#56 = PRESENTATION_LAYER_ASSIGNMENT (  '', '', ( #266 ) ) ;
#57 = DIRECTION ( 'NONE',  ( -1.224646799147353700E-16, -0.0000000000000000000, -1.000000000000000000 ) ) ;
#58 = APPLICATION_PROTOCOL_DEFINITION ( 'draft international standard', 'automotive_design', 1998, #146 ) ;
#59 = ORIENTED_EDGE ( 'NONE', *, *, #122, .F. ) ;
#60 = CARTESIAN_POINT ( 'NONE',  ( 0.06250000000000002776, 7.654042494670959086E-18, 1.485000000000000764 ) ) ;
#61 =( GEOMETRIC_REPRESENTATION_CONTEXT ( 3 ) GLOBAL_UNCERTAINTY_ASSIGNED_CONTEXT ( ( #6 ) ) GLOBAL_UNIT_ASSIGNED_CONTEXT ( ( #119, #98, #247 ) ) REPRESENTATION_CONTEXT ( 'NONE', 'WORKASPACE' ) );
#62 = EDGE_CURVE ( 'NONE', #223, #152, #15, .T. ) ;
#63 = DIRECTION ( 'NONE',  ( -1.000000000000000000, 0.0000000000000000000, 0.0000000000000000000 ) ) ;
#64 = DIRECTION ( 'NONE',  ( -0.7071067811865462405, 0.0000000000000000000, -0.7071067811865486830 ) ) ;
#65 = CARTESIAN_POINT ( 'NONE',  ( 0.06243749999999999994, 7.646388452176287375E-18, -9.478001694819074349E-34 ) ) ;
#66 = ORIENTED_EDGE ( 'NONE', *, *, #94, .T. ) ;
#67 = CONICAL_SURFACE ( 'NONE', #234, 0.06243750000000001382, 0.1745329251994337805 ) ;
#68 = DIRECTION ( 'NONE',  ( -1.000000000000000000, 0.0000000000000000000, 1.224646799147353947E-16 ) ) ;
#69 = ADVANCED_FACE ( 'NONE', ( #21 ), #35, .T. ) ;
#70 = ORIENTED_EDGE ( 'NONE', *, *, #94, .F. ) ;
#71 =( CONVERSION_BASED_UNIT ( 'INCH', #46 ) LENGTH_UNIT ( ) NAMED_UNIT ( #14 ) );
#72 = ORIENTED_EDGE ( 'NONE', *, *, #237, .F. ) ;
#73 = ORIENTED_EDGE ( 'NONE', *, *, #12, .F. ) ;
#74 = DIRECTION ( 'NONE',  ( 0.0000000000000000000, 0.0000000000000000000, -1.000000000000000000 ) ) ;
#75 = PRODUCT_CONTEXT ( 'NONE', #146, 'mechanical' ) ;
#76 = DIRECTION ( 'NONE',  ( -1.224646799147353700E-16, -0.0000000000000000000, -1.000000000000000000 ) ) ;
#77 = CARTESIAN_POINT ( 'NONE',  ( 0.0000000000000000000, 0.0000000000000000000, 1.500000000000000222 ) ) ;
#78 = DIRECTION ( 'NONE',  ( -1.000000000000000000, 0.0000000000000000000, 0.0000000000000000000 ) ) ;
#79 = EDGE_CURVE ( 'NONE', #44, #161, #190, .T. ) ;
#80 = VECTOR ( 'NONE', #76, 39.37007874015748143 ) ;
#81 = ORIENTED_EDGE ( 'NONE', *, *, #101, .F. ) ;
#82 = CARTESIAN_POINT ( 'NONE',  ( -0.06250000000000002776, 0.0000000000000000000, 1.500000000000000222 ) ) ;
#83 = DIRECTION ( 'NONE',  ( 1.000000000000000000, 0.0000000000000000000, -0.0000000000000000000 ) ) ;
#84 = PRODUCT_DEFINITION_CONTEXT ( 'detailed design', #164, 'design' ) ;
#85 = PLANE ( 'NONE',  #162 ) ;
#86 = VERTEX_POINT ( 'NONE', #282 ) ;
#87 = LINE ( 'NONE', #43, #27 ) ;
#88 = ORIENTED_EDGE ( 'NONE', *, *, #195, .T. ) ;
#89 =( NAMED_UNIT ( * ) PLANE_ANGLE_UNIT ( ) SI_UNIT ( $, .RADIAN. ) );
#90 = ORIENTED_EDGE ( 'NONE', *, *, #91, .T. ) ;
#91 = EDGE_CURVE ( 'NONE', #293, #161, #96, .T. ) ;
#92 = ORIENTED_EDGE ( 'NONE', *, *, #159, .F. ) ;
#93 = CARTESIAN_POINT ( 'NONE',  ( 9.364125142994982608E-34, 0.0000000000000000000, 7.646388452176290456E-18 ) ) ;
#94 = EDGE_CURVE ( 'NONE', #161, #7, #224, .T. ) ;
#95 = ORIENTED_EDGE ( 'NONE', *, *, #101, .T. ) ;
#96 = LINE ( 'NONE', #259, #278 ) ;
#97 = AXIS2_PLACEMENT_3D ( 'NONE', #209, #290, #153 ) ;
#98 =( NAMED_UNIT ( * ) PLANE_ANGLE_UNIT ( ) SI_UNIT ( $, .RADIAN. ) );
#99 = DIRECTION ( 'NONE',  ( 0.7071067811865462405, 8.659560562354916834E-17, -0.7071067811865486830 ) ) ;
#100 = DIRECTION ( 'NONE',  ( 0.1736481776669312749, 0.0000000000000000000, 0.9848077530122077983 ) ) ;
#101 = EDGE_CURVE ( 'NONE', #223, #38, #116, .T. ) ;
#102 = AXIS2_PLACEMENT_3D ( 'NONE', #77, #241, #25 ) ;
#103 = SURFACE_STYLE_FILL_AREA ( #8 ) ;
#104 = COLOUR_RGB ( '',0.7921568627450980005, 0.8196078431372548767, 0.9333333333333333481 ) ;
#105 = CARTESIAN_POINT ( 'NONE',  ( 0.0000000000000000000, 0.0000000000000000000, 0.0000000000000000000 ) ) ;
#106 = EDGE_LOOP ( 'NONE', ( #187, #180, #227, #235 ) ) ;
#107 = LINE ( 'NONE', #82, #285 ) ;
#108 = DIRECTION ( 'NONE',  ( 0.0000000000000000000, 0.0000000000000000000, -1.000000000000000000 ) ) ;
#109 = MECHANICAL_DESIGN_GEOMETRIC_PRESENTATION_REPRESENTATION (  '', ( #41 ), #61 ) ;
#110 =( GEOMETRIC_REPRESENTATION_CONTEXT ( 3 ) GLOBAL_UNCERTAINTY_ASSIGNED_CONTEXT ( ( #199 ) ) GLOBAL_UNIT_ASSIGNED_CONTEXT ( ( #206, #178, #157 ) ) REPRESENTATION_CONTEXT ( 'NONE', 'WORKASPACE' ) );
#111 = DIRECTION ( 'NONE',  ( 1.000000000000000000, 0.0000000000000000000, 0.0000000000000000000 ) ) ;
#112 = DIRECTION ( 'NONE',  ( -1.000000000000000000, 0.0000000000000000000, 0.0000000000000000000 ) ) ;
#113 = ADVANCED_FACE ( 'NONE', ( #281 ), #176, .T. ) ;
#114 = DIRECTION ( 'NONE',  ( 1.224646799147353700E-16, 0.0000000000000000000, 1.000000000000000000 ) ) ;
#115 = EDGE_LOOP ( 'NONE', ( #53, #90, #298, #72 ) ) ;
#116 = CIRCLE ( 'NONE', #283, 0.04750000000000064587 ) ;
#117 = DIRECTION ( 'NONE',  ( 1.224646799147353700E-16, 0.0000000000000000000, 1.000000000000000000 ) ) ;
#118 = CARTESIAN_POINT ( 'NONE',  ( -0.06250000000000002776, 0.0000000000000000000, 1.485000000000000764 ) ) ;
#119 =( CONVERSION_BASED_UNIT ( 'INCH', #142 ) LENGTH_UNIT ( ) NAMED_UNIT ( #271 ) );
#120 = CIRCLE ( 'NONE', #189, 0.04750000000000064587 ) ;
#121 = CYLINDRICAL_SURFACE ( 'NONE', #128, 0.06250000000000002776 ) ;
#122 = EDGE_CURVE ( 'NONE', #204, #287, #268, .T. ) ;
#123 = DIRECTION ( 'NONE',  ( 1.000000000000000000, 0.0000000000000000000, 0.0000000000000000000 ) ) ;
#124 = ADVANCED_BREP_SHAPE_REPRESENTATION ( 'Micro_EMS-125-4X', ( #202, #42 ), #110 ) ;
#125 = LINE ( 'NONE', #221, #126 ) ;
#126 = VECTOR ( 'NONE', #99, 39.37007874015748854 ) ;
#127 = FACE_OUTER_BOUND ( 'NONE', #115, .T. ) ;
#128 = AXIS2_PLACEMENT_3D ( 'NONE', #18, #13, #112 ) ;
#129 = PRODUCT_DEFINITION_FORMATION_WITH_SPECIFIED_SOURCE ( 'ANY', '', #166, .NOT_KNOWN. ) ;
#130 = ORIENTED_EDGE ( 'NONE', *, *, #122, .T. ) ;
#131 = ADVANCED_FACE ( 'NONE', ( #52 ), #150, .T. ) ;
#132 =( LENGTH_UNIT ( ) NAMED_UNIT ( * ) SI_UNIT ( $, .METRE. ) );
#133 = CARTESIAN_POINT ( 'NONE',  ( 0.06243750000000006933, 0.0000000000000000000, 0.5000000000000000000 ) ) ;
#134 = FILL_AREA_STYLE_COLOUR ( '', #175 ) ;
#135 = LINE ( 'NONE', #210, #48 ) ;
#136 =( GEOMETRIC_REPRESENTATION_CONTEXT ( 3 ) GLOBAL_UNCERTAINTY_ASSIGNED_CONTEXT ( ( #156 ) ) GLOBAL_UNIT_ASSIGNED_CONTEXT ( ( #71, #89, #193 ) ) REPRESENTATION_CONTEXT ( 'NONE', 'WORKASPACE' ) );
#137 = DIRECTION ( 'NONE',  ( -1.224646799147353700E-16, -0.0000000000000000000, -1.000000000000000000 ) ) ;
#138 = CARTESIAN_POINT ( 'NONE',  ( 0.0000000000000000000, 0.0000000000000000000, 1.500000000000000222 ) ) ;
#139 = DIRECTION ( 'NONE',  ( -0.1736481776669310528, 2.126576849575781776E-17, 0.9848077530122080203 ) ) ;
#140 = EDGE_LOOP ( 'NONE', ( #243, #151, #73, #251 ) ) ;
#141 = AXIS2_PLACEMENT_3D ( 'NONE', #205, #230, #225 ) ;
#142 = LENGTH_MEASURE_WITH_UNIT ( LENGTH_MEASURE( 0.02539999999999999897 ), #238 );
#143 = DIRECTION ( 'NONE',  ( 0.0000000000000000000, 0.0000000000000000000, 1.000000000000000000 ) ) ;
#144 = CIRCLE ( 'NONE', #97, 0.06250000000000002776 ) ;
#145 = DIRECTION ( 'NONE',  ( -1.224646799147353700E-16, -0.0000000000000000000, -1.000000000000000000 ) ) ;
#146 = APPLICATION_CONTEXT ( 'automotive_design' ) ;
#147 = CARTESIAN_POINT ( 'NONE',  ( -0.06243750000000001382, 0.0000000000000000000, 7.646388452176291997E-18 ) ) ;
#148 = EDGE_CURVE ( 'NONE', #38, #223, #120, .T. ) ;
#149 = ORIENTED_EDGE ( 'NONE', *, *, #184, .T. ) ;
#150 = CONICAL_SURFACE ( 'NONE', #207, 0.04750000000000064587, 0.7853981633974466137 ) ;
#151 = ORIENTED_EDGE ( 'NONE', *, *, #262, .T. ) ;
#152 = VERTEX_POINT ( 'NONE', #118 ) ;
#153 = DIRECTION ( 'NONE',  ( 1.000000000000000000, 0.0000000000000000000, 0.0000000000000000000 ) ) ;
#154 = PRESENTATION_STYLE_ASSIGNMENT (( #226 ) ) ;
#155 = DIMENSIONAL_EXPONENTS ( 1.000000000000000000, 0.0000000000000000000, 0.0000000000000000000, 0.0000000000000000000, 0.0000000000000000000, 0.0000000000000000000, 0.0000000000000000000 ) ;
#156 = UNCERTAINTY_MEASURE_WITH_UNIT (LENGTH_MEASURE( 1.000000000000000082E-05 ), #71, 'distance_accuracy_value', 'NONE');
#157 =( NAMED_UNIT ( * ) SI_UNIT ( $, .STERADIAN. ) SOLID_ANGLE_UNIT ( ) );
#158 = CARTESIAN_POINT ( 'NONE',  ( -0.04750000000000064587, 0.0000000000000000000, 1.500000000000000222 ) ) ;
#159 = EDGE_CURVE ( 'NONE', #152, #293, #177, .T. ) ;
#160 = CARTESIAN_POINT ( 'NONE',  ( -0.04750000000000064587, 0.0000000000000000000, 1.500000000000000222 ) ) ;
#161 = VERTEX_POINT ( 'NONE', #167 ) ;
#162 = AXIS2_PLACEMENT_3D ( 'NONE', #105, #292, #83 ) ;
#163 = DIRECTION ( 'NONE',  ( -1.224646799147353700E-16, -0.0000000000000000000, -1.000000000000000000 ) ) ;
#164 = APPLICATION_CONTEXT ( 'automotive_design' ) ;
#165 = DIRECTION ( 'NONE',  ( -1.000000000000000000, 0.0000000000000000000, 0.0000000000000000000 ) ) ;
#166 = PRODUCT ( 'Micro_EMS-125-4X', 'Micro_EMS-125-4X', '', ( #75 ) ) ;
#167 = CARTESIAN_POINT ( 'NONE',  ( 0.06250000000000008327, 7.654042494670966789E-18, 0.5003544551137261154 ) ) ;
#168 = CIRCLE ( 'NONE', #200, 0.06243749999999999994 ) ;
#169 = DIRECTION ( 'NONE',  ( 1.000000000000000000, 0.0000000000000000000, 0.0000000000000000000 ) ) ;
#170 = DIRECTION ( 'NONE',  ( 1.000000000000000000, 0.0000000000000000000, 0.0000000000000000000 ) ) ;
#171 = DIRECTION ( 'NONE',  ( -1.224646799147353700E-16, -0.0000000000000000000, -1.000000000000000000 ) ) ;
#172 = ADVANCED_FACE ( 'NONE', ( #198 ), #236, .T. ) ;
#173 = DIRECTION ( 'NONE',  ( 0.0000000000000000000, 0.0000000000000000000, 1.000000000000000000 ) ) ;
#174 = CIRCLE ( 'NONE', #260, 0.06243750000000001382 ) ;
#175 = COLOUR_RGB ( '',0.7921568627450980005, 0.8196078431372548767, 0.9333333333333333481 ) ;
#176 = PLANE ( 'NONE',  #102 ) ;
#177 = CIRCLE ( 'NONE', #261, 0.06250000000000002776 ) ;
#178 =( NAMED_UNIT ( * ) PLANE_ANGLE_UNIT ( ) SI_UNIT ( $, .RADIAN. ) );
#179 = ADVANCED_FACE ( 'NONE', ( #263 ), #280, .T. ) ;
#180 = ORIENTED_EDGE ( 'NONE', *, *, #34, .T. ) ;
#181 = AXIS2_PLACEMENT_3D ( 'NONE', #220, #3, #78 ) ;
#182 = MECHANICAL_DESIGN_GEOMETRIC_PRESENTATION_REPRESENTATION (  '', ( #266 ), #136 ) ;
#183 = DIRECTION ( 'NONE',  ( -1.224646799147353700E-16, -0.0000000000000000000, -1.000000000000000000 ) ) ;
#184 = EDGE_CURVE ( 'NONE', #86, #287, #256, .T. ) ;
#185 = ORIENTED_EDGE ( 'NONE', *, *, #62, .F. ) ;
#186 = DIRECTION ( 'NONE',  ( -0.0000000000000000000, -0.0000000000000000000, -1.000000000000000000 ) ) ;
#187 = ORIENTED_EDGE ( 'NONE', *, *, #269, .F. ) ;
#188 = ORIENTED_EDGE ( 'NONE', *, *, #12, .T. ) ;
#189 = AXIS2_PLACEMENT_3D ( 'NONE', #24, #143, #169 ) ;
#190 = LINE ( 'NONE', #275, #213 ) ;
#191 = ORIENTED_EDGE ( 'NONE', *, *, #51, .T. ) ;
#192 = ORIENTED_EDGE ( 'NONE', *, *, #264, .T. ) ;
#193 =( NAMED_UNIT ( * ) SI_UNIT ( $, .STERADIAN. ) SOLID_ANGLE_UNIT ( ) );
#194 = DIRECTION ( 'NONE',  ( 0.0000000000000000000, 0.0000000000000000000, 1.000000000000000000 ) ) ;
#195 = EDGE_CURVE ( 'NONE', #38, #293, #125, .T. ) ;
#196 = DIRECTION ( 'NONE',  ( 1.000000000000000000, 0.0000000000000000000, 0.0000000000000000000 ) ) ;
#197 = FILL_AREA_STYLE_COLOUR ( '', #104 ) ;
#198 = FACE_OUTER_BOUND ( 'NONE', #267, .T. ) ;
#199 = UNCERTAINTY_MEASURE_WITH_UNIT (LENGTH_MEASURE( 1.000000000000000082E-05 ), #206, 'distance_accuracy_value', 'NONE');
#200 = AXIS2_PLACEMENT_3D ( 'NONE', #93, #23, #68 ) ;
#201 = SURFACE_SIDE_STYLE ('',( #103 ) ) ;
#202 = MANIFOLD_SOLID_BREP ( 'Cut-Revolve1', #54 ) ;
#203 = ADVANCED_FACE ( 'NONE', ( #127 ), #121, .T. ) ;
#204 = VERTEX_POINT ( 'NONE', #65 ) ;
#205 = CARTESIAN_POINT ( 'NONE',  ( 0.0000000000000000000, 0.0000000000000000000, 1.485000000000000764 ) ) ;
#206 =( CONVERSION_BASED_UNIT ( 'INCH', #11 ) LENGTH_UNIT ( ) NAMED_UNIT ( #155 ) );
#207 = AXIS2_PLACEMENT_3D ( 'NONE', #279, #239, #29 ) ;
#208 = ORIENTED_EDGE ( 'NONE', *, *, #34, .F. ) ;
#209 = CARTESIAN_POINT ( 'NONE',  ( 6.127574818941429733E-17, 0.0000000000000000000, 0.5003544551137261154 ) ) ;
#210 = CARTESIAN_POINT ( 'NONE',  ( -0.06243749999999995137, 7.646388452176288915E-18, 0.5000000000000000000 ) ) ;
#211 =( LENGTH_UNIT ( ) NAMED_UNIT ( * ) SI_UNIT ( $, .METRE. ) );
#212 = CARTESIAN_POINT ( 'NONE',  ( 0.0000000000000000000, 0.0000000000000000000, 0.0000000000000000000 ) ) ;
#213 = VECTOR ( 'NONE', #100, 39.37007874015748143 ) ;
#214 = DIRECTION ( 'NONE',  ( -1.000000000000000000, 0.0000000000000000000, 1.224646799147353700E-16 ) ) ;
#215 = ORIENTED_EDGE ( 'NONE', *, *, #195, .F. ) ;
#216 = CARTESIAN_POINT ( 'NONE',  ( 0.0000000000000000000, 0.0000000000000000000, 0.0000000000000000000 ) ) ;
#217 = EDGE_LOOP ( 'NONE', ( #32, #88, #92, #185 ) ) ;
#218 = CIRCLE ( 'NONE', #253, 0.06243750000000001382 ) ;
#219 = CARTESIAN_POINT ( 'NONE',  ( 6.127574818941429733E-17, 0.0000000000000000000, 0.5003544551137261154 ) ) ;
#220 = CARTESIAN_POINT ( 'NONE',  ( 0.0000000000000000000, 0.0000000000000000000, 1.500000000000000222 ) ) ;
#221 = CARTESIAN_POINT ( 'NONE',  ( 0.04750000000000064587, 5.817072295950006528E-18, 1.500000000000000222 ) ) ;
#222 = AXIS2_PLACEMENT_3D ( 'NONE', #216, #57, #2 ) ;
#223 = VERTEX_POINT ( 'NONE', #160 ) ;
#224 = CIRCLE ( 'NONE', #244, 0.06250000000000002776 ) ;
#225 = DIRECTION ( 'NONE',  ( 1.000000000000000000, 0.0000000000000000000, 0.0000000000000000000 ) ) ;
#226 = SURFACE_STYLE_USAGE ( .BOTH. , #288 ) ;
#227 = ORIENTED_EDGE ( 'NONE', *, *, #232, .T. ) ;
#228 = SURFACE_STYLE_FILL_AREA ( #33 ) ;
#229 = CARTESIAN_POINT ( 'NONE',  ( 6.123233995736768501E-17, 0.0000000000000000000, 0.5000000000000000000 ) ) ;
#230 = DIRECTION ( 'NONE',  ( 0.0000000000000000000, 0.0000000000000000000, -1.000000000000000000 ) ) ;
#231 = CARTESIAN_POINT ( 'NONE',  ( 0.04750000000000064587, 6.735557395310483192E-18, 1.500000000000000222 ) ) ;
#232 = EDGE_CURVE ( 'NONE', #7, #161, #144, .T. ) ;
#233 = ORIENTED_EDGE ( 'NONE', *, *, #264, .F. ) ;
#234 = AXIS2_PLACEMENT_3D ( 'NONE', #45, #117, #111 ) ;
#235 = ORIENTED_EDGE ( 'NONE', *, *, #79, .F. ) ;
#236 = CYLINDRICAL_SURFACE ( 'NONE', #181, 0.06250000000000002776 ) ;
#237 = EDGE_CURVE ( 'NONE', #152, #7, #107, .T. ) ;
#238 =( LENGTH_UNIT ( ) NAMED_UNIT ( * ) SI_UNIT ( $, .METRE. ) );
#239 = DIRECTION ( 'NONE',  ( 0.0000000000000000000, 0.0000000000000000000, -1.000000000000000000 ) ) ;
#240 = CARTESIAN_POINT ( 'NONE',  ( 0.0000000000000000000, 0.0000000000000000000, 1.485000000000000764 ) ) ;
#241 = DIRECTION ( 'NONE',  ( 0.0000000000000000000, 0.0000000000000000000, 1.000000000000000000 ) ) ;
#242 = PRESENTATION_LAYER_ASSIGNMENT (  '', '', ( #41 ) ) ;
#243 = ORIENTED_EDGE ( 'NONE', *, *, #269, .T. ) ;
#244 = AXIS2_PLACEMENT_3D ( 'NONE', #219, #171, #254 ) ;
#245 = ADVANCED_FACE ( 'NONE', ( #37 ), #85, .F. ) ;
#246 = EDGE_LOOP ( 'NONE', ( #255, #191, #149, #59 ) ) ;
#247 =( NAMED_UNIT ( * ) SI_UNIT ( $, .STERADIAN. ) SOLID_ANGLE_UNIT ( ) );
#248 = FACE_OUTER_BOUND ( 'NONE', #291, .T. ) ;
#249 = CONICAL_SURFACE ( 'NONE', #16, 0.04750000000000064587, 0.7853981633974466137 ) ;
#250 = EDGE_LOOP ( 'NONE', ( #215, #81, #22, #233 ) ) ;
#251 = ORIENTED_EDGE ( 'NONE', *, *, #184, .F. ) ;
#252 = DIRECTION ( 'NONE',  ( -1.000000000000000000, 0.0000000000000000000, 0.0000000000000000000 ) ) ;
#253 = AXIS2_PLACEMENT_3D ( 'NONE', #273, #277, #165 ) ;
#254 = DIRECTION ( 'NONE',  ( 1.000000000000000000, 0.0000000000000000000, 0.0000000000000000000 ) ) ;
#255 = ORIENTED_EDGE ( 'NONE', *, *, #262, .F. ) ;
#256 = LINE ( 'NONE', #147, #80 ) ;
#257 = APPLICATION_PROTOCOL_DEFINITION ( 'draft international standard', 'automotive_design', 1998, #164 ) ;
#258 = CARTESIAN_POINT ( 'NONE',  ( 9.364125142994982608E-34, 0.0000000000000000000, 7.646388452176290456E-18 ) ) ;
#259 = CARTESIAN_POINT ( 'NONE',  ( 0.06250000000000002776, 7.654042494670959086E-18, 1.500000000000000222 ) ) ;
#260 = AXIS2_PLACEMENT_3D ( 'NONE', #20, #183, #63 ) ;
#261 = AXIS2_PLACEMENT_3D ( 'NONE', #240, #74, #123 ) ;
#262 = EDGE_CURVE ( 'NONE', #44, #204, #87, .T. ) ;
#263 = FACE_OUTER_BOUND ( 'NONE', #246, .T. ) ;
#264 = EDGE_CURVE ( 'NONE', #293, #152, #9, .T. ) ;
#265 = ORIENTED_EDGE ( 'NONE', *, *, #148, .T. ) ;
#266 = STYLED_ITEM ( 'NONE', ( #154 ), #124 ) ;
#267 = EDGE_LOOP ( 'NONE', ( #284, #192, #47, #70 ) ) ;
#268 = CIRCLE ( 'NONE', #4, 0.06243749999999999994 ) ;
#269 = EDGE_CURVE ( 'NONE', #86, #44, #174, .T. ) ;
#270 = FACE_OUTER_BOUND ( 'NONE', #140, .T. ) ;
#271 = DIMENSIONAL_EXPONENTS ( 1.000000000000000000, 0.0000000000000000000, 0.0000000000000000000, 0.0000000000000000000, 0.0000000000000000000, 0.0000000000000000000, 0.0000000000000000000 ) ;
#272 = CYLINDRICAL_SURFACE ( 'NONE', #289, 0.06243750000000001382 ) ;
#273 = CARTESIAN_POINT ( 'NONE',  ( 6.123233995736768501E-17, 0.0000000000000000000, 0.5000000000000000000 ) ) ;
#274 = SHAPE_DEFINITION_REPRESENTATION ( #50, #124 ) ;
#275 = CARTESIAN_POINT ( 'NONE',  ( 0.06243750000000006933, 0.0000000000000000000, 0.5000000000000000000 ) ) ;
#276 = PRODUCT_RELATED_PRODUCT_CATEGORY ( 'part', '', ( #166 ) ) ;
#277 = DIRECTION ( 'NONE',  ( -1.224646799147353700E-16, -0.0000000000000000000, -1.000000000000000000 ) ) ;
#278 = VECTOR ( 'NONE', #55, 39.37007874015748143 ) ;
#279 = CARTESIAN_POINT ( 'NONE',  ( 0.0000000000000000000, 0.0000000000000000000, 1.500000000000000222 ) ) ;
#280 = CYLINDRICAL_SURFACE ( 'NONE', #222, 0.06243750000000001382 ) ;
#281 = FACE_OUTER_BOUND ( 'NONE', #36, .T. ) ;
#282 = CARTESIAN_POINT ( 'NONE',  ( -0.06243749999999995137, 7.650215473423624771E-18, 0.5000000000000000000 ) ) ;
#283 = AXIS2_PLACEMENT_3D ( 'NONE', #28, #173, #196 ) ;
#284 = ORIENTED_EDGE ( 'NONE', *, *, #91, .F. ) ;
#285 = VECTOR ( 'NONE', #186, 39.37007874015748143 ) ;
#286 = SURFACE_STYLE_USAGE ( .BOTH. , #201 ) ;
#287 = VERTEX_POINT ( 'NONE', #39 ) ;
#288 = SURFACE_SIDE_STYLE ('',( #228 ) ) ;
#289 = AXIS2_PLACEMENT_3D ( 'NONE', #212, #163, #214 ) ;
#290 = DIRECTION ( 'NONE',  ( -1.224646799147353700E-16, -0.0000000000000000000, -1.000000000000000000 ) ) ;
#291 = EDGE_LOOP ( 'NONE', ( #208, #10, #295, #66 ) ) ;
#292 = DIRECTION ( 'NONE',  ( 0.0000000000000000000, 0.0000000000000000000, 1.000000000000000000 ) ) ;
#293 = VERTEX_POINT ( 'NONE', #60 ) ;
#294 = CARTESIAN_POINT ( 'NONE',  ( 0.0000000000000000000, 0.0000000000000000000, 0.0000000000000000000 ) ) ;
#295 = ORIENTED_EDGE ( 'NONE', *, *, #79, .T. ) ;
#296 = DIRECTION ( 'NONE',  ( 1.000000000000000000, 0.0000000000000000000, 0.0000000000000000000 ) ) ;
#297 = CARTESIAN_POINT ( 'NONE',  ( -0.06249999999999996531, 0.0000000000000000000, 0.5003544551137261154 ) ) ;
#298 = ORIENTED_EDGE ( 'NONE', *, *, #232, .F. ) ;
#299 = VECTOR ( 'NONE', #64, 39.37007874015748854 ) ;
ENDSEC;
END-ISO-10303-21;
