ISO-10303-21;
HEADER;
FILE_DESCRIPTION (( 'STEP AP214' ),
    '1' );
FILE_NAME ('83786.STEP',
    '2023-07-05T16:05:42',
    ( '' ),
    ( '' ),
    'SwSTEP 2.0',
    'SolidWorks 2023',
    '' );
FILE_SCHEMA (( 'AUTOMOTIVE_DESIGN' ));
ENDSEC;

DATA;
#1 = AXIS2_PLACEMENT_3D ( 'NONE', #154, #241, #239 ) ;
#2 = CIRCLE ( 'NONE', #237, 0.1250000000000000555 ) ;
#3 = CLOSED_SHELL ( 'NONE', ( #204, #192, #77, #58 ) ) ;
#4 = EDGE_CURVE ( 'NONE', #112, #80, #93, .T. ) ;
#5 =( LENGTH_UNIT ( ) NAMED_UNIT ( * ) SI_UNIT ( $, .METRE. ) );
#6 = ADVANCED_FACE ( 'NONE', ( #257 ), #64, .T. ) ;
#7 = FACE_OUTER_BOUND ( 'NONE', #36, .T. ) ;
#8 = ORIENTED_EDGE ( 'NONE', *, *, #181, .T. ) ;
#9 = DIRECTION ( 'NONE',  ( 0.000000000000000000, 0.000000000000000000, 1.000000000000000000 ) ) ;
#10 = AXIS2_PLACEMENT_3D ( 'NONE', #190, #42, #40 ) ;
#11 = EDGE_LOOP ( 'NONE', ( #28, #82, #171 ) ) ;
#12 = ORIENTED_EDGE ( 'NONE', *, *, #188, .T. ) ;
#13 = FILL_AREA_STYLE ('',( #22 ) ) ;
#14 = ORIENTED_EDGE ( 'NONE', *, *, #109, .F. ) ;
#15 = DIRECTION ( 'NONE',  ( -1.221490049109858028E-16, 1.000000000000000000, -0.000000000000000000 ) ) ;
#16 = PRODUCT_DEFINITION_SHAPE ( 'NONE', 'NONE',  #218 ) ;
#17 = SURFACE_STYLE_USAGE ( .BOTH. , #178 ) ;
#18 = EDGE_LOOP ( 'NONE', ( #84, #21, #8 ) ) ;
#19 = AXIS2_PLACEMENT_3D ( 'NONE', #100, #163, #166 ) ;
#20 =( NAMED_UNIT ( * ) PLANE_ANGLE_UNIT ( ) SI_UNIT ( $, .RADIAN. ) );
#21 = ORIENTED_EDGE ( 'NONE', *, *, #170, .T. ) ;
#22 = FILL_AREA_STYLE_COLOUR ( '', #212 ) ;
#23 = FILL_AREA_STYLE_COLOUR ( '', #123 ) ;
#24 = STYLED_ITEM ( 'NONE', ( #198 ), #6 ) ;
#25 = MANIFOLD_SOLID_BREP ( 'Revolve - Cutting Edge', #108 ) ;
#26 = PRODUCT_CONTEXT ( 'NONE', #162, 'mechanical' ) ;
#27 = SURFACE_SIDE_STYLE ('',( #73 ) ) ;
#28 = ORIENTED_EDGE ( 'NONE', *, *, #170, .F. ) ;
#29 = ORIENTED_EDGE ( 'NONE', *, *, #109, .T. ) ;
#30 = CIRCLE ( 'NONE', #147, 0.1249999999999999861 ) ;
#31 = ORIENTED_EDGE ( 'NONE', *, *, #4, .F. ) ;
#32 = COLOUR_RGB ( '',0.7921568627450980005, 0.8196078431372548767, 0.9333333333333333481 ) ;
#33 = FILL_AREA_STYLE ('',( #105 ) ) ;
#34 = VECTOR ( 'NONE', #157, 39.37007874015748143 ) ;
#35 = VECTOR ( 'NONE', #15, 39.37007874015748143 ) ;
#36 = EDGE_LOOP ( 'NONE', ( #29, #60 ) ) ;
#37 = SURFACE_STYLE_USAGE ( .BOTH. , #260 ) ;
#38 = CYLINDRICAL_SURFACE ( 'NONE', #10, 0.1249999999999999029 ) ;
#39 = DIRECTION ( 'NONE',  ( -1.221490049109858028E-16, 1.000000000000000000, -0.000000000000000000 ) ) ;
#40 = DIRECTION ( 'NONE',  ( -1.000000000000000000, 0.000000000000000000, 0.000000000000000000 ) ) ;
#41 = EDGE_CURVE ( 'NONE', #191, #255, #149, .T. ) ;
#42 = DIRECTION ( 'NONE',  ( -1.221490049109858028E-16, 1.000000000000000000, -0.000000000000000000 ) ) ;
#43 = ADVANCED_FACE ( 'NONE', ( #144 ), #91, .T. ) ;
#44 =( NAMED_UNIT ( * ) PLANE_ANGLE_UNIT ( ) SI_UNIT ( $, .RADIAN. ) );
#45 = CARTESIAN_POINT ( 'NONE',  ( 0.000000000000000000, 0.000000000000000000, 0.000000000000000000 ) ) ;
#46 = ORIENTED_EDGE ( 'NONE', *, *, #181, .F. ) ;
#47 = AXIS2_PLACEMENT_3D ( 'NONE', #133, #39, #92 ) ;
#48 = COLOUR_RGB ( '',1.000000000000000000, 0.000000000000000000, 0.000000000000000000 ) ;
#49 = ORIENTED_EDGE ( 'NONE', *, *, #142, .T. ) ;
#50 = AXIS2_PLACEMENT_3D ( 'NONE', #240, #256, #138 ) ;
#51 = MECHANICAL_DESIGN_GEOMETRIC_PRESENTATION_REPRESENTATION (  '', ( #167 ), #96 ) ;
#52 = SURFACE_STYLE_USAGE ( .BOTH. , #235 ) ;
#53 = CARTESIAN_POINT ( 'NONE',  ( -0.1250000000000001110, 2.500000000000000000, 0.000000000000000000 ) ) ;
#54 = PLANE ( 'NONE',  #50 ) ;
#55 = DIRECTION ( 'NONE',  ( -0.000000000000000000, -1.000000000000000000, -0.000000000000000000 ) ) ;
#56 = SHAPE_DEFINITION_REPRESENTATION ( #16, #128 ) ;
#57 = STYLED_ITEM ( 'NONE', ( #99 ), #264 ) ;
#58 = ADVANCED_FACE ( 'NONE', ( #7 ), #249, .F. ) ;
#59 = CARTESIAN_POINT ( 'NONE',  ( 0.1249999999999999861, 2.500000000000000000, 1.530808498934191201E-17 ) ) ;
#60 = ORIENTED_EDGE ( 'NONE', *, *, #151, .T. ) ;
#61 = FACE_OUTER_BOUND ( 'NONE', #189, .T. ) ;
#62 = VECTOR ( 'NONE', #126, 39.37007874015748143 ) ;
#63 = SURFACE_STYLE_FILL_AREA ( #87 ) ;
#64 = PLANE ( 'NONE',  #1 ) ;
#65 = FACE_OUTER_BOUND ( 'NONE', #150, .T. ) ;
#66 = VERTEX_POINT ( 'NONE', #59 ) ;
#67 = UNCERTAINTY_MEASURE_WITH_UNIT (LENGTH_MEASURE( 1.000000000000000082E-05 ), #193, 'distance_accuracy_value', 'NONE');
#68 = DIRECTION ( 'NONE',  ( -1.221490049109858028E-16, 1.000000000000000000, -0.000000000000000000 ) ) ;
#69 = LENGTH_MEASURE_WITH_UNIT ( LENGTH_MEASURE( 0.02539999999999999897 ), #71 );
#70 = AXIS2_PLACEMENT_3D ( 'NONE', #177, #156, #113 ) ;
#71 =( LENGTH_UNIT ( ) NAMED_UNIT ( * ) SI_UNIT ( $, .METRE. ) );
#72 =( GEOMETRIC_REPRESENTATION_CONTEXT ( 3 ) GLOBAL_UNCERTAINTY_ASSIGNED_CONTEXT ( ( #242 ) ) GLOBAL_UNIT_ASSIGNED_CONTEXT ( ( #137, #20, #176 ) ) REPRESENTATION_CONTEXT ( 'NONE', 'WORKASPACE' ) );
#73 = SURFACE_STYLE_FILL_AREA ( #208 ) ;
#74 = FILL_AREA_STYLE ('',( #230 ) ) ;
#75 =( LENGTH_UNIT ( ) NAMED_UNIT ( * ) SI_UNIT ( $, .METRE. ) );
#76 = DIRECTION ( 'NONE',  ( 1.221490049109858028E-16, -1.000000000000000000, 0.000000000000000000 ) ) ;
#77 = ADVANCED_FACE ( 'NONE', ( #65 ), #203, .T. ) ;
#78 = MECHANICAL_DESIGN_GEOMETRIC_PRESENTATION_REPRESENTATION (  '', ( #119 ), #106 ) ;
#79 = CIRCLE ( 'NONE', #179, 0.1249999999999997780 ) ;
#80 = VERTEX_POINT ( 'NONE', #53 ) ;
#81 = SURFACE_STYLE_USAGE ( .BOTH. , #251 ) ;
#82 = ORIENTED_EDGE ( 'NONE', *, *, #41, .T. ) ;
#83 = DIRECTION ( 'NONE',  ( -1.221490049109858028E-16, 1.000000000000000000, -0.000000000000000000 ) ) ;
#84 = ORIENTED_EDGE ( 'NONE', *, *, #41, .F. ) ;
#85 = LENGTH_MEASURE_WITH_UNIT ( LENGTH_MEASURE( 0.02539999999999999897 ), #127 );
#86 = UNCERTAINTY_MEASURE_WITH_UNIT (LENGTH_MEASURE( 1.000000000000000082E-05 ), #224, 'distance_accuracy_value', 'NONE');
#87 = FILL_AREA_STYLE ('',( #172 ) ) ;
#88 = ORIENTED_EDGE ( 'NONE', *, *, #130, .F. ) ;
#89 = LINE ( 'NONE', #223, #34 ) ;
#90 =( LENGTH_UNIT ( ) NAMED_UNIT ( * ) SI_UNIT ( $, .METRE. ) );
#91 = CONICAL_SURFACE ( 'NONE', #19, 22.73032555864674364, 0.5235987755983000369 ) ;
#92 = DIRECTION ( 'NONE',  ( -1.000000000000000000, 0.000000000000000000, 0.000000000000000000 ) ) ;
#93 = LINE ( 'NONE', #258, #35 ) ;
#94 = DIMENSIONAL_EXPONENTS ( 1.000000000000000000, 0.000000000000000000, 0.000000000000000000, 0.000000000000000000, 0.000000000000000000, 0.000000000000000000, 0.000000000000000000 ) ;
#95 = DIRECTION ( 'NONE',  ( 0.000000000000000000, 0.000000000000000000, -1.000000000000000000 ) ) ;
#96 =( GEOMETRIC_REPRESENTATION_CONTEXT ( 3 ) GLOBAL_UNCERTAINTY_ASSIGNED_CONTEXT ( ( #216 ) ) GLOBAL_UNIT_ASSIGNED_CONTEXT ( ( #201, #205, #214 ) ) REPRESENTATION_CONTEXT ( 'NONE', 'WORKASPACE' ) );
#97 = DIMENSIONAL_EXPONENTS ( 1.000000000000000000, 0.000000000000000000, 0.000000000000000000, 0.000000000000000000, 0.000000000000000000, 0.000000000000000000, 0.000000000000000000 ) ;
#98 = AXIS2_PLACEMENT_3D ( 'NONE', #141, #76, #165 ) ;
#99 = PRESENTATION_STYLE_ASSIGNMENT (( #225 ) ) ;
#100 = CARTESIAN_POINT ( 'NONE',  ( 0.000000000000000000, 39.37007874015748143, 0.000000000000000000 ) ) ;
#101 = PRODUCT_DEFINITION_FORMATION_WITH_SPECIFIED_SOURCE ( 'ANY', '', #232, .NOT_KNOWN. ) ;
#102 = MECHANICAL_DESIGN_GEOMETRIC_PRESENTATION_REPRESENTATION (  '', ( #24 ), #131 ) ;
#103 = EDGE_CURVE ( 'NONE', #255, #184, #30, .T. ) ;
#104 = CARTESIAN_POINT ( 'NONE',  ( 0.000000000000000000, 0.000000000000000000, 0.000000000000000000 ) ) ;
#105 = FILL_AREA_STYLE_COLOUR ( '', #32 ) ;
#106 =( GEOMETRIC_REPRESENTATION_CONTEXT ( 3 ) GLOBAL_UNCERTAINTY_ASSIGNED_CONTEXT ( ( #175 ) ) GLOBAL_UNIT_ASSIGNED_CONTEXT ( ( #168, #186, #210 ) ) REPRESENTATION_CONTEXT ( 'NONE', 'WORKASPACE' ) );
#107 = ORIENTED_EDGE ( 'NONE', *, *, #188, .F. ) ;
#108 = CLOSED_SHELL ( 'NONE', ( #43, #6, #264 ) ) ;
#109 = EDGE_CURVE ( 'NONE', #80, #66, #200, .T. ) ;
#110 = EDGE_LOOP ( 'NONE', ( #211, #46 ) ) ;
#111 = CARTESIAN_POINT ( 'NONE',  ( -0.1249999999999995559, 0.2165063509461089553, 0.000000000000000000 ) ) ;
#112 = VERTEX_POINT ( 'NONE', #111 ) ;
#113 = DIRECTION ( 'NONE',  ( -1.000000000000000000, 0.000000000000000000, 0.000000000000000000 ) ) ;
#114 = MANIFOLD_SOLID_BREP ( 'Revolve - Tool Body (Pointed)', #3 ) ;
#115 = FACE_OUTER_BOUND ( 'NONE', #254, .T. ) ;
#116 = PRESENTATION_LAYER_ASSIGNMENT (  '', '', ( #167 ) ) ;
#117 = MECHANICAL_DESIGN_GEOMETRIC_PRESENTATION_REPRESENTATION (  '', ( #57 ), #194 ) ;
#118 = CARTESIAN_POINT ( 'NONE',  ( 0.000000000000000000, 0.2165063509461090385, 0.1249999999999999861 ) ) ;
#119 = STYLED_ITEM ( 'NONE', ( #228 ), #43 ) ;
#120 = CARTESIAN_POINT ( 'NONE',  ( 0.000000000000000000, 39.37007874015748143, 0.000000000000000000 ) ) ;
#121 = DIMENSIONAL_EXPONENTS ( 1.000000000000000000, 0.000000000000000000, 0.000000000000000000, 0.000000000000000000, 0.000000000000000000, 0.000000000000000000, 0.000000000000000000 ) ;
#122 = SURFACE_STYLE_FILL_AREA ( #74 ) ;
#123 = COLOUR_RGB ( '',1.000000000000000000, 0.000000000000000000, 0.000000000000000000 ) ;
#124 =( LENGTH_UNIT ( ) NAMED_UNIT ( * ) SI_UNIT ( $, .METRE. ) );
#125 = CIRCLE ( 'NONE', #231, 0.1249999999999999861 ) ;
#126 = DIRECTION ( 'NONE',  ( 6.123233995736778362E-17, 0.8660254037844380415, -0.5000000000000009992 ) ) ;
#127 =( LENGTH_UNIT ( ) NAMED_UNIT ( * ) SI_UNIT ( $, .METRE. ) );
#128 = ADVANCED_BREP_SHAPE_REPRESENTATION ( '83786', ( #25, #114, #213 ), #209 ) ;
#129 =( NAMED_UNIT ( * ) PLANE_ANGLE_UNIT ( ) SI_UNIT ( $, .RADIAN. ) );
#130 = EDGE_CURVE ( 'NONE', #112, #196, #79, .T. ) ;
#131 =( GEOMETRIC_REPRESENTATION_CONTEXT ( 3 ) GLOBAL_UNCERTAINTY_ASSIGNED_CONTEXT ( ( #67 ) ) GLOBAL_UNIT_ASSIGNED_CONTEXT ( ( #193, #129, #262 ) ) REPRESENTATION_CONTEXT ( 'NONE', 'WORKASPACE' ) );
#132 = SURFACE_STYLE_FILL_AREA ( #33 ) ;
#133 = CARTESIAN_POINT ( 'NONE',  ( 2.176941369951209721E-16, 0.2165063509461089553, 0.000000000000000000 ) ) ;
#134 = PRODUCT_DEFINITION_CONTEXT ( 'detailed design', #226, 'design' ) ;
#135 = PRESENTATION_STYLE_ASSIGNMENT (( #17 ) ) ;
#136 = AXIS2_PLACEMENT_3D ( 'NONE', #120, #250, #161 ) ;
#137 =( CONVERSION_BASED_UNIT ( 'INCH', #69 ) LENGTH_UNIT ( ) NAMED_UNIT ( #121 ) );
#138 = DIRECTION ( 'NONE',  ( -1.000000000000000000, -1.221490049109858028E-16, 0.000000000000000000 ) ) ;
#139 =( CONVERSION_BASED_UNIT ( 'INCH', #247 ) LENGTH_UNIT ( ) NAMED_UNIT ( #94 ) );
#140 = DIMENSIONAL_EXPONENTS ( 1.000000000000000000, 0.000000000000000000, 0.000000000000000000, 0.000000000000000000, 0.000000000000000000, 0.000000000000000000, 0.000000000000000000 ) ;
#141 = CARTESIAN_POINT ( 'NONE',  ( 0.1249999999999999861, 2.500000000000000000, 0.000000000000000000 ) ) ;
#142 = EDGE_CURVE ( 'NONE', #196, #66, #89, .T. ) ;
#143 = APPLICATION_PROTOCOL_DEFINITION ( 'draft international standard', 'automotive_design', 1998, #162 ) ;
#144 = FACE_OUTER_BOUND ( 'NONE', #18, .T. ) ;
#145 = ORIENTED_EDGE ( 'NONE', *, *, #4, .T. ) ;
#146 = LENGTH_MEASURE_WITH_UNIT ( LENGTH_MEASURE( 0.02539999999999999897 ), #124 );
#147 = AXIS2_PLACEMENT_3D ( 'NONE', #199, #55, #243 ) ;
#148 = CARTESIAN_POINT ( 'NONE',  ( -6.123233995736766036E-17, 2.500000000000000000, 0.000000000000000000 ) ) ;
#149 = LINE ( 'NONE', #45, #238 ) ;
#150 = EDGE_LOOP ( 'NONE', ( #195, #12, #145, #234 ) ) ;
#151 = EDGE_CURVE ( 'NONE', #66, #80, #2, .T. ) ;
#152 = DIRECTION ( 'NONE',  ( -0.000000000000000000, -1.000000000000000000, -0.000000000000000000 ) ) ;
#153 = PRODUCT_RELATED_PRODUCT_CATEGORY ( 'part', '', ( #232 ) ) ;
#154 = CARTESIAN_POINT ( 'NONE',  ( 0.000000000000000000, 0.2165063509461090385, 0.000000000000000000 ) ) ;
#155 = CARTESIAN_POINT ( 'NONE',  ( 1.530808498934191201E-17, 0.2165063509461090385, -0.1249999999999999861 ) ) ;
#156 = DIRECTION ( 'NONE',  ( -1.221490049109858028E-16, 1.000000000000000000, -0.000000000000000000 ) ) ;
#157 = DIRECTION ( 'NONE',  ( -1.221490049109858028E-16, 1.000000000000000000, -0.000000000000000000 ) ) ;
#158 = APPLICATION_PROTOCOL_DEFINITION ( 'draft international standard', 'automotive_design', 1998, #226 ) ;
#159 =( NAMED_UNIT ( * ) PLANE_ANGLE_UNIT ( ) SI_UNIT ( $, .RADIAN. ) );
#160 = MECHANICAL_DESIGN_GEOMETRIC_PRESENTATION_REPRESENTATION (  '', ( #244 ), #72 ) ;
#161 = DIRECTION ( 'NONE',  ( 0.000000000000000000, 0.000000000000000000, 1.000000000000000000 ) ) ;
#162 = APPLICATION_CONTEXT ( 'automotive_design' ) ;
#163 = DIRECTION ( 'NONE',  ( 0.000000000000000000, 1.000000000000000000, 0.000000000000000000 ) ) ;
#164 = LENGTH_MEASURE_WITH_UNIT ( LENGTH_MEASURE( 0.02539999999999999897 ), #5 );
#165 = DIRECTION ( 'NONE',  ( 1.000000000000000000, 1.221490049109858028E-16, 0.000000000000000000 ) ) ;
#166 = DIRECTION ( 'NONE',  ( 0.000000000000000000, 0.000000000000000000, 1.000000000000000000 ) ) ;
#167 = STYLED_ITEM ( 'NONE', ( #219 ), #25 ) ;
#168 =( CONVERSION_BASED_UNIT ( 'INCH', #146 ) LENGTH_UNIT ( ) NAMED_UNIT ( #245 ) );
#169 = DIRECTION ( 'NONE',  ( -1.000000000000000000, 0.000000000000000000, 0.000000000000000000 ) ) ;
#170 = EDGE_CURVE ( 'NONE', #191, #184, #173, .T. ) ;
#171 = ORIENTED_EDGE ( 'NONE', *, *, #103, .T. ) ;
#172 = FILL_AREA_STYLE_COLOUR ( '', #48 ) ;
#173 = LINE ( 'NONE', #104, #62 ) ;
#174 = PRESENTATION_LAYER_ASSIGNMENT (  '', '', ( #244 ) ) ;
#175 = UNCERTAINTY_MEASURE_WITH_UNIT (LENGTH_MEASURE( 1.000000000000000082E-05 ), #168, 'distance_accuracy_value', 'NONE');
#176 =( NAMED_UNIT ( * ) SI_UNIT ( $, .STERADIAN. ) SOLID_ANGLE_UNIT ( ) );
#177 = CARTESIAN_POINT ( 'NONE',  ( -6.123233995736766036E-17, 2.500000000000000000, 0.000000000000000000 ) ) ;
#178 = SURFACE_SIDE_STYLE ('',( #265 ) ) ;
#179 = AXIS2_PLACEMENT_3D ( 'NONE', #202, #68, #169 ) ;
#180 = PRESENTATION_LAYER_ASSIGNMENT (  '', '', ( #24 ) ) ;
#181 = EDGE_CURVE ( 'NONE', #184, #255, #125, .T. ) ;
#182 = PRESENTATION_LAYER_ASSIGNMENT (  '', '', ( #57 ) ) ;
#183 =( NAMED_UNIT ( * ) SI_UNIT ( $, .STERADIAN. ) SOLID_ANGLE_UNIT ( ) );
#184 = VERTEX_POINT ( 'NONE', #155 ) ;
#185 = CARTESIAN_POINT ( 'NONE',  ( 0.000000000000000000, 0.000000000000000000, 0.000000000000000000 ) ) ;
#186 =( NAMED_UNIT ( * ) PLANE_ANGLE_UNIT ( ) SI_UNIT ( $, .RADIAN. ) );
#187 = DIRECTION ( 'NONE',  ( 0.000000000000000000, 0.8660254037844380415, 0.5000000000000009992 ) ) ;
#188 = EDGE_CURVE ( 'NONE', #196, #112, #248, .T. ) ;
#189 = EDGE_LOOP ( 'NONE', ( #229, #49, #14, #31 ) ) ;
#190 = CARTESIAN_POINT ( 'NONE',  ( -6.123233995736766036E-17, 2.500000000000000000, 0.000000000000000000 ) ) ;
#191 = VERTEX_POINT ( 'NONE', #215 ) ;
#192 = ADVANCED_FACE ( 'NONE', ( #115 ), #54, .F. ) ;
#193 =( CONVERSION_BASED_UNIT ( 'INCH', #259 ) LENGTH_UNIT ( ) NAMED_UNIT ( #97 ) );
#194 =( GEOMETRIC_REPRESENTATION_CONTEXT ( 3 ) GLOBAL_UNCERTAINTY_ASSIGNED_CONTEXT ( ( #236 ) ) GLOBAL_UNIT_ASSIGNED_CONTEXT ( ( #139, #44, #252 ) ) REPRESENTATION_CONTEXT ( 'NONE', 'WORKASPACE' ) );
#195 = ORIENTED_EDGE ( 'NONE', *, *, #142, .F. ) ;
#196 = VERTEX_POINT ( 'NONE', #220 ) ;
#197 = DIRECTION ( 'NONE',  ( -1.000000000000000000, 0.000000000000000000, 0.000000000000000000 ) ) ;
#198 = PRESENTATION_STYLE_ASSIGNMENT (( #37 ) ) ;
#199 = CARTESIAN_POINT ( 'NONE',  ( 0.000000000000000000, 0.2165063509461090385, 0.000000000000000000 ) ) ;
#200 = CIRCLE ( 'NONE', #217, 0.1250000000000000555 ) ;
#201 =( CONVERSION_BASED_UNIT ( 'INCH', #85 ) LENGTH_UNIT ( ) NAMED_UNIT ( #246 ) );
#202 = CARTESIAN_POINT ( 'NONE',  ( 2.176941369951209721E-16, 0.2165063509461089553, 0.000000000000000000 ) ) ;
#203 = CYLINDRICAL_SURFACE ( 'NONE', #70, 0.1249999999999999029 ) ;
#204 = ADVANCED_FACE ( 'NONE', ( #61 ), #38, .T. ) ;
#205 =( NAMED_UNIT ( * ) PLANE_ANGLE_UNIT ( ) SI_UNIT ( $, .RADIAN. ) );
#206 = FACE_OUTER_BOUND ( 'NONE', #11, .T. ) ;
#207 = PRESENTATION_LAYER_ASSIGNMENT (  '', '', ( #119 ) ) ;
#208 = FILL_AREA_STYLE ('',( #23 ) ) ;
#209 =( GEOMETRIC_REPRESENTATION_CONTEXT ( 3 ) GLOBAL_UNCERTAINTY_ASSIGNED_CONTEXT ( ( #86 ) ) GLOBAL_UNIT_ASSIGNED_CONTEXT ( ( #224, #159, #183 ) ) REPRESENTATION_CONTEXT ( 'NONE', 'WORKASPACE' ) );
#210 =( NAMED_UNIT ( * ) SI_UNIT ( $, .STERADIAN. ) SOLID_ANGLE_UNIT ( ) );
#211 = ORIENTED_EDGE ( 'NONE', *, *, #103, .F. ) ;
#212 = COLOUR_RGB ( '',0.7921568627450980005, 0.8196078431372548767, 0.9333333333333333481 ) ;
#213 = AXIS2_PLACEMENT_3D ( 'NONE', #185, #9, #227 ) ;
#214 =( NAMED_UNIT ( * ) SI_UNIT ( $, .STERADIAN. ) SOLID_ANGLE_UNIT ( ) );
#215 = CARTESIAN_POINT ( 'NONE',  ( 0.000000000000000000, 0.000000000000000000, 0.000000000000000000 ) ) ;
#216 = UNCERTAINTY_MEASURE_WITH_UNIT (LENGTH_MEASURE( 1.000000000000000082E-05 ), #201, 'distance_accuracy_value', 'NONE');
#217 = AXIS2_PLACEMENT_3D ( 'NONE', #148, #263, #221 ) ;
#218 = PRODUCT_DEFINITION ( 'UNKNOWN', '', #101, #134 ) ;
#219 = PRESENTATION_STYLE_ASSIGNMENT (( #52 ) ) ;
#220 = CARTESIAN_POINT ( 'NONE',  ( 0.1250000000000000000, 0.2165063509461089553, 1.530808498934191201E-17 ) ) ;
#221 = DIRECTION ( 'NONE',  ( -1.000000000000000000, 0.000000000000000000, 0.000000000000000000 ) ) ;
#222 = CONICAL_SURFACE ( 'NONE', #136, 22.73032555864674364, 0.5235987755983000369 ) ;
#223 = CARTESIAN_POINT ( 'NONE',  ( 0.1249999999999998335, 2.500000000000000000, 1.530808498934190276E-17 ) ) ;
#224 =( CONVERSION_BASED_UNIT ( 'INCH', #164 ) LENGTH_UNIT ( ) NAMED_UNIT ( #140 ) );
#225 = SURFACE_STYLE_USAGE ( .BOTH. , #27 ) ;
#226 = APPLICATION_CONTEXT ( 'automotive_design' ) ;
#227 = DIRECTION ( 'NONE',  ( 1.000000000000000000, 0.000000000000000000, 0.000000000000000000 ) ) ;
#228 = PRESENTATION_STYLE_ASSIGNMENT (( #81 ) ) ;
#229 = ORIENTED_EDGE ( 'NONE', *, *, #130, .T. ) ;
#230 = FILL_AREA_STYLE_COLOUR ( '', #253 ) ;
#231 = AXIS2_PLACEMENT_3D ( 'NONE', #261, #152, #95 ) ;
#232 = PRODUCT ( '83786', '83786', '', ( #26 ) ) ;
#233 = CARTESIAN_POINT ( 'NONE',  ( -6.123233995736766036E-17, 2.500000000000000000, 0.000000000000000000 ) ) ;
#234 = ORIENTED_EDGE ( 'NONE', *, *, #151, .F. ) ;
#235 = SURFACE_SIDE_STYLE ('',( #132 ) ) ;
#236 = UNCERTAINTY_MEASURE_WITH_UNIT (LENGTH_MEASURE( 1.000000000000000082E-05 ), #139, 'distance_accuracy_value', 'NONE');
#237 = AXIS2_PLACEMENT_3D ( 'NONE', #233, #83, #197 ) ;
#238 = VECTOR ( 'NONE', #187, 39.37007874015748143 ) ;
#239 = DIRECTION ( 'NONE',  ( 0.000000000000000000, -0.000000000000000000, 1.000000000000000000 ) ) ;
#240 = CARTESIAN_POINT ( 'NONE',  ( 2.176941369951209721E-16, 0.2165063509461090385, 0.000000000000000000 ) ) ;
#241 = DIRECTION ( 'NONE',  ( 0.000000000000000000, 1.000000000000000000, 0.000000000000000000 ) ) ;
#242 = UNCERTAINTY_MEASURE_WITH_UNIT (LENGTH_MEASURE( 1.000000000000000082E-05 ), #137, 'distance_accuracy_value', 'NONE');
#243 = DIRECTION ( 'NONE',  ( 0.000000000000000000, 0.000000000000000000, -1.000000000000000000 ) ) ;
#244 = STYLED_ITEM ( 'NONE', ( #135 ), #114 ) ;
#245 = DIMENSIONAL_EXPONENTS ( 1.000000000000000000, 0.000000000000000000, 0.000000000000000000, 0.000000000000000000, 0.000000000000000000, 0.000000000000000000, 0.000000000000000000 ) ;
#246 = DIMENSIONAL_EXPONENTS ( 1.000000000000000000, 0.000000000000000000, 0.000000000000000000, 0.000000000000000000, 0.000000000000000000, 0.000000000000000000, 0.000000000000000000 ) ;
#247 = LENGTH_MEASURE_WITH_UNIT ( LENGTH_MEASURE( 0.02539999999999999897 ), #75 );
#248 = CIRCLE ( 'NONE', #47, 0.1249999999999997780 ) ;
#249 = PLANE ( 'NONE',  #98 ) ;
#250 = DIRECTION ( 'NONE',  ( 0.000000000000000000, 1.000000000000000000, 0.000000000000000000 ) ) ;
#251 = SURFACE_SIDE_STYLE ('',( #122 ) ) ;
#252 =( NAMED_UNIT ( * ) SI_UNIT ( $, .STERADIAN. ) SOLID_ANGLE_UNIT ( ) );
#253 = COLOUR_RGB ( '',1.000000000000000000, 0.000000000000000000, 0.000000000000000000 ) ;
#254 = EDGE_LOOP ( 'NONE', ( #88, #107 ) ) ;
#255 = VERTEX_POINT ( 'NONE', #118 ) ;
#256 = DIRECTION ( 'NONE',  ( -1.221490049109858028E-16, 1.000000000000000000, 0.000000000000000000 ) ) ;
#257 = FACE_OUTER_BOUND ( 'NONE', #110, .T. ) ;
#258 = CARTESIAN_POINT ( 'NONE',  ( -0.1249999999999999584, 2.500000000000000000, 0.000000000000000000 ) ) ;
#259 = LENGTH_MEASURE_WITH_UNIT ( LENGTH_MEASURE( 0.02539999999999999897 ), #90 );
#260 = SURFACE_SIDE_STYLE ('',( #63 ) ) ;
#261 = CARTESIAN_POINT ( 'NONE',  ( 0.000000000000000000, 0.2165063509461090385, 0.000000000000000000 ) ) ;
#262 =( NAMED_UNIT ( * ) SI_UNIT ( $, .STERADIAN. ) SOLID_ANGLE_UNIT ( ) );
#263 = DIRECTION ( 'NONE',  ( -1.221490049109858028E-16, 1.000000000000000000, -0.000000000000000000 ) ) ;
#264 = ADVANCED_FACE ( 'NONE', ( #206 ), #222, .T. ) ;
#265 = SURFACE_STYLE_FILL_AREA ( #13 ) ;
ENDSEC;
END-ISO-10303-21;
