ISO-10303-21;
HEADER;
FILE_DESCRIPTION (( 'STEP AP214' ),
    '1' );
FILE_NAME ('Micro_MMBM-015-7X.STEP',
    '2021-09-03T16:30:05',
    ( '' ),
    ( '' ),
    'SwSTEP 2.0',
    'SolidWorks 2020',
    '' );
FILE_SCHEMA (( 'AUTOMOTIVE_DESIGN' ));
ENDSEC;

DATA;
#1 = DIRECTION ( 'NONE',  ( 1.000000000000000000, 0.0000000000000000000, -0.0000000000000000000 ) ) ;
#2 = PRODUCT_DEFINITION_SHAPE ( 'NONE', 'NONE',  #8 ) ;
#3 = DIMENSIONAL_EXPONENTS ( 1.000000000000000000, 0.0000000000000000000, 0.0000000000000000000, 0.0000000000000000000, 0.0000000000000000000, 0.0000000000000000000, 0.0000000000000000000 ) ;
#4 = SURFACE_STYLE_FILL_AREA ( #65 ) ;
#5 = SURFACE_SIDE_STYLE ('',( #37 ) ) ;
#6 = STYLED_ITEM ( 'NONE', ( #177 ), #124 ) ;
#7 = LINE ( 'NONE', #121, #356 ) ;
#8 = PRODUCT_DEFINITION ( 'UNKNOWN', '', #107, #120 ) ;
#9 = ADVANCED_FACE ( 'NONE', ( #119 ), #233, .T. ) ;
#10 = FACE_OUTER_BOUND ( 'NONE', #264, .T. ) ;
#11 = CIRCLE ( 'NONE', #218, 0.1031100000000002570 ) ;
#12 = CARTESIAN_POINT ( 'NONE',  ( 0.0000000000000000000, 0.0000000000000000000, 2.229093999999999465 ) ) ;
#13 = EDGE_CURVE ( 'NONE', #61, #169, #7, .T. ) ;
#14 = CYLINDRICAL_SURFACE ( 'NONE', #244, 0.02952454724999999808 ) ;
#15 = PLANE ( 'NONE',  #97 ) ;
#16 = CIRCLE ( 'NONE', #227, 0.1181100000000000066 ) ;
#17 = AXIS2_PLACEMENT_3D ( 'NONE', #59, #281, #312 ) ;
#18 = DIRECTION ( 'NONE',  ( 0.0000000000000000000, 0.0000000000000000000, -1.000000000000000000 ) ) ;
#19 = LINE ( 'NONE', #193, #215 ) ;
#20 = ORIENTED_EDGE ( 'NONE', *, *, #200, .T. ) ;
#21 = DIRECTION ( 'NONE',  ( -0.0000000000000000000, -0.0000000000000000000, -1.000000000000000000 ) ) ;
#22 = VERTEX_POINT ( 'NONE', #171 ) ;
#23 = AXIS2_PLACEMENT_3D ( 'NONE', #72, #181, #300 ) ;
#24 = AXIS2_PLACEMENT_3D ( 'NONE', #374, #364, #368 ) ;
#25 = CARTESIAN_POINT ( 'NONE',  ( 0.1181100000000000066, 1.446430334472939084E-17, 2.244094000000000033 ) ) ;
#26 = EDGE_LOOP ( 'NONE', ( #309, #311, #365, #173 ) ) ;
#27 = CARTESIAN_POINT ( 'NONE',  ( 0.1031100000000002570, 1.262733314600838667E-17, 2.244094000000000033 ) ) ;
#28 = EDGE_LOOP ( 'NONE', ( #259, #256, #341, #82 ) ) ;
#29 = LINE ( 'NONE', #27, #272 ) ;
#30 = EDGE_CURVE ( 'NONE', #369, #320, #298, .T. ) ;
#31 = ORIENTED_EDGE ( 'NONE', *, *, #358, .F. ) ;
#32 = VECTOR ( 'NONE', #45, 39.37007874015748143 ) ;
#33 = CARTESIAN_POINT ( 'NONE',  ( -0.02854350000000002024, 0.0000000000000000000, 0.0000000000000000000 ) ) ;
#34 = FILL_AREA_STYLE_COLOUR ( '', #271 ) ;
#35 =( CONVERSION_BASED_UNIT ( 'INCH', #204 ) LENGTH_UNIT ( ) NAMED_UNIT ( #323 ) );
#36 = AXIS2_PLACEMENT_3D ( 'NONE', #156, #275, #362 ) ;
#37 = SURFACE_STYLE_FILL_AREA ( #180 ) ;
#38 = CIRCLE ( 'NONE', #17, 0.02952454724999999808 ) ;
#39 = APPLICATION_PROTOCOL_DEFINITION ( 'draft international standard', 'automotive_design', 1998, #370 ) ;
#40 = ORIENTED_EDGE ( 'NONE', *, *, #334, .F. ) ;
#41 = FACE_OUTER_BOUND ( 'NONE', #85, .T. ) ;
#42 = DIRECTION ( 'NONE',  ( -0.0000000000000000000, -0.0000000000000000000, -1.000000000000000000 ) ) ;
#43 = AXIS2_PLACEMENT_3D ( 'NONE', #330, #78, #102 ) ;
#44 =( GEOMETRIC_REPRESENTATION_CONTEXT ( 3 ) GLOBAL_UNCERTAINTY_ASSIGNED_CONTEXT ( ( #324 ) ) GLOBAL_UNIT_ASSIGNED_CONTEXT ( ( #83, #287, #318 ) ) REPRESENTATION_CONTEXT ( 'NONE', 'WORKASPACE' ) );
#45 = DIRECTION ( 'NONE',  ( -0.0000000000000000000, -0.0000000000000000000, -1.000000000000000000 ) ) ;
#46 = DIRECTION ( 'NONE',  ( -0.0000000000000000000, -0.0000000000000000000, -1.000000000000000000 ) ) ;
#47 = FACE_OUTER_BOUND ( 'NONE', #28, .T. ) ;
#48 = AXIS2_PLACEMENT_3D ( 'NONE', #331, #42, #73 ) ;
#49 = PRESENTATION_LAYER_ASSIGNMENT (  '', '', ( #6 ) ) ;
#50 = DIRECTION ( 'NONE',  ( 0.7071067811865358044, 8.659560562354788645E-17, -0.7071067811865590080 ) ) ;
#51 = ADVANCED_FACE ( 'NONE', ( #238 ), #94, .T. ) ;
#52 = ORIENTED_EDGE ( 'NONE', *, *, #187, .F. ) ;
#53 = LINE ( 'NONE', #219, #132 ) ;
#54 = ADVANCED_FACE ( 'NONE', ( #63 ), #292, .T. ) ;
#55 = VERTEX_POINT ( 'NONE', #232 ) ;
#56 = DIRECTION ( 'NONE',  ( -0.7071067811865358044, 0.0000000000000000000, -0.7071067811865590080 ) ) ;
#57 = ORIENTED_EDGE ( 'NONE', *, *, #174, .F. ) ;
#58 =( GEOMETRIC_REPRESENTATION_CONTEXT ( 3 ) GLOBAL_UNCERTAINTY_ASSIGNED_CONTEXT ( ( #301 ) ) GLOBAL_UNIT_ASSIGNED_CONTEXT ( ( #35, #265, #299 ) ) REPRESENTATION_CONTEXT ( 'NONE', 'WORKASPACE' ) );
#59 = CARTESIAN_POINT ( 'NONE',  ( 0.0000000000000000000, 0.0000000000000000000, 0.05905500000000000332 ) ) ;
#60 = DIRECTION ( 'NONE',  ( -0.0000000000000000000, -0.0000000000000000000, -1.000000000000000000 ) ) ;
#61 = VERTEX_POINT ( 'NONE', #207 ) ;
#62 = CIRCLE ( 'NONE', #24, 0.1181100000000000066 ) ;
#63 = FACE_OUTER_BOUND ( 'NONE', #110, .T. ) ;
#64 = EDGE_CURVE ( 'NONE', #223, #61, #150, .T. ) ;
#65 = FILL_AREA_STYLE ('',( #175 ) ) ;
#66 = SURFACE_STYLE_USAGE ( .BOTH. , #5 ) ;
#67 = MANIFOLD_SOLID_BREP ( 'Cut-Revolve1', #306 ) ;
#68 = ADVANCED_FACE ( 'NONE', ( #266 ), #178, .T. ) ;
#69 = AXIS2_PLACEMENT_3D ( 'NONE', #357, #18, #276 ) ;
#70 =( LENGTH_UNIT ( ) NAMED_UNIT ( * ) SI_UNIT ( $, .METRE. ) );
#71 = DIRECTION ( 'NONE',  ( -0.0000000000000000000, -0.0000000000000000000, -1.000000000000000000 ) ) ;
#72 = CARTESIAN_POINT ( 'NONE',  ( 0.0000000000000000000, 0.0000000000000000000, 0.06461879543311090102 ) ) ;
#73 = DIRECTION ( 'NONE',  ( -1.000000000000000000, 0.0000000000000000000, 0.0000000000000000000 ) ) ;
#74 = DIRECTION ( 'NONE',  ( -1.000000000000000000, 0.0000000000000000000, 0.0000000000000000000 ) ) ;
#75 = CONICAL_SURFACE ( 'NONE', #118, 0.02952454724999999808, 0.1745329251994336694 ) ;
#76 = LINE ( 'NONE', #188, #350 ) ;
#77 = ADVANCED_FACE ( 'NONE', ( #47 ), #267, .T. ) ;
#78 = DIRECTION ( 'NONE',  ( -0.0000000000000000000, -0.0000000000000000000, -1.000000000000000000 ) ) ;
#79 = CARTESIAN_POINT ( 'NONE',  ( -0.1181100000000000066, 0.0000000000000000000, 2.229093999999999465 ) ) ;
#80 = ORIENTED_EDGE ( 'NONE', *, *, #64, .T. ) ;
#81 = CARTESIAN_POINT ( 'NONE',  ( 0.0000000000000000000, 0.0000000000000000000, 0.05905500000000000332 ) ) ;
#82 = ORIENTED_EDGE ( 'NONE', *, *, #13, .F. ) ;
#83 =( CONVERSION_BASED_UNIT ( 'INCH', #342 ) LENGTH_UNIT ( ) NAMED_UNIT ( #263 ) );
#84 = VERTEX_POINT ( 'NONE', #131 ) ;
#85 = EDGE_LOOP ( 'NONE', ( #261, #353, #136, #225 ) ) ;
#86 = AXIS2_PLACEMENT_3D ( 'NONE', #297, #71, #74 ) ;
#87 = DIRECTION ( 'NONE',  ( -0.0000000000000000000, -0.0000000000000000000, -1.000000000000000000 ) ) ;
#88 = ORIENTED_EDGE ( 'NONE', *, *, #372, .F. ) ;
#89 = DIRECTION ( 'NONE',  ( 0.0000000000000000000, 0.0000000000000000000, 1.000000000000000000 ) ) ;
#90 = ADVANCED_FACE ( 'NONE', ( #333 ), #15, .F. ) ;
#91 =( LENGTH_UNIT ( ) NAMED_UNIT ( * ) SI_UNIT ( $, .METRE. ) );
#92 = CIRCLE ( 'NONE', #245, 0.1181100000000000066 ) ;
#93 = AXIS2_PLACEMENT_3D ( 'NONE', #206, #89, #203 ) ;
#94 = CYLINDRICAL_SURFACE ( 'NONE', #164, 0.02854350000000002024 ) ;
#95 = VERTEX_POINT ( 'NONE', #247 ) ;
#96 = EDGE_CURVE ( 'NONE', #95, #55, #138, .T. ) ;
#97 = AXIS2_PLACEMENT_3D ( 'NONE', #127, #151, #157 ) ;
#98 = DIRECTION ( 'NONE',  ( 0.0000000000000000000, 0.0000000000000000000, -1.000000000000000000 ) ) ;
#99 = CARTESIAN_POINT ( 'NONE',  ( 0.0000000000000000000, 0.0000000000000000000, 0.0000000000000000000 ) ) ;
#100 = DIRECTION ( 'NONE',  ( -0.0000000000000000000, -0.0000000000000000000, -1.000000000000000000 ) ) ;
#101 = AXIS2_PLACEMENT_3D ( 'NONE', #241, #246, #335 ) ;
#102 = DIRECTION ( 'NONE',  ( -1.000000000000000000, 0.0000000000000000000, 0.0000000000000000000 ) ) ;
#103 = DIRECTION ( 'NONE',  ( 1.000000000000000000, 0.0000000000000000000, 0.0000000000000000000 ) ) ;
#104 = ADVANCED_FACE ( 'NONE', ( #158 ), #242, .T. ) ;
#105 = DIRECTION ( 'NONE',  ( -1.000000000000000000, 0.0000000000000000000, 0.0000000000000000000 ) ) ;
#106 = STYLED_ITEM ( 'NONE', ( #212 ), #67 ) ;
#107 = PRODUCT_DEFINITION_FORMATION_WITH_SPECIFIED_SOURCE ( 'ANY', '', #186, .NOT_KNOWN. ) ;
#108 = ORIENTED_EDGE ( 'NONE', *, *, #283, .F. ) ;
#109 = LINE ( 'NONE', #25, #307 ) ;
#110 = EDGE_LOOP ( 'NONE', ( #220, #343 ) ) ;
#111 = DIRECTION ( 'NONE',  ( -1.000000000000000000, 0.0000000000000000000, 0.0000000000000000000 ) ) ;
#112 = EDGE_LOOP ( 'NONE', ( #145, #290, #80, #52 ) ) ;
#113 = AXIS2_PLACEMENT_3D ( 'NONE', #355, #354, #1 ) ;
#114 = ORIENTED_EDGE ( 'NONE', *, *, #258, .F. ) ;
#115 = DIRECTION ( 'NONE',  ( -0.1736481776669310528, 0.0000000000000000000, -0.9848077530122080203 ) ) ;
#116 = SHAPE_DEFINITION_REPRESENTATION ( #2, #124 ) ;
#117 = CARTESIAN_POINT ( 'NONE',  ( 0.0000000000000000000, 0.0000000000000000000, 0.0000000000000000000 ) ) ;
#118 = AXIS2_PLACEMENT_3D ( 'NONE', #81, #60, #279 ) ;
#119 = FACE_OUTER_BOUND ( 'NONE', #375, .T. ) ;
#120 = PRODUCT_DEFINITION_CONTEXT ( 'detailed design', #370, 'design' ) ;
#121 = CARTESIAN_POINT ( 'NONE',  ( -0.02952454724999999808, 0.0000000000000000000, 0.05905500000000000332 ) ) ;
#122 = DIRECTION ( 'NONE',  ( -0.0000000000000000000, -0.0000000000000000000, -1.000000000000000000 ) ) ;
#123 = EDGE_CURVE ( 'NONE', #253, #22, #16, .T. ) ;
#124 = ADVANCED_BREP_SHAPE_REPRESENTATION ( 'Micro_MMBM-015-7X', ( #67, #93 ), #44 ) ;
#125 = DIRECTION ( 'NONE',  ( -1.000000000000000000, 0.0000000000000000000, 0.0000000000000000000 ) ) ;
#126 = ADVANCED_FACE ( 'NONE', ( #303 ), #14, .T. ) ;
#127 = CARTESIAN_POINT ( 'NONE',  ( 0.0000000000000000000, 0.0000000000000000000, 0.0000000000000000000 ) ) ;
#128 = CARTESIAN_POINT ( 'NONE',  ( -0.1181100000000000066, 0.0000000000000000000, 0.2755909999999999749 ) ) ;
#129 = EDGE_CURVE ( 'NONE', #253, #141, #182, .T. ) ;
#130 = AXIS2_PLACEMENT_3D ( 'NONE', #134, #98, #103 ) ;
#131 = CARTESIAN_POINT ( 'NONE',  ( 0.1181100000000000066, 1.446430334472939084E-17, 0.2755909999999999749 ) ) ;
#132 = VECTOR ( 'NONE', #337, 39.37007874015748854 ) ;
#133 = PRODUCT_RELATED_PRODUCT_CATEGORY ( 'part', '', ( #186 ) ) ;
#134 = CARTESIAN_POINT ( 'NONE',  ( 0.0000000000000000000, 0.0000000000000000000, 2.229093999999999465 ) ) ;
#135 = CARTESIAN_POINT ( 'NONE',  ( 0.02854350000000003412, 3.495570591146251498E-18, 0.2755909999999999749 ) ) ;
#136 = ORIENTED_EDGE ( 'NONE', *, *, #162, .F. ) ;
#137 = CARTESIAN_POINT ( 'NONE',  ( -0.02952454724999999808, 0.0000000000000000000, 0.0000000000000000000 ) ) ;
#138 = CIRCLE ( 'NONE', #101, 0.1031100000000002570 ) ;
#139 = ORIENTED_EDGE ( 'NONE', *, *, #13, .T. ) ;
#140 = CARTESIAN_POINT ( 'NONE',  ( 0.0000000000000000000, 0.0000000000000000000, 0.2755909999999999749 ) ) ;
#141 = VERTEX_POINT ( 'NONE', #128 ) ;
#142 = FACE_BOUND ( 'NONE', #239, .T. ) ;
#143 = ORIENTED_EDGE ( 'NONE', *, *, #96, .F. ) ;
#144 = CARTESIAN_POINT ( 'NONE',  ( 0.0000000000000000000, 0.0000000000000000000, 0.06461879543311090102 ) ) ;
#145 = ORIENTED_EDGE ( 'NONE', *, *, #200, .F. ) ;
#146 = AXIS2_PLACEMENT_3D ( 'NONE', #117, #122, #291 ) ;
#147 = PRODUCT_CONTEXT ( 'NONE', #352, 'mechanical' ) ;
#148 = ORIENTED_EDGE ( 'NONE', *, *, #294, .T. ) ;
#149 = APPLICATION_PROTOCOL_DEFINITION ( 'draft international standard', 'automotive_design', 1998, #352 ) ;
#150 = LINE ( 'NONE', #33, #361 ) ;
#151 = DIRECTION ( 'NONE',  ( 0.0000000000000000000, 0.0000000000000000000, 1.000000000000000000 ) ) ;
#152 = EDGE_CURVE ( 'NONE', #320, #369, #205, .T. ) ;
#153 = AXIS2_PLACEMENT_3D ( 'NONE', #140, #21, #314 ) ;
#154 = CARTESIAN_POINT ( 'NONE',  ( 0.02854350000000002024, 3.495570591146250727E-18, 0.0000000000000000000 ) ) ;
#155 = EDGE_CURVE ( 'NONE', #223, #202, #329, .T. ) ;
#156 = CARTESIAN_POINT ( 'NONE',  ( 0.0000000000000000000, 0.0000000000000000000, 0.0000000000000000000 ) ) ;
#157 = DIRECTION ( 'NONE',  ( 1.000000000000000000, 0.0000000000000000000, -0.0000000000000000000 ) ) ;
#158 = FACE_OUTER_BOUND ( 'NONE', #377, .T. ) ;
#159 =( LENGTH_UNIT ( ) NAMED_UNIT ( * ) SI_UNIT ( $, .METRE. ) );
#160 = ORIENTED_EDGE ( 'NONE', *, *, #168, .F. ) ;
#161 = LINE ( 'NONE', #137, #179 ) ;
#162 = EDGE_CURVE ( 'NONE', #141, #84, #92, .T. ) ;
#163 = DIRECTION ( 'NONE',  ( 0.0000000000000000000, 0.0000000000000000000, -1.000000000000000000 ) ) ;
#164 = AXIS2_PLACEMENT_3D ( 'NONE', #208, #325, #328 ) ;
#165 = VERTEX_POINT ( 'NONE', #360 ) ;
#166 = ORIENTED_EDGE ( 'NONE', *, *, #358, .T. ) ;
#167 = DIRECTION ( 'NONE',  ( -0.0000000000000000000, -0.0000000000000000000, -1.000000000000000000 ) ) ;
#168 = EDGE_CURVE ( 'NONE', #165, #320, #76, .T. ) ;
#169 = VERTEX_POINT ( 'NONE', #304 ) ;
#170 = ADVANCED_FACE ( 'NONE', ( #10 ), #183, .T. ) ;
#171 = CARTESIAN_POINT ( 'NONE',  ( 0.1181100000000000066, 1.446430334472939084E-17, 2.229093999999999465 ) ) ;
#172 = AXIS2_PLACEMENT_3D ( 'NONE', #243, #273, #125 ) ;
#173 = ORIENTED_EDGE ( 'NONE', *, *, #250, .F. ) ;
#174 = EDGE_CURVE ( 'NONE', #22, #253, #339, .T. ) ;
#175 = FILL_AREA_STYLE_COLOUR ( '', #345 ) ;
#176 = UNCERTAINTY_MEASURE_WITH_UNIT (LENGTH_MEASURE( 1.000000000000000082E-05 ), #322, 'distance_accuracy_value', 'NONE');
#177 = PRESENTATION_STYLE_ASSIGNMENT (( #378 ) ) ;
#178 = CYLINDRICAL_SURFACE ( 'NONE', #86, 0.1181100000000000066 ) ;
#179 = VECTOR ( 'NONE', #87, 39.37007874015748143 ) ;
#180 = FILL_AREA_STYLE ('',( #34 ) ) ;
#181 = DIRECTION ( 'NONE',  ( -0.0000000000000000000, -0.0000000000000000000, -1.000000000000000000 ) ) ;
#182 = LINE ( 'NONE', #332, #32 ) ;
#183 = CONICAL_SURFACE ( 'NONE', #69, 0.1031100000000002570, 0.7853981633974318477 ) ;
#184 = CIRCLE ( 'NONE', #285, 0.02952454724999999808 ) ;
#185 = CARTESIAN_POINT ( 'NONE',  ( 0.0000000000000000000, 0.0000000000000000000, 0.0000000000000000000 ) ) ;
#186 = PRODUCT ( 'Micro_MMBM-015-7X', 'Micro_MMBM-015-7X', '', ( #147 ) ) ;
#187 = EDGE_CURVE ( 'NONE', #230, #61, #277, .T. ) ;
#188 = CARTESIAN_POINT ( 'NONE',  ( 0.02952454724999999808, 3.615714228598728577E-18, 0.0000000000000000000 ) ) ;
#189 = DIRECTION ( 'NONE',  ( -0.0000000000000000000, -0.0000000000000000000, -1.000000000000000000 ) ) ;
#190 = CARTESIAN_POINT ( 'NONE',  ( 0.0000000000000000000, 0.0000000000000000000, 2.244094000000000033 ) ) ;
#191 = ADVANCED_FACE ( 'NONE', ( #41 ), #213, .T. ) ;
#192 = ORIENTED_EDGE ( 'NONE', *, *, #336, .T. ) ;
#193 = CARTESIAN_POINT ( 'NONE',  ( -0.1031100000000002570, 0.0000000000000000000, 2.244094000000000033 ) ) ;
#194 = ORIENTED_EDGE ( 'NONE', *, *, #372, .T. ) ;
#195 = PLANE ( 'NONE',  #260 ) ;
#196 = EDGE_LOOP ( 'NONE', ( #286, #166, #373, #88 ) ) ;
#197 = FACE_OUTER_BOUND ( 'NONE', #196, .T. ) ;
#198 = AXIS2_PLACEMENT_3D ( 'NONE', #185, #100, #363 ) ;
#199 = ORIENTED_EDGE ( 'NONE', *, *, #155, .F. ) ;
#200 = EDGE_CURVE ( 'NONE', #202, #230, #302, .T. ) ;
#201 = DIRECTION ( 'NONE',  ( -0.0000000000000000000, -0.0000000000000000000, -1.000000000000000000 ) ) ;
#202 = VERTEX_POINT ( 'NONE', #135 ) ;
#203 = DIRECTION ( 'NONE',  ( 1.000000000000000000, 0.0000000000000000000, 0.0000000000000000000 ) ) ;
#204 = LENGTH_MEASURE_WITH_UNIT ( LENGTH_MEASURE( 0.02539999999999999897 ), #91 );
#205 = CIRCLE ( 'NONE', #36, 0.02952454724999999808 ) ;
#206 = CARTESIAN_POINT ( 'NONE',  ( 0.0000000000000000000, 0.0000000000000000000, 0.0000000000000000000 ) ) ;
#207 = CARTESIAN_POINT ( 'NONE',  ( -0.02854350000000000637, 0.0000000000000000000, 0.06461879543311090102 ) ) ;
#208 = CARTESIAN_POINT ( 'NONE',  ( 0.0000000000000000000, 0.0000000000000000000, 0.0000000000000000000 ) ) ;
#209 = ORIENTED_EDGE ( 'NONE', *, *, #30, .F. ) ;
#210 = VECTOR ( 'NONE', #201, 39.37007874015748143 ) ;
#211 = AXIS2_PLACEMENT_3D ( 'NONE', #226, #163, #376 ) ;
#212 = PRESENTATION_STYLE_ASSIGNMENT (( #66 ) ) ;
#213 = CYLINDRICAL_SURFACE ( 'NONE', #48, 0.1181100000000000066 ) ;
#214 = DIRECTION ( 'NONE',  ( -1.000000000000000000, 0.0000000000000000000, 0.0000000000000000000 ) ) ;
#215 = VECTOR ( 'NONE', #56, 39.37007874015748854 ) ;
#216 = DIRECTION ( 'NONE',  ( -1.000000000000000000, 0.0000000000000000000, 0.0000000000000000000 ) ) ;
#217 = FACE_OUTER_BOUND ( 'NONE', #317, .T. ) ;
#218 = AXIS2_PLACEMENT_3D ( 'NONE', #190, #310, #371 ) ;
#219 = CARTESIAN_POINT ( 'NONE',  ( 0.02952454724999999808, 3.615714228598728577E-18, 0.05905500000000000332 ) ) ;
#220 = ORIENTED_EDGE ( 'NONE', *, *, #96, .T. ) ;
#221 = ADVANCED_FACE ( 'NONE', ( #142, #217 ), #195, .T. ) ;
#222 = EDGE_CURVE ( 'NONE', #22, #84, #109, .T. ) ;
#223 = VERTEX_POINT ( 'NONE', #340 ) ;
#224 = FACE_OUTER_BOUND ( 'NONE', #262, .T. ) ;
#225 = ORIENTED_EDGE ( 'NONE', *, *, #129, .F. ) ;
#226 = CARTESIAN_POINT ( 'NONE',  ( 0.0000000000000000000, 0.0000000000000000000, 2.244094000000000033 ) ) ;
#227 = AXIS2_PLACEMENT_3D ( 'NONE', #12, #305, #359 ) ;
#228 = MECHANICAL_DESIGN_GEOMETRIC_PRESENTATION_REPRESENTATION (  '', ( #6 ), #252 ) ;
#229 = ORIENTED_EDGE ( 'NONE', *, *, #294, .F. ) ;
#230 = VERTEX_POINT ( 'NONE', #316 ) ;
#231 =( NAMED_UNIT ( * ) SI_UNIT ( $, .STERADIAN. ) SOLID_ANGLE_UNIT ( ) );
#232 = CARTESIAN_POINT ( 'NONE',  ( 0.1031100000000002570, 1.354581824536888722E-17, 2.244094000000000033 ) ) ;
#233 = CYLINDRICAL_SURFACE ( 'NONE', #146, 0.02952454724999999808 ) ;
#234 = AXIS2_PLACEMENT_3D ( 'NONE', #269, #268, #236 ) ;
#235 = CIRCLE ( 'NONE', #153, 0.02854350000000003412 ) ;
#236 = DIRECTION ( 'NONE',  ( -1.000000000000000000, 0.0000000000000000000, 0.0000000000000000000 ) ) ;
#237 = EDGE_CURVE ( 'NONE', #55, #95, #11, .T. ) ;
#238 = FACE_OUTER_BOUND ( 'NONE', #112, .T. ) ;
#239 = EDGE_LOOP ( 'NONE', ( #199, #108 ) ) ;
#240 = AXIS2_PLACEMENT_3D ( 'NONE', #144, #167, #289 ) ;
#241 = CARTESIAN_POINT ( 'NONE',  ( 0.0000000000000000000, 0.0000000000000000000, 2.244094000000000033 ) ) ;
#242 = CYLINDRICAL_SURFACE ( 'NONE', #198, 0.02854350000000002024 ) ;
#243 = CARTESIAN_POINT ( 'NONE',  ( 0.0000000000000000000, 0.0000000000000000000, 0.05905500000000000332 ) ) ;
#244 = AXIS2_PLACEMENT_3D ( 'NONE', #99, #46, #214 ) ;
#245 = AXIS2_PLACEMENT_3D ( 'NONE', #270, #278, #216 ) ;
#246 = DIRECTION ( 'NONE',  ( 0.0000000000000000000, 0.0000000000000000000, 1.000000000000000000 ) ) ;
#247 = CARTESIAN_POINT ( 'NONE',  ( -0.1031100000000002570, 0.0000000000000000000, 2.244094000000000033 ) ) ;
#248 = CARTESIAN_POINT ( 'NONE',  ( 0.02854350000000003412, 0.0000000000000000000, 0.2755909999999999749 ) ) ;
#249 = ORIENTED_EDGE ( 'NONE', *, *, #64, .F. ) ;
#250 = EDGE_CURVE ( 'NONE', #84, #141, #62, .T. ) ;
#251 = CARTESIAN_POINT ( 'NONE',  ( -0.02952454724999999808, 0.0000000000000000000, 0.0000000000000000000 ) ) ;
#252 =( GEOMETRIC_REPRESENTATION_CONTEXT ( 3 ) GLOBAL_UNCERTAINTY_ASSIGNED_CONTEXT ( ( #176 ) ) GLOBAL_UNIT_ASSIGNED_CONTEXT ( ( #322, #348, #231 ) ) REPRESENTATION_CONTEXT ( 'NONE', 'WORKASPACE' ) );
#253 = VERTEX_POINT ( 'NONE', #79 ) ;
#254 = CARTESIAN_POINT ( 'NONE',  ( 0.0000000000000000000, 0.0000000000000000000, 0.05905500000000000332 ) ) ;
#255 = ADVANCED_FACE ( 'NONE', ( #197 ), #321, .T. ) ;
#256 = ORIENTED_EDGE ( 'NONE', *, *, #258, .T. ) ;
#257 = DIRECTION ( 'NONE',  ( -0.0000000000000000000, -0.0000000000000000000, -1.000000000000000000 ) ) ;
#258 = EDGE_CURVE ( 'NONE', #230, #165, #53, .T. ) ;
#259 = ORIENTED_EDGE ( 'NONE', *, *, #334, .T. ) ;
#260 = AXIS2_PLACEMENT_3D ( 'NONE', #248, #284, #111 ) ;
#261 = ORIENTED_EDGE ( 'NONE', *, *, #123, .T. ) ;
#262 = EDGE_LOOP ( 'NONE', ( #114, #315, #139, #379 ) ) ;
#263 = DIMENSIONAL_EXPONENTS ( 1.000000000000000000, 0.0000000000000000000, 0.0000000000000000000, 0.0000000000000000000, 0.0000000000000000000, 0.0000000000000000000, 0.0000000000000000000 ) ;
#264 = EDGE_LOOP ( 'NONE', ( #31, #143, #194, #57 ) ) ;
#265 =( NAMED_UNIT ( * ) PLANE_ANGLE_UNIT ( ) SI_UNIT ( $, .RADIAN. ) );
#266 = FACE_OUTER_BOUND ( 'NONE', #26, .T. ) ;
#267 = CONICAL_SURFACE ( 'NONE', #172, 0.02952454724999999808, 0.1745329251994336694 ) ;
#268 = DIRECTION ( 'NONE',  ( -0.0000000000000000000, -0.0000000000000000000, -1.000000000000000000 ) ) ;
#269 = CARTESIAN_POINT ( 'NONE',  ( 0.0000000000000000000, 0.0000000000000000000, 0.0000000000000000000 ) ) ;
#270 = CARTESIAN_POINT ( 'NONE',  ( 0.0000000000000000000, 0.0000000000000000000, 0.2755909999999999749 ) ) ;
#271 = COLOUR_RGB ( '',0.7921568627450980005, 0.8196078431372548767, 0.9333333333333333481 ) ;
#272 = VECTOR ( 'NONE', #50, 39.37007874015748854 ) ;
#273 = DIRECTION ( 'NONE',  ( -0.0000000000000000000, -0.0000000000000000000, -1.000000000000000000 ) ) ;
#274 = ORIENTED_EDGE ( 'NONE', *, *, #293, .T. ) ;
#275 = DIRECTION ( 'NONE',  ( -0.0000000000000000000, -0.0000000000000000000, -1.000000000000000000 ) ) ;
#276 = DIRECTION ( 'NONE',  ( -1.000000000000000000, 0.0000000000000000000, 0.0000000000000000000 ) ) ;
#277 = CIRCLE ( 'NONE', #23, 0.02854350000000000637 ) ;
#278 = DIRECTION ( 'NONE',  ( -0.0000000000000000000, -0.0000000000000000000, -1.000000000000000000 ) ) ;
#279 = DIRECTION ( 'NONE',  ( -1.000000000000000000, 0.0000000000000000000, 0.0000000000000000000 ) ) ;
#280 = EDGE_LOOP ( 'NONE', ( #160, #274, #148, #338 ) ) ;
#281 = DIRECTION ( 'NONE',  ( -0.0000000000000000000, -0.0000000000000000000, -1.000000000000000000 ) ) ;
#282 = ORIENTED_EDGE ( 'NONE', *, *, #250, .T. ) ;
#283 = EDGE_CURVE ( 'NONE', #202, #223, #235, .T. ) ;
#284 = DIRECTION ( 'NONE',  ( -0.0000000000000000000, 0.0000000000000000000, -1.000000000000000000 ) ) ;
#285 = AXIS2_PLACEMENT_3D ( 'NONE', #254, #346, #105 ) ;
#286 = ORIENTED_EDGE ( 'NONE', *, *, #237, .F. ) ;
#287 =( NAMED_UNIT ( * ) PLANE_ANGLE_UNIT ( ) SI_UNIT ( $, .RADIAN. ) );
#288 = EDGE_LOOP ( 'NONE', ( #347, #313 ) ) ;
#289 = DIRECTION ( 'NONE',  ( -1.000000000000000000, 0.0000000000000000000, 0.0000000000000000000 ) ) ;
#290 = ORIENTED_EDGE ( 'NONE', *, *, #283, .T. ) ;
#291 = DIRECTION ( 'NONE',  ( -1.000000000000000000, 0.0000000000000000000, 0.0000000000000000000 ) ) ;
#292 = PLANE ( 'NONE',  #113 ) ;
#293 = EDGE_CURVE ( 'NONE', #165, #169, #184, .T. ) ;
#294 = EDGE_CURVE ( 'NONE', #169, #369, #161, .T. ) ;
#295 = SURFACE_SIDE_STYLE ('',( #4 ) ) ;
#296 = ADVANCED_FACE ( 'NONE', ( #224 ), #75, .T. ) ;
#297 = CARTESIAN_POINT ( 'NONE',  ( 0.0000000000000000000, 0.0000000000000000000, 2.244094000000000033 ) ) ;
#298 = CIRCLE ( 'NONE', #234, 0.02952454724999999808 ) ;
#299 =( NAMED_UNIT ( * ) SI_UNIT ( $, .STERADIAN. ) SOLID_ANGLE_UNIT ( ) );
#300 = DIRECTION ( 'NONE',  ( -1.000000000000000000, 0.0000000000000000000, 0.0000000000000000000 ) ) ;
#301 = UNCERTAINTY_MEASURE_WITH_UNIT (LENGTH_MEASURE( 1.000000000000000082E-05 ), #35, 'distance_accuracy_value', 'NONE');
#302 = LINE ( 'NONE', #154, #210 ) ;
#303 = FACE_OUTER_BOUND ( 'NONE', #280, .T. ) ;
#304 = CARTESIAN_POINT ( 'NONE',  ( -0.02952454724999999808, 0.0000000000000000000, 0.05905500000000000332 ) ) ;
#305 = DIRECTION ( 'NONE',  ( 0.0000000000000000000, 0.0000000000000000000, -1.000000000000000000 ) ) ;
#306 = CLOSED_SHELL ( 'NONE', ( #9, #104, #77, #255, #191, #68, #54, #170, #221, #296, #51, #126, #90 ) ) ;
#307 = VECTOR ( 'NONE', #257, 39.37007874015748143 ) ;
#308 = CARTESIAN_POINT ( 'NONE',  ( 0.02952454724999999808, 3.615714228598728577E-18, 0.0000000000000000000 ) ) ;
#309 = ORIENTED_EDGE ( 'NONE', *, *, #222, .F. ) ;
#310 = DIRECTION ( 'NONE',  ( 0.0000000000000000000, 0.0000000000000000000, 1.000000000000000000 ) ) ;
#311 = ORIENTED_EDGE ( 'NONE', *, *, #174, .T. ) ;
#312 = DIRECTION ( 'NONE',  ( -1.000000000000000000, 0.0000000000000000000, 0.0000000000000000000 ) ) ;
#313 = ORIENTED_EDGE ( 'NONE', *, *, #152, .T. ) ;
#314 = DIRECTION ( 'NONE',  ( -1.000000000000000000, 0.0000000000000000000, 0.0000000000000000000 ) ) ;
#315 = ORIENTED_EDGE ( 'NONE', *, *, #187, .T. ) ;
#316 = CARTESIAN_POINT ( 'NONE',  ( 0.02854350000000000637, 3.555642409872488112E-18, 0.06461879543311090102 ) ) ;
#317 = EDGE_LOOP ( 'NONE', ( #344, #282 ) ) ;
#318 =( NAMED_UNIT ( * ) SI_UNIT ( $, .STERADIAN. ) SOLID_ANGLE_UNIT ( ) );
#319 = PRESENTATION_LAYER_ASSIGNMENT (  '', '', ( #106 ) ) ;
#320 = VERTEX_POINT ( 'NONE', #308 ) ;
#321 = CONICAL_SURFACE ( 'NONE', #211, 0.1031100000000002570, 0.7853981633974318477 ) ;
#322 =( CONVERSION_BASED_UNIT ( 'INCH', #327 ) LENGTH_UNIT ( ) NAMED_UNIT ( #3 ) );
#323 = DIMENSIONAL_EXPONENTS ( 1.000000000000000000, 0.0000000000000000000, 0.0000000000000000000, 0.0000000000000000000, 0.0000000000000000000, 0.0000000000000000000, 0.0000000000000000000 ) ;
#324 = UNCERTAINTY_MEASURE_WITH_UNIT (LENGTH_MEASURE( 1.000000000000000082E-05 ), #83, 'distance_accuracy_value', 'NONE');
#325 = DIRECTION ( 'NONE',  ( -0.0000000000000000000, -0.0000000000000000000, -1.000000000000000000 ) ) ;
#326 = ORIENTED_EDGE ( 'NONE', *, *, #155, .T. ) ;
#327 = LENGTH_MEASURE_WITH_UNIT ( LENGTH_MEASURE( 0.02539999999999999897 ), #70 );
#328 = DIRECTION ( 'NONE',  ( -1.000000000000000000, 0.0000000000000000000, 0.0000000000000000000 ) ) ;
#329 = CIRCLE ( 'NONE', #43, 0.02854350000000003412 ) ;
#330 = CARTESIAN_POINT ( 'NONE',  ( 0.0000000000000000000, 0.0000000000000000000, 0.2755909999999999749 ) ) ;
#331 = CARTESIAN_POINT ( 'NONE',  ( 0.0000000000000000000, 0.0000000000000000000, 2.244094000000000033 ) ) ;
#332 = CARTESIAN_POINT ( 'NONE',  ( -0.1181100000000000066, 0.0000000000000000000, 2.244094000000000033 ) ) ;
#333 = FACE_OUTER_BOUND ( 'NONE', #288, .T. ) ;
#334 = EDGE_CURVE ( 'NONE', #61, #230, #367, .T. ) ;
#335 = DIRECTION ( 'NONE',  ( 1.000000000000000000, 0.0000000000000000000, 0.0000000000000000000 ) ) ;
#336 = EDGE_CURVE ( 'NONE', #169, #165, #38, .T. ) ;
#337 = DIRECTION ( 'NONE',  ( 0.1736481776669310528, 2.126576849575780543E-17, -0.9848077530122080203 ) ) ;
#338 = ORIENTED_EDGE ( 'NONE', *, *, #152, .F. ) ;
#339 = CIRCLE ( 'NONE', #130, 0.1181100000000000066 ) ;
#340 = CARTESIAN_POINT ( 'NONE',  ( -0.02854350000000003412, 0.0000000000000000000, 0.2755909999999999749 ) ) ;
#341 = ORIENTED_EDGE ( 'NONE', *, *, #336, .F. ) ;
#342 = LENGTH_MEASURE_WITH_UNIT ( LENGTH_MEASURE( 0.02539999999999999897 ), #159 );
#343 = ORIENTED_EDGE ( 'NONE', *, *, #237, .T. ) ;
#344 = ORIENTED_EDGE ( 'NONE', *, *, #162, .T. ) ;
#345 = COLOUR_RGB ( '',0.7921568627450980005, 0.8196078431372548767, 0.9333333333333333481 ) ;
#346 = DIRECTION ( 'NONE',  ( -0.0000000000000000000, -0.0000000000000000000, -1.000000000000000000 ) ) ;
#347 = ORIENTED_EDGE ( 'NONE', *, *, #30, .T. ) ;
#348 =( NAMED_UNIT ( * ) PLANE_ANGLE_UNIT ( ) SI_UNIT ( $, .RADIAN. ) );
#349 = DIRECTION ( 'NONE',  ( -0.0000000000000000000, -0.0000000000000000000, -1.000000000000000000 ) ) ;
#350 = VECTOR ( 'NONE', #189, 39.37007874015748143 ) ;
#351 = ORIENTED_EDGE ( 'NONE', *, *, #168, .T. ) ;
#352 = APPLICATION_CONTEXT ( 'automotive_design' ) ;
#353 = ORIENTED_EDGE ( 'NONE', *, *, #222, .T. ) ;
#354 = DIRECTION ( 'NONE',  ( 0.0000000000000000000, 0.0000000000000000000, 1.000000000000000000 ) ) ;
#355 = CARTESIAN_POINT ( 'NONE',  ( 0.0000000000000000000, 0.0000000000000000000, 2.244094000000000033 ) ) ;
#356 = VECTOR ( 'NONE', #115, 39.37007874015748854 ) ;
#357 = CARTESIAN_POINT ( 'NONE',  ( 0.0000000000000000000, 0.0000000000000000000, 2.244094000000000033 ) ) ;
#358 = EDGE_CURVE ( 'NONE', #55, #22, #29, .T. ) ;
#359 = DIRECTION ( 'NONE',  ( 1.000000000000000000, 0.0000000000000000000, 0.0000000000000000000 ) ) ;
#360 = CARTESIAN_POINT ( 'NONE',  ( 0.02952454724999999808, 3.615714228598728577E-18, 0.05905500000000000332 ) ) ;
#361 = VECTOR ( 'NONE', #349, 39.37007874015748143 ) ;
#362 = DIRECTION ( 'NONE',  ( -1.000000000000000000, 0.0000000000000000000, 0.0000000000000000000 ) ) ;
#363 = DIRECTION ( 'NONE',  ( -1.000000000000000000, 0.0000000000000000000, 0.0000000000000000000 ) ) ;
#364 = DIRECTION ( 'NONE',  ( -0.0000000000000000000, -0.0000000000000000000, -1.000000000000000000 ) ) ;
#365 = ORIENTED_EDGE ( 'NONE', *, *, #129, .T. ) ;
#366 = MECHANICAL_DESIGN_GEOMETRIC_PRESENTATION_REPRESENTATION (  '', ( #106 ), #58 ) ;
#367 = CIRCLE ( 'NONE', #240, 0.02854350000000000637 ) ;
#368 = DIRECTION ( 'NONE',  ( -1.000000000000000000, 0.0000000000000000000, 0.0000000000000000000 ) ) ;
#369 = VERTEX_POINT ( 'NONE', #251 ) ;
#370 = APPLICATION_CONTEXT ( 'automotive_design' ) ;
#371 = DIRECTION ( 'NONE',  ( 1.000000000000000000, 0.0000000000000000000, 0.0000000000000000000 ) ) ;
#372 = EDGE_CURVE ( 'NONE', #95, #253, #19, .T. ) ;
#373 = ORIENTED_EDGE ( 'NONE', *, *, #123, .F. ) ;
#374 = CARTESIAN_POINT ( 'NONE',  ( 0.0000000000000000000, 0.0000000000000000000, 0.2755909999999999749 ) ) ;
#375 = EDGE_LOOP ( 'NONE', ( #192, #351, #209, #229 ) ) ;
#376 = DIRECTION ( 'NONE',  ( -1.000000000000000000, 0.0000000000000000000, 0.0000000000000000000 ) ) ;
#377 = EDGE_LOOP ( 'NONE', ( #326, #20, #40, #249 ) ) ;
#378 = SURFACE_STYLE_USAGE ( .BOTH. , #295 ) ;
#379 = ORIENTED_EDGE ( 'NONE', *, *, #293, .F. ) ;
ENDSEC;
END-ISO-10303-21;
