ISO-10303-21;
HEADER;
FILE_DESCRIPTION (( 'STEP AP214' ),
    '1' );
FILE_NAME ('Micro_RSCM-060-1X.STEP',
    '2021-09-03T17:58:27',
    ( '' ),
    ( '' ),
    'SwSTEP 2.0',
    'SolidWorks 2020',
    '' );
FILE_SCHEMA (( 'AUTOMOTIVE_DESIGN' ));
ENDSEC;

DATA;
#1 = APPLICATION_PROTOCOL_DEFINITION ( 'draft international standard', 'automotive_design', 1998, #212 ) ;
#2 = CARTESIAN_POINT ( 'NONE',  ( 0.0000000000000000000, 0.0000000000000000000, 2.244094000000000033 ) ) ;
#3 = AXIS2_PLACEMENT_3D ( 'NONE', #151, #31, #46 ) ;
#4 = ORIENTED_EDGE ( 'NONE', *, *, #129, .T. ) ;
#5 = ADVANCED_FACE ( 'NONE', ( #98 ), #103, .T. ) ;
#6 = ORIENTED_EDGE ( 'NONE', *, *, #43, .T. ) ;
#7 = DIRECTION ( 'NONE',  ( -0.0000000000000000000, -0.0000000000000000000, -1.000000000000000000 ) ) ;
#8 = DIRECTION ( 'NONE',  ( -1.000000000000000000, 0.0000000000000000000, 0.0000000000000000000 ) ) ;
#9 = EDGE_CURVE ( 'NONE', #12, #101, #196, .T. ) ;
#10 = AXIS2_PLACEMENT_3D ( 'NONE', #209, #125, #206 ) ;
#11 = DIRECTION ( 'NONE',  ( 1.000000000000000000, 0.0000000000000000000, 0.0000000000000000000 ) ) ;
#12 = VERTEX_POINT ( 'NONE', #187 ) ;
#13 = DIRECTION ( 'NONE',  ( 0.0000000000000000000, 0.0000000000000000000, 1.000000000000000000 ) ) ;
#14 = EDGE_CURVE ( 'NONE', #203, #45, #229, .T. ) ;
#15 = DIMENSIONAL_EXPONENTS ( 1.000000000000000000, 0.0000000000000000000, 0.0000000000000000000, 0.0000000000000000000, 0.0000000000000000000, 0.0000000000000000000, 0.0000000000000000000 ) ;
#16 = AXIS2_PLACEMENT_3D ( 'NONE', #230, #82, #156 ) ;
#17 = CARTESIAN_POINT ( 'NONE',  ( 0.003936999999999995191, 0.0000000000000000000, 0.0000000000000000000 ) ) ;
#18 = PLANE ( 'NONE',  #42 ) ;
#19 = ORIENTED_EDGE ( 'NONE', *, *, #79, .T. ) ;
#20 = PRODUCT_RELATED_PRODUCT_CATEGORY ( 'part', '', ( #223 ) ) ;
#21 = SHAPE_DEFINITION_REPRESENTATION ( #116, #155 ) ;
#22 = VECTOR ( 'NONE', #145, 39.37007874015748143 ) ;
#23 = VECTOR ( 'NONE', #51, 39.37007874015748854 ) ;
#24 =( NAMED_UNIT ( * ) SI_UNIT ( $, .STERADIAN. ) SOLID_ANGLE_UNIT ( ) );
#25 = DIRECTION ( 'NONE',  ( -1.000000000000000000, 0.0000000000000000000, 0.0000000000000000000 ) ) ;
#26 = LINE ( 'NONE', #67, #22 ) ;
#27 = CARTESIAN_POINT ( 'NONE',  ( 0.1181100000000000066, 1.446430334472939084E-17, 2.229093999999999465 ) ) ;
#28 = VERTEX_POINT ( 'NONE', #27 ) ;
#29 = CARTESIAN_POINT ( 'NONE',  ( 0.1031100000000002570, 1.262733314600838667E-17, 2.244094000000000033 ) ) ;
#30 = AXIS2_PLACEMENT_3D ( 'NONE', #149, #247, #173 ) ;
#31 = DIRECTION ( 'NONE',  ( -0.0000000000000000000, -0.0000000000000000000, -1.000000000000000000 ) ) ;
#32 = FILL_AREA_STYLE_COLOUR ( '', #200 ) ;
#33 = DIMENSIONAL_EXPONENTS ( 1.000000000000000000, 0.0000000000000000000, 0.0000000000000000000, 0.0000000000000000000, 0.0000000000000000000, 0.0000000000000000000, 0.0000000000000000000 ) ;
#34 = CYLINDRICAL_SURFACE ( 'NONE', #16, 0.1181100000000000066 ) ;
#35 = PRESENTATION_LAYER_ASSIGNMENT (  '', '', ( #91 ) ) ;
#36 = LINE ( 'NONE', #57, #52 ) ;
#37 = EDGE_CURVE ( 'NONE', #179, #28, #73, .T. ) ;
#38 = CIRCLE ( 'NONE', #100, 0.003936999999999995191 ) ;
#39 = FILL_AREA_STYLE ('',( #97 ) ) ;
#40 = PRODUCT_CONTEXT ( 'NONE', #212, 'mechanical' ) ;
#41 = ORIENTED_EDGE ( 'NONE', *, *, #186, .F. ) ;
#42 = AXIS2_PLACEMENT_3D ( 'NONE', #114, #96, #54 ) ;
#43 = EDGE_CURVE ( 'NONE', #203, #179, #111, .T. ) ;
#44 = EDGE_LOOP ( 'NONE', ( #207, #146, #126, #227 ) ) ;
#45 = VERTEX_POINT ( 'NONE', #188 ) ;
#46 = DIRECTION ( 'NONE',  ( -1.000000000000000000, 0.0000000000000000000, 0.0000000000000000000 ) ) ;
#47 = ORIENTED_EDGE ( 'NONE', *, *, #153, .F. ) ;
#48 = UNCERTAINTY_MEASURE_WITH_UNIT (LENGTH_MEASURE( 1.000000000000000082E-05 ), #246, 'distance_accuracy_value', 'NONE');
#49 = ORIENTED_EDGE ( 'NONE', *, *, #14, .F. ) ;
#50 = CARTESIAN_POINT ( 'NONE',  ( -0.1031100000000002570, 0.0000000000000000000, 2.244094000000000033 ) ) ;
#51 = DIRECTION ( 'NONE',  ( 0.7071067811865358044, 8.659560562354788645E-17, -0.7071067811865590080 ) ) ;
#52 = VECTOR ( 'NONE', #109, 39.37007874015748143 ) ;
#53 = CARTESIAN_POINT ( 'NONE',  ( -0.003936999999999995191, 4.821434448243123477E-19, 0.0000000000000000000 ) ) ;
#54 = DIRECTION ( 'NONE',  ( 1.000000000000000000, 0.0000000000000000000, -0.0000000000000000000 ) ) ;
#55 = LINE ( 'NONE', #53, #189 ) ;
#56 = VECTOR ( 'NONE', #86, 39.37007874015748854 ) ;
#57 = CARTESIAN_POINT ( 'NONE',  ( 0.1181100000000000066, 1.446430334472939084E-17, 2.244094000000000033 ) ) ;
#58 = ADVANCED_FACE ( 'NONE', ( #105 ), #139, .T. ) ;
#59 = DIRECTION ( 'NONE',  ( 0.0000000000000000000, 0.0000000000000000000, -1.000000000000000000 ) ) ;
#60 = SURFACE_STYLE_USAGE ( .BOTH. , #218 ) ;
#61 = DIMENSIONAL_EXPONENTS ( 1.000000000000000000, 0.0000000000000000000, 0.0000000000000000000, 0.0000000000000000000, 0.0000000000000000000, 0.0000000000000000000, 0.0000000000000000000 ) ;
#62 = PRESENTATION_LAYER_ASSIGNMENT (  '', '', ( #160 ) ) ;
#63 =( NAMED_UNIT ( * ) PLANE_ANGLE_UNIT ( ) SI_UNIT ( $, .RADIAN. ) );
#64 = ORIENTED_EDGE ( 'NONE', *, *, #79, .F. ) ;
#65 = EDGE_LOOP ( 'NONE', ( #47, #217, #4, #240 ) ) ;
#66 = ORIENTED_EDGE ( 'NONE', *, *, #159, .T. ) ;
#67 = CARTESIAN_POINT ( 'NONE',  ( -0.1181100000000000066, 0.0000000000000000000, 2.244094000000000033 ) ) ;
#68 = EDGE_LOOP ( 'NONE', ( #141, #127, #85, #222 ) ) ;
#69 = FACE_OUTER_BOUND ( 'NONE', #113, .T. ) ;
#70 = EDGE_CURVE ( 'NONE', #101, #12, #124, .T. ) ;
#71 = CARTESIAN_POINT ( 'NONE',  ( -0.003936999999999995191, 7.473223394776852656E-18, 0.0000000000000000000 ) ) ;
#72 = AXIS2_PLACEMENT_3D ( 'NONE', #210, #165, #123 ) ;
#73 = LINE ( 'NONE', #29, #23 ) ;
#74 = FACE_OUTER_BOUND ( 'NONE', #65, .T. ) ;
#75 = SURFACE_STYLE_FILL_AREA ( #154 ) ;
#76 = AXIS2_PLACEMENT_3D ( 'NONE', #94, #13, #93 ) ;
#77 = DIRECTION ( 'NONE',  ( -0.5000000000000013323, 6.123233995736782060E-17, 0.8660254037844377084 ) ) ;
#78 = CARTESIAN_POINT ( 'NONE',  ( -0.1031100000000002570, 0.0000000000000000000, 2.244094000000000033 ) ) ;
#79 = EDGE_CURVE ( 'NONE', #181, #142, #38, .T. ) ;
#80 =( CONVERSION_BASED_UNIT ( 'INCH', #232 ) LENGTH_UNIT ( ) NAMED_UNIT ( #61 ) );
#81 = AXIS2_PLACEMENT_3D ( 'NONE', #235, #59, #138 ) ;
#82 = DIRECTION ( 'NONE',  ( -0.0000000000000000000, -0.0000000000000000000, -1.000000000000000000 ) ) ;
#83 = ADVANCED_FACE ( 'NONE', ( #74 ), #228, .T. ) ;
#84 = CARTESIAN_POINT ( 'NONE',  ( 0.0000000000000000000, 0.0000000000000000000, 0.0000000000000000000 ) ) ;
#85 = ORIENTED_EDGE ( 'NONE', *, *, #9, .F. ) ;
#86 = DIRECTION ( 'NONE',  ( 0.5000000000000013323, 0.0000000000000000000, 0.8660254037844377084 ) ) ;
#87 = ADVANCED_FACE ( 'NONE', ( #104 ), #238, .T. ) ;
#88 = ORIENTED_EDGE ( 'NONE', *, *, #132, .F. ) ;
#89 = DIRECTION ( 'NONE',  ( 0.0000000000000000000, 0.0000000000000000000, 1.000000000000000000 ) ) ;
#90 = CARTESIAN_POINT ( 'NONE',  ( 0.0000000000000000000, 0.0000000000000000000, 0.1977534368525607211 ) ) ;
#91 = STYLED_ITEM ( 'NONE', ( #191 ), #148 ) ;
#92 = CARTESIAN_POINT ( 'NONE',  ( 0.0000000000000000000, 0.0000000000000000000, 0.0000000000000000000 ) ) ;
#93 = DIRECTION ( 'NONE',  ( 1.000000000000000000, 0.0000000000000000000, 0.0000000000000000000 ) ) ;
#94 = CARTESIAN_POINT ( 'NONE',  ( 0.0000000000000000000, 0.0000000000000000000, 0.0000000000000000000 ) ) ;
#95 = AXIS2_PLACEMENT_3D ( 'NONE', #185, #89, #166 ) ;
#96 = DIRECTION ( 'NONE',  ( 0.0000000000000000000, 0.0000000000000000000, 1.000000000000000000 ) ) ;
#97 = FILL_AREA_STYLE_COLOUR ( '', #171 ) ;
#98 = FACE_OUTER_BOUND ( 'NONE', #143, .T. ) ;
#99 = ORIENTED_EDGE ( 'NONE', *, *, #9, .T. ) ;
#100 = AXIS2_PLACEMENT_3D ( 'NONE', #92, #245, #226 ) ;
#101 = VERTEX_POINT ( 'NONE', #121 ) ;
#102 = DIRECTION ( 'NONE',  ( -1.000000000000000000, 0.0000000000000000000, 0.0000000000000000000 ) ) ;
#103 = CONICAL_SURFACE ( 'NONE', #214, 0.1031100000000002570, 0.7853981633974318477 ) ;
#104 = FACE_OUTER_BOUND ( 'NONE', #237, .T. ) ;
#105 = FACE_OUTER_BOUND ( 'NONE', #44, .T. ) ;
#106 = DIRECTION ( 'NONE',  ( 0.0000000000000000000, 0.0000000000000000000, 1.000000000000000000 ) ) ;
#107 = CARTESIAN_POINT ( 'NONE',  ( 0.0000000000000000000, 0.0000000000000000000, 2.244094000000000033 ) ) ;
#108 = LENGTH_MEASURE_WITH_UNIT ( LENGTH_MEASURE( 0.02539999999999999897 ), #131 );
#109 = DIRECTION ( 'NONE',  ( -0.0000000000000000000, -0.0000000000000000000, -1.000000000000000000 ) ) ;
#110 = EDGE_CURVE ( 'NONE', #179, #203, #244, .T. ) ;
#111 = CIRCLE ( 'NONE', #119, 0.1031100000000002570 ) ;
#112 = SURFACE_STYLE_USAGE ( .BOTH. , #193 ) ;
#113 = EDGE_LOOP ( 'NONE', ( #19, #66 ) ) ;
#114 = CARTESIAN_POINT ( 'NONE',  ( 0.0000000000000000000, 0.0000000000000000000, 2.244094000000000033 ) ) ;
#115 = PRESENTATION_STYLE_ASSIGNMENT (( #60 ) ) ;
#116 = PRODUCT_DEFINITION_SHAPE ( 'NONE', 'NONE',  #137 ) ;
#117 = CARTESIAN_POINT ( 'NONE',  ( 0.0000000000000000000, 0.0000000000000000000, 0.0000000000000000000 ) ) ;
#118 = EDGE_CURVE ( 'NONE', #45, #28, #176, .T. ) ;
#119 = AXIS2_PLACEMENT_3D ( 'NONE', #208, #106, #11 ) ;
#120 = ORIENTED_EDGE ( 'NONE', *, *, #118, .F. ) ;
#121 = CARTESIAN_POINT ( 'NONE',  ( 0.1181100000000000066, 1.446430334472939084E-17, 0.1977534368525607211 ) ) ;
#122 = ORIENTED_EDGE ( 'NONE', *, *, #186, .T. ) ;
#123 = DIRECTION ( 'NONE',  ( -1.000000000000000000, 0.0000000000000000000, 0.0000000000000000000 ) ) ;
#124 = CIRCLE ( 'NONE', #3, 0.1181100000000000066 ) ;
#125 = DIRECTION ( 'NONE',  ( 0.0000000000000000000, 0.0000000000000000000, -1.000000000000000000 ) ) ;
#126 = ORIENTED_EDGE ( 'NONE', *, *, #14, .T. ) ;
#127 = ORIENTED_EDGE ( 'NONE', *, *, #153, .T. ) ;
#128 = DIRECTION ( 'NONE',  ( 1.000000000000000000, 0.0000000000000000000, 0.0000000000000000000 ) ) ;
#129 = EDGE_CURVE ( 'NONE', #45, #12, #26, .T. ) ;
#130 = CONICAL_SURFACE ( 'NONE', #76, 0.003936999999999995191, 0.5235987755983005920 ) ;
#131 =( LENGTH_UNIT ( ) NAMED_UNIT ( * ) SI_UNIT ( $, .METRE. ) );
#132 = EDGE_CURVE ( 'NONE', #181, #101, #221, .T. ) ;
#133 =( LENGTH_UNIT ( ) NAMED_UNIT ( * ) SI_UNIT ( $, .METRE. ) );
#134 = AXIS2_PLACEMENT_3D ( 'NONE', #107, #7, #25 ) ;
#135 = UNCERTAINTY_MEASURE_WITH_UNIT (LENGTH_MEASURE( 1.000000000000000082E-05 ), #80, 'distance_accuracy_value', 'NONE');
#136 = CARTESIAN_POINT ( 'NONE',  ( 0.1031100000000002570, 1.354581824536888722E-17, 2.244094000000000033 ) ) ;
#137 = PRODUCT_DEFINITION ( 'UNKNOWN', '', #172, #177 ) ;
#138 = DIRECTION ( 'NONE',  ( 1.000000000000000000, 0.0000000000000000000, 0.0000000000000000000 ) ) ;
#139 = CONICAL_SURFACE ( 'NONE', #72, 0.1031100000000002570, 0.7853981633974318477 ) ;
#140 = ADVANCED_FACE ( 'NONE', ( #69 ), #147, .F. ) ;
#141 = ORIENTED_EDGE ( 'NONE', *, *, #118, .T. ) ;
#142 = VERTEX_POINT ( 'NONE', #71 ) ;
#143 = EDGE_LOOP ( 'NONE', ( #182, #167, #120, #49 ) ) ;
#144 = CIRCLE ( 'NONE', #30, 0.003936999999999995191 ) ;
#145 = DIRECTION ( 'NONE',  ( -0.0000000000000000000, -0.0000000000000000000, -1.000000000000000000 ) ) ;
#146 = ORIENTED_EDGE ( 'NONE', *, *, #43, .F. ) ;
#147 = PLANE ( 'NONE',  #95 ) ;
#148 = MANIFOLD_SOLID_BREP ( 'Cut-Revolve1', #192 ) ;
#149 = CARTESIAN_POINT ( 'NONE',  ( 0.0000000000000000000, 0.0000000000000000000, 0.0000000000000000000 ) ) ;
#150 = AXIS2_PLACEMENT_3D ( 'NONE', #84, #241, #128 ) ;
#151 = CARTESIAN_POINT ( 'NONE',  ( 0.0000000000000000000, 0.0000000000000000000, 0.1977534368525607211 ) ) ;
#152 = AXIS2_PLACEMENT_3D ( 'NONE', #117, #161, #219 ) ;
#153 = EDGE_CURVE ( 'NONE', #28, #101, #36, .T. ) ;
#154 = FILL_AREA_STYLE ('',( #32 ) ) ;
#155 = ADVANCED_BREP_SHAPE_REPRESENTATION ( 'Micro_RSCM-060-1X', ( #148, #152 ), #249 ) ;
#156 = DIRECTION ( 'NONE',  ( -1.000000000000000000, 0.0000000000000000000, 0.0000000000000000000 ) ) ;
#157 = ORIENTED_EDGE ( 'NONE', *, *, #110, .T. ) ;
#158 =( NAMED_UNIT ( * ) SI_UNIT ( $, .STERADIAN. ) SOLID_ANGLE_UNIT ( ) );
#159 = EDGE_CURVE ( 'NONE', #142, #181, #144, .T. ) ;
#160 = STYLED_ITEM ( 'NONE', ( #115 ), #155 ) ;
#161 = DIRECTION ( 'NONE',  ( 0.0000000000000000000, 0.0000000000000000000, 1.000000000000000000 ) ) ;
#162 = ADVANCED_FACE ( 'NONE', ( #194 ), #18, .T. ) ;
#163 =( GEOMETRIC_REPRESENTATION_CONTEXT ( 3 ) GLOBAL_UNCERTAINTY_ASSIGNED_CONTEXT ( ( #174 ) ) GLOBAL_UNIT_ASSIGNED_CONTEXT ( ( #216, #63, #158 ) ) REPRESENTATION_CONTEXT ( 'NONE', 'WORKASPACE' ) );
#164 = ORIENTED_EDGE ( 'NONE', *, *, #70, .T. ) ;
#165 = DIRECTION ( 'NONE',  ( 0.0000000000000000000, 0.0000000000000000000, -1.000000000000000000 ) ) ;
#166 = DIRECTION ( 'NONE',  ( 1.000000000000000000, 0.0000000000000000000, -0.0000000000000000000 ) ) ;
#167 = ORIENTED_EDGE ( 'NONE', *, *, #37, .T. ) ;
#168 = DIRECTION ( 'NONE',  ( -0.7071067811865358044, 0.0000000000000000000, -0.7071067811865590080 ) ) ;
#169 = DIRECTION ( 'NONE',  ( -0.0000000000000000000, -0.0000000000000000000, -1.000000000000000000 ) ) ;
#170 =( NAMED_UNIT ( * ) PLANE_ANGLE_UNIT ( ) SI_UNIT ( $, .RADIAN. ) );
#171 = COLOUR_RGB ( '',0.7921568627450980005, 0.8196078431372548767, 0.9333333333333333481 ) ;
#172 = PRODUCT_DEFINITION_FORMATION_WITH_SPECIFIED_SOURCE ( 'ANY', '', #223, .NOT_KNOWN. ) ;
#173 = DIRECTION ( 'NONE',  ( -1.000000000000000000, 0.0000000000000000000, 0.0000000000000000000 ) ) ;
#174 = UNCERTAINTY_MEASURE_WITH_UNIT (LENGTH_MEASURE( 1.000000000000000082E-05 ), #216, 'distance_accuracy_value', 'NONE');
#175 = FACE_OUTER_BOUND ( 'NONE', #68, .T. ) ;
#176 = CIRCLE ( 'NONE', #10, 0.1181100000000000066 ) ;
#177 = PRODUCT_DEFINITION_CONTEXT ( 'detailed design', #220, 'design' ) ;
#178 = LENGTH_MEASURE_WITH_UNIT ( LENGTH_MEASURE( 0.02539999999999999897 ), #201 );
#179 = VERTEX_POINT ( 'NONE', #136 ) ;
#180 = AXIS2_PLACEMENT_3D ( 'NONE', #90, #169, #102 ) ;
#181 = VERTEX_POINT ( 'NONE', #17 ) ;
#182 = ORIENTED_EDGE ( 'NONE', *, *, #110, .F. ) ;
#183 =( GEOMETRIC_REPRESENTATION_CONTEXT ( 3 ) GLOBAL_UNCERTAINTY_ASSIGNED_CONTEXT ( ( #135 ) ) GLOBAL_UNIT_ASSIGNED_CONTEXT ( ( #80, #170, #248 ) ) REPRESENTATION_CONTEXT ( 'NONE', 'WORKASPACE' ) );
#184 = DIRECTION ( 'NONE',  ( 0.0000000000000000000, 0.0000000000000000000, -1.000000000000000000 ) ) ;
#185 = CARTESIAN_POINT ( 'NONE',  ( 0.0000000000000000000, 0.0000000000000000000, 0.0000000000000000000 ) ) ;
#186 = EDGE_CURVE ( 'NONE', #142, #12, #55, .T. ) ;
#187 = CARTESIAN_POINT ( 'NONE',  ( -0.1181100000000000066, 0.0000000000000000000, 0.1977534368525607211 ) ) ;
#188 = CARTESIAN_POINT ( 'NONE',  ( -0.1181100000000000066, 0.0000000000000000000, 2.229093999999999465 ) ) ;
#189 = VECTOR ( 'NONE', #77, 39.37007874015748854 ) ;
#190 = CARTESIAN_POINT ( 'NONE',  ( 0.0000000000000000000, 0.0000000000000000000, 2.244094000000000033 ) ) ;
#191 = PRESENTATION_STYLE_ASSIGNMENT (( #112 ) ) ;
#192 = CLOSED_SHELL ( 'NONE', ( #213, #5, #197, #83, #162, #58, #87, #140 ) ) ;
#193 = SURFACE_SIDE_STYLE ('',( #75 ) ) ;
#194 = FACE_OUTER_BOUND ( 'NONE', #195, .T. ) ;
#195 = EDGE_LOOP ( 'NONE', ( #6, #157 ) ) ;
#196 = CIRCLE ( 'NONE', #180, 0.1181100000000000066 ) ;
#197 = ADVANCED_FACE ( 'NONE', ( #175 ), #34, .T. ) ;
#198 = ORIENTED_EDGE ( 'NONE', *, *, #132, .T. ) ;
#199 = SURFACE_STYLE_FILL_AREA ( #39 ) ;
#200 = COLOUR_RGB ( '',0.7921568627450980005, 0.8196078431372548767, 0.9333333333333333481 ) ;
#201 =( LENGTH_UNIT ( ) NAMED_UNIT ( * ) SI_UNIT ( $, .METRE. ) );
#202 = CARTESIAN_POINT ( 'NONE',  ( 0.003936999999999995191, 0.0000000000000000000, 0.0000000000000000000 ) ) ;
#203 = VERTEX_POINT ( 'NONE', #78 ) ;
#204 = VECTOR ( 'NONE', #168, 39.37007874015748854 ) ;
#205 = EDGE_CURVE ( 'NONE', #28, #45, #225, .T. ) ;
#206 = DIRECTION ( 'NONE',  ( 1.000000000000000000, 0.0000000000000000000, 0.0000000000000000000 ) ) ;
#207 = ORIENTED_EDGE ( 'NONE', *, *, #37, .F. ) ;
#208 = CARTESIAN_POINT ( 'NONE',  ( 0.0000000000000000000, 0.0000000000000000000, 2.244094000000000033 ) ) ;
#209 = CARTESIAN_POINT ( 'NONE',  ( 0.0000000000000000000, 0.0000000000000000000, 2.229093999999999465 ) ) ;
#210 = CARTESIAN_POINT ( 'NONE',  ( 0.0000000000000000000, 0.0000000000000000000, 2.244094000000000033 ) ) ;
#211 = MECHANICAL_DESIGN_GEOMETRIC_PRESENTATION_REPRESENTATION (  '', ( #160 ), #163 ) ;
#212 = APPLICATION_CONTEXT ( 'automotive_design' ) ;
#213 = ADVANCED_FACE ( 'NONE', ( #215 ), #130, .T. ) ;
#214 = AXIS2_PLACEMENT_3D ( 'NONE', #2, #184, #8 ) ;
#215 = FACE_OUTER_BOUND ( 'NONE', #243, .T. ) ;
#216 =( CONVERSION_BASED_UNIT ( 'INCH', #178 ) LENGTH_UNIT ( ) NAMED_UNIT ( #33 ) );
#217 = ORIENTED_EDGE ( 'NONE', *, *, #205, .T. ) ;
#218 = SURFACE_SIDE_STYLE ('',( #199 ) ) ;
#219 = DIRECTION ( 'NONE',  ( 1.000000000000000000, 0.0000000000000000000, 0.0000000000000000000 ) ) ;
#220 = APPLICATION_CONTEXT ( 'automotive_design' ) ;
#221 = LINE ( 'NONE', #202, #56 ) ;
#222 = ORIENTED_EDGE ( 'NONE', *, *, #129, .F. ) ;
#223 = PRODUCT ( 'Micro_RSCM-060-1X', 'Micro_RSCM-060-1X', '', ( #40 ) ) ;
#224 = DIRECTION ( 'NONE',  ( 0.0000000000000000000, 0.0000000000000000000, 1.000000000000000000 ) ) ;
#225 = CIRCLE ( 'NONE', #81, 0.1181100000000000066 ) ;
#226 = DIRECTION ( 'NONE',  ( -1.000000000000000000, 0.0000000000000000000, 0.0000000000000000000 ) ) ;
#227 = ORIENTED_EDGE ( 'NONE', *, *, #205, .F. ) ;
#228 = CYLINDRICAL_SURFACE ( 'NONE', #134, 0.1181100000000000066 ) ;
#229 = LINE ( 'NONE', #50, #204 ) ;
#230 = CARTESIAN_POINT ( 'NONE',  ( 0.0000000000000000000, 0.0000000000000000000, 2.244094000000000033 ) ) ;
#231 = AXIS2_PLACEMENT_3D ( 'NONE', #190, #224, #239 ) ;
#232 = LENGTH_MEASURE_WITH_UNIT ( LENGTH_MEASURE( 0.02539999999999999897 ), #133 );
#233 =( NAMED_UNIT ( * ) PLANE_ANGLE_UNIT ( ) SI_UNIT ( $, .RADIAN. ) );
#234 = MECHANICAL_DESIGN_GEOMETRIC_PRESENTATION_REPRESENTATION (  '', ( #91 ), #183 ) ;
#235 = CARTESIAN_POINT ( 'NONE',  ( 0.0000000000000000000, 0.0000000000000000000, 2.229093999999999465 ) ) ;
#236 = APPLICATION_PROTOCOL_DEFINITION ( 'draft international standard', 'automotive_design', 1998, #220 ) ;
#237 = EDGE_LOOP ( 'NONE', ( #41, #64, #198, #164 ) ) ;
#238 = CONICAL_SURFACE ( 'NONE', #150, 0.003936999999999995191, 0.5235987755983005920 ) ;
#239 = DIRECTION ( 'NONE',  ( 1.000000000000000000, 0.0000000000000000000, 0.0000000000000000000 ) ) ;
#240 = ORIENTED_EDGE ( 'NONE', *, *, #70, .F. ) ;
#241 = DIRECTION ( 'NONE',  ( 0.0000000000000000000, 0.0000000000000000000, 1.000000000000000000 ) ) ;
#242 = ORIENTED_EDGE ( 'NONE', *, *, #159, .F. ) ;
#243 = EDGE_LOOP ( 'NONE', ( #242, #122, #99, #88 ) ) ;
#244 = CIRCLE ( 'NONE', #231, 0.1031100000000002570 ) ;
#245 = DIRECTION ( 'NONE',  ( -0.0000000000000000000, -0.0000000000000000000, -1.000000000000000000 ) ) ;
#246 =( CONVERSION_BASED_UNIT ( 'INCH', #108 ) LENGTH_UNIT ( ) NAMED_UNIT ( #15 ) );
#247 = DIRECTION ( 'NONE',  ( -0.0000000000000000000, -0.0000000000000000000, -1.000000000000000000 ) ) ;
#248 =( NAMED_UNIT ( * ) SI_UNIT ( $, .STERADIAN. ) SOLID_ANGLE_UNIT ( ) );
#249 =( GEOMETRIC_REPRESENTATION_CONTEXT ( 3 ) GLOBAL_UNCERTAINTY_ASSIGNED_CONTEXT ( ( #48 ) ) GLOBAL_UNIT_ASSIGNED_CONTEXT ( ( #246, #233, #24 ) ) REPRESENTATION_CONTEXT ( 'NONE', 'WORKASPACE' ) );
ENDSEC;
END-ISO-10303-21;
