ISO-10303-21;
HEADER;
FILE_DESCRIPTION (( 'STEP AP214' ),
    '1' );
FILE_NAME ('59672.STEP',
    '2023-07-24T15:22:14',
    ( '' ),
    ( '' ),
    'SwSTEP 2.0',
    'SolidWorks 2023',
    '' );
FILE_SCHEMA (( 'AUTOMOTIVE_DESIGN' ));
ENDSEC;

DATA;
#1 = AXIS2_PLACEMENT_3D ( 'NONE', #310, #244, #54 ) ;
#2 = SURFACE_SIDE_STYLE ('',( #190 ) ) ;
#3 =( NAMED_UNIT ( * ) PLANE_ANGLE_UNIT ( ) SI_UNIT ( $, .RADIAN. ) );
#4 = EDGE_CURVE ( 'NONE', #280, #69, #285, .T. ) ;
#5 = DIRECTION ( 'NONE',  ( -1.203966067220177465E-16, 1.000000000000000000, -0.000000000000000000 ) ) ;
#6 = CIRCLE ( 'NONE', #219, 5.000000000000000000 ) ;
#7 = DIRECTION ( 'NONE',  ( -0.000000000000000000, -1.000000000000000000, -0.000000000000000000 ) ) ;
#8 = EDGE_CURVE ( 'NONE', #186, #261, #134, .T. ) ;
#9 = AXIS2_PLACEMENT_3D ( 'NONE', #73, #274, #70 ) ;
#10 =( LENGTH_UNIT ( ) NAMED_UNIT ( * ) SI_UNIT ( .MILLI., .METRE. ) );
#11 = MECHANICAL_DESIGN_GEOMETRIC_PRESENTATION_REPRESENTATION (  '', ( #282 ), #336 ) ;
#12 = CIRCLE ( 'NONE', #337, 4.000000000000000000 ) ;
#13 = EDGE_CURVE ( 'NONE', #328, #292, #250, .T. ) ;
#14 = AXIS2_PLACEMENT_3D ( 'NONE', #19, #357, #153 ) ;
#15 = EDGE_LOOP ( 'NONE', ( #356, #233, #82, #213 ) ) ;
#16 = UNCERTAINTY_MEASURE_WITH_UNIT (LENGTH_MEASURE( 1.000000000000000082E-05 ), #53, 'distance_accuracy_value', 'NONE');
#17 = PRESENTATION_STYLE_ASSIGNMENT (( #324 ) ) ;
#18 = FILL_AREA_STYLE ('',( #104 ) ) ;
#19 = CARTESIAN_POINT ( 'NONE',  ( 0.000000000000000000, 0.000000000000000000, 0.000000000000000000 ) ) ;
#20 =( NAMED_UNIT ( * ) SI_UNIT ( $, .STERADIAN. ) SOLID_ANGLE_UNIT ( ) );
#21 = VERTEX_POINT ( 'NONE', #58 ) ;
#22 = SURFACE_STYLE_USAGE ( .BOTH. , #295 ) ;
#23 = PRESENTATION_LAYER_ASSIGNMENT (  '', '', ( #286 ) ) ;
#24 = SURFACE_STYLE_FILL_AREA ( #334 ) ;
#25 = CARTESIAN_POINT ( 'NONE',  ( 1.214306433183764966E-14, 25.00000000000000000, 0.000000000000000000 ) ) ;
#26 =( NAMED_UNIT ( * ) SI_UNIT ( $, .STERADIAN. ) SOLID_ANGLE_UNIT ( ) );
#27 = DIRECTION ( 'NONE',  ( -0.000000000000000000, -1.000000000000000000, -0.000000000000000000 ) ) ;
#28 = CARTESIAN_POINT ( 'NONE',  ( 6.123233995736762930E-15, 75.00000000000000000, 0.000000000000000000 ) ) ;
#29 =( GEOMETRIC_REPRESENTATION_CONTEXT ( 3 ) GLOBAL_UNCERTAINTY_ASSIGNED_CONTEXT ( ( #156 ) ) GLOBAL_UNIT_ASSIGNED_CONTEXT ( ( #76, #184, #20 ) ) REPRESENTATION_CONTEXT ( 'NONE', 'WORKASPACE' ) );
#30 = COLOUR_RGB ( '',0.7921568627450980005, 0.8196078431372548767, 0.9333333333333333481 ) ;
#31 = SURFACE_STYLE_USAGE ( .BOTH. , #279 ) ;
#32 = FILL_AREA_STYLE ('',( #120 ) ) ;
#33 = CIRCLE ( 'NONE', #151, 5.000000000000000000 ) ;
#34 = PRESENTATION_STYLE_ASSIGNMENT (( #31 ) ) ;
#35 = EDGE_CURVE ( 'NONE', #292, #186, #114, .T. ) ;
#36 = COLOUR_RGB ( '',1.000000000000000000, 0.000000000000000000, 0.000000000000000000 ) ;
#37 = APPLICATION_PROTOCOL_DEFINITION ( 'draft international standard', 'automotive_design', 1998, #122 ) ;
#38 = ORIENTED_EDGE ( 'NONE', *, *, #57, .T. ) ;
#39 = AXIS2_PLACEMENT_3D ( 'NONE', #145, #240, #116 ) ;
#40 = ORIENTED_EDGE ( 'NONE', *, *, #317, .F. ) ;
#41 = UNCERTAINTY_MEASURE_WITH_UNIT (LENGTH_MEASURE( 1.000000000000000082E-05 ), #77, 'distance_accuracy_value', 'NONE');
#42 = EDGE_LOOP ( 'NONE', ( #40, #155, #305, #43 ) ) ;
#43 = ORIENTED_EDGE ( 'NONE', *, *, #358, .F. ) ;
#44 = FILL_AREA_STYLE ('',( #169 ) ) ;
#45 = CYLINDRICAL_SURFACE ( 'NONE', #199, 4.999999999999990230 ) ;
#46 = CIRCLE ( 'NONE', #293, 4.999999999999993783 ) ;
#47 =( NAMED_UNIT ( * ) SI_UNIT ( $, .STERADIAN. ) SOLID_ANGLE_UNIT ( ) );
#48 = FACE_OUTER_BOUND ( 'NONE', #85, .T. ) ;
#49 = PLANE ( 'NONE',  #9 ) ;
#50 = FACE_OUTER_BOUND ( 'NONE', #42, .T. ) ;
#51 = COLOUR_RGB ( '',1.000000000000000000, 0.000000000000000000, 0.000000000000000000 ) ;
#52 = PRESENTATION_STYLE_ASSIGNMENT (( #340 ) ) ;
#53 =( LENGTH_UNIT ( ) NAMED_UNIT ( * ) SI_UNIT ( .MILLI., .METRE. ) );
#54 = DIRECTION ( 'NONE',  ( 1.000000000000000000, 0.000000000000000000, 0.000000000000000000 ) ) ;
#55 = COLOUR_RGB ( '',1.000000000000000000, 0.000000000000000000, 0.000000000000000000 ) ;
#56 = VECTOR ( 'NONE', #27, 1000.000000000000000 ) ;
#57 = EDGE_CURVE ( 'NONE', #186, #292, #198, .T. ) ;
#58 = CARTESIAN_POINT ( 'NONE',  ( 0.000000000000000000, 0.000000000000000000, -4.000000000000000000 ) ) ;
#59 =( NAMED_UNIT ( * ) PLANE_ANGLE_UNIT ( ) SI_UNIT ( $, .RADIAN. ) );
#60 = CARTESIAN_POINT ( 'NONE',  ( -4.999999999999984901, 75.00000000000000000, 0.000000000000000000 ) ) ;
#61 = ORIENTED_EDGE ( 'NONE', *, *, #128, .T. ) ;
#62 = UNCERTAINTY_MEASURE_WITH_UNIT (LENGTH_MEASURE( 1.000000000000000082E-05 ), #212, 'distance_accuracy_value', 'NONE');
#63 = CARTESIAN_POINT ( 'NONE',  ( 5.510910596163089556E-16, 0.000000000000000000, 4.000000000000000000 ) ) ;
#64 = ORIENTED_EDGE ( 'NONE', *, *, #8, .T. ) ;
#65 = DIRECTION ( 'NONE',  ( -0.000000000000000000, -1.000000000000000000, -0.000000000000000000 ) ) ;
#66 = PRODUCT_RELATED_PRODUCT_CATEGORY ( 'part', '', ( #246 ) ) ;
#67 = VECTOR ( 'NONE', #351, 1000.000000000000000 ) ;
#68 = MECHANICAL_DESIGN_GEOMETRIC_PRESENTATION_REPRESENTATION (  '', ( #294 ), #260 ) ;
#69 = VERTEX_POINT ( 'NONE', #91 ) ;
#70 = DIRECTION ( 'NONE',  ( 0.000000000000000000, -0.000000000000000000, 1.000000000000000000 ) ) ;
#71 = SURFACE_STYLE_FILL_AREA ( #18 ) ;
#72 = ORIENTED_EDGE ( 'NONE', *, *, #353, .F. ) ;
#73 = CARTESIAN_POINT ( 'NONE',  ( 0.000000000000000000, 25.00000000000000000, 0.000000000000000000 ) ) ;
#74 = SURFACE_STYLE_USAGE ( .BOTH. , #2 ) ;
#75 = ORIENTED_EDGE ( 'NONE', *, *, #8, .F. ) ;
#76 =( LENGTH_UNIT ( ) NAMED_UNIT ( * ) SI_UNIT ( .MILLI., .METRE. ) );
#77 =( LENGTH_UNIT ( ) NAMED_UNIT ( * ) SI_UNIT ( .MILLI., .METRE. ) );
#78 = LINE ( 'NONE', #364, #56 ) ;
#79 = AXIS2_PLACEMENT_3D ( 'NONE', #170, #5, #249 ) ;
#80 =( GEOMETRIC_REPRESENTATION_CONTEXT ( 3 ) GLOBAL_UNCERTAINTY_ASSIGNED_CONTEXT ( ( #41 ) ) GLOBAL_UNIT_ASSIGNED_CONTEXT ( ( #77, #113, #47 ) ) REPRESENTATION_CONTEXT ( 'NONE', 'WORKASPACE' ) );
#81 = DIRECTION ( 'NONE',  ( -0.000000000000000000, -1.000000000000000000, -0.000000000000000000 ) ) ;
#82 = ORIENTED_EDGE ( 'NONE', *, *, #35, .F. ) ;
#83 = ADVANCED_FACE ( 'NONE', ( #50 ), #308, .T. ) ;
#84 = DIRECTION ( 'NONE',  ( -1.203966067220177465E-16, 1.000000000000000000, -0.000000000000000000 ) ) ;
#85 = EDGE_LOOP ( 'NONE', ( #203, #210 ) ) ;
#86 = CARTESIAN_POINT ( 'NONE',  ( 4.999999999999996447, 75.00000000000000000, 6.123233995736754449E-16 ) ) ;
#87 = ADVANCED_FACE ( 'NONE', ( #197 ), #345, .T. ) ;
#88 = CARTESIAN_POINT ( 'NONE',  ( 0.000000000000000000, 0.000000000000000000, -5.000000000000000888 ) ) ;
#89 = AXIS2_PLACEMENT_3D ( 'NONE', #139, #272, #331 ) ;
#90 = AXIS2_PLACEMENT_3D ( 'NONE', #267, #132, #183 ) ;
#91 = CARTESIAN_POINT ( 'NONE',  ( 5.000000000000000888, 25.00000000000000000, 6.123233995736757408E-16 ) ) ;
#92 = PRODUCT_DEFINITION_SHAPE ( 'NONE', 'NONE',  #144 ) ;
#93 = DIRECTION ( 'NONE',  ( -1.000000000000000000, 0.000000000000000000, 0.000000000000000000 ) ) ;
#94 = ADVANCED_FACE ( 'NONE', ( #228 ), #175, .T. ) ;
#95 = DIRECTION ( 'NONE',  ( 1.000000000000000000, 0.000000000000000000, -1.224646799147353207E-16 ) ) ;
#96 = TOROIDAL_SURFACE ( 'NONE', #89, 4.000000000000000000, 1.000000000000000444 ) ;
#97 =( NAMED_UNIT ( * ) SI_UNIT ( $, .STERADIAN. ) SOLID_ANGLE_UNIT ( ) );
#98 = CARTESIAN_POINT ( 'NONE',  ( 0.000000000000000000, 25.00000000000000000, 0.000000000000000000 ) ) ;
#99 = MANIFOLD_SOLID_BREP ( 'Revolve - Cutting Edge', #150 ) ;
#100 = CIRCLE ( 'NONE', #370, 4.000000000000000000 ) ;
#101 = SURFACE_STYLE_FILL_AREA ( #284 ) ;
#102 = DIRECTION ( 'NONE',  ( -0.000000000000000000, -1.000000000000000000, -0.000000000000000000 ) ) ;
#103 = ORIENTED_EDGE ( 'NONE', *, *, #358, .T. ) ;
#104 = FILL_AREA_STYLE_COLOUR ( '', #51 ) ;
#105 = EDGE_CURVE ( 'NONE', #280, #200, #316, .T. ) ;
#106 = APPLICATION_CONTEXT ( 'automotive_design' ) ;
#107 = ORIENTED_EDGE ( 'NONE', *, *, #35, .T. ) ;
#108 = CARTESIAN_POINT ( 'NONE',  ( 6.123233995736762930E-15, 75.00000000000000000, 0.000000000000000000 ) ) ;
#109 = ORIENTED_EDGE ( 'NONE', *, *, #133, .T. ) ;
#110 = CARTESIAN_POINT ( 'NONE',  ( 5.000000000000000888, 75.00000000000000000, 6.123233995736757408E-16 ) ) ;
#111 = EDGE_LOOP ( 'NONE', ( #107, #64, #177, #72 ) ) ;
#112 =( NAMED_UNIT ( * ) PLANE_ANGLE_UNIT ( ) SI_UNIT ( $, .RADIAN. ) );
#113 =( NAMED_UNIT ( * ) PLANE_ANGLE_UNIT ( ) SI_UNIT ( $, .RADIAN. ) );
#114 = CIRCLE ( 'NONE', #165, 5.000000000000000888 ) ;
#115 = SURFACE_SIDE_STYLE ('',( #189 ) ) ;
#116 = DIRECTION ( 'NONE',  ( 0.000000000000000000, 0.000000000000000000, 1.000000000000000000 ) ) ;
#117 = ADVANCED_FACE ( 'NONE', ( #124 ), #176, .F. ) ;
#118 =( NAMED_UNIT ( * ) SI_UNIT ( $, .STERADIAN. ) SOLID_ANGLE_UNIT ( ) );
#119 = MECHANICAL_DESIGN_GEOMETRIC_PRESENTATION_REPRESENTATION (  '', ( #141 ), #80 ) ;
#120 = FILL_AREA_STYLE_COLOUR ( '', #230 ) ;
#121 = DIRECTION ( 'NONE',  ( 0.000000000000000000, 0.000000000000000000, -1.000000000000000000 ) ) ;
#122 = APPLICATION_CONTEXT ( 'automotive_design' ) ;
#123 = COLOUR_RGB ( '',1.000000000000000000, 0.000000000000000000, 0.000000000000000000 ) ;
#124 = FACE_OUTER_BOUND ( 'NONE', #256, .T. ) ;
#125 = CARTESIAN_POINT ( 'NONE',  ( -4.999999999999976019, 25.00000000000000000, 0.000000000000000000 ) ) ;
#126 = DIRECTION ( 'NONE',  ( -0.000000000000000000, -1.000000000000000000, -0.000000000000000000 ) ) ;
#127 = UNCERTAINTY_MEASURE_WITH_UNIT (LENGTH_MEASURE( 1.000000000000000082E-05 ), #238, 'distance_accuracy_value', 'NONE');
#128 = EDGE_CURVE ( 'NONE', #166, #328, #6, .T. ) ;
#129 =( NAMED_UNIT ( * ) SI_UNIT ( $, .STERADIAN. ) SOLID_ANGLE_UNIT ( ) );
#130 = DIRECTION ( 'NONE',  ( 0.000000000000000000, 0.000000000000000000, -1.000000000000000000 ) ) ;
#131 = ORIENTED_EDGE ( 'NONE', *, *, #4, .T. ) ;
#132 = DIRECTION ( 'NONE',  ( 0.000000000000000000, -1.000000000000000000, -0.000000000000000000 ) ) ;
#133 = EDGE_CURVE ( 'NONE', #261, #21, #12, .T. ) ;
#134 = CIRCLE ( 'NONE', #174, 1.000000000000000444 ) ;
#135 = ORIENTED_EDGE ( 'NONE', *, *, #224, .T. ) ;
#136 = FACE_OUTER_BOUND ( 'NONE', #263, .T. ) ;
#137 = FILL_AREA_STYLE_COLOUR ( '', #30 ) ;
#138 = CARTESIAN_POINT ( 'NONE',  ( 6.123233995736766282E-16, 25.00000000000000000, 5.000000000000000000 ) ) ;
#139 = CARTESIAN_POINT ( 'NONE',  ( 0.000000000000000000, 1.000000000000000000, 0.000000000000000000 ) ) ;
#140 = CARTESIAN_POINT ( 'NONE',  ( 0.000000000000000000, 1.000000000000000000, 0.000000000000000000 ) ) ;
#141 = STYLED_ITEM ( 'NONE', ( #17 ), #94 ) ;
#142 = DIRECTION ( 'NONE',  ( -1.203966067220177465E-16, 1.000000000000000000, -0.000000000000000000 ) ) ;
#143 = CIRCLE ( 'NONE', #39, 1.000000000000000444 ) ;
#144 = PRODUCT_DEFINITION ( 'UNKNOWN', '', #363, #327 ) ;
#145 = CARTESIAN_POINT ( 'NONE',  ( 0.000000000000000000, 1.000000000000000000, -4.000000000000000000 ) ) ;
#146 = ADVANCED_BREP_SHAPE_REPRESENTATION ( '59672', ( #99, #342, #1 ), #315 ) ;
#147 = ORIENTED_EDGE ( 'NONE', *, *, #57, .F. ) ;
#148 =( LENGTH_UNIT ( ) NAMED_UNIT ( * ) SI_UNIT ( .MILLI., .METRE. ) );
#149 =( NAMED_UNIT ( * ) PLANE_ANGLE_UNIT ( ) SI_UNIT ( $, .RADIAN. ) );
#150 = CLOSED_SHELL ( 'NONE', ( #234, #94, #339, #182, #87, #217 ) ) ;
#151 = AXIS2_PLACEMENT_3D ( 'NONE', #98, #102, #130 ) ;
#152 = PRESENTATION_LAYER_ASSIGNMENT (  '', '', ( #294 ) ) ;
#153 = DIRECTION ( 'NONE',  ( 0.000000000000000000, 0.000000000000000000, -1.000000000000000000 ) ) ;
#154 = EDGE_CURVE ( 'NONE', #21, #261, #100, .T. ) ;
#155 = ORIENTED_EDGE ( 'NONE', *, *, #291, .T. ) ;
#156 = UNCERTAINTY_MEASURE_WITH_UNIT (LENGTH_MEASURE( 1.000000000000000082E-05 ), #76, 'distance_accuracy_value', 'NONE');
#157 = DIRECTION ( 'NONE',  ( -1.203966067220177465E-16, 1.000000000000000000, -0.000000000000000000 ) ) ;
#158 = PRESENTATION_LAYER_ASSIGNMENT (  '', '', ( #268 ) ) ;
#159 = EDGE_LOOP ( 'NONE', ( #131, #269, #206, #162 ) ) ;
#160 = CYLINDRICAL_SURFACE ( 'NONE', #14, 5.000000000000000888 ) ;
#161 = ORIENTED_EDGE ( 'NONE', *, *, #312, .F. ) ;
#162 = ORIENTED_EDGE ( 'NONE', *, *, #105, .F. ) ;
#163 = DIRECTION ( 'NONE',  ( -1.203966067220177465E-16, 1.000000000000000000, 0.000000000000000000 ) ) ;
#164 = ADVANCED_FACE ( 'NONE', ( #335 ), #45, .T. ) ;
#165 = AXIS2_PLACEMENT_3D ( 'NONE', #195, #281, #171 ) ;
#166 = VERTEX_POINT ( 'NONE', #138 ) ;
#167 = FILL_AREA_STYLE_COLOUR ( '', #36 ) ;
#168 = DIRECTION ( 'NONE',  ( 0.000000000000000000, 0.000000000000000000, -1.000000000000000000 ) ) ;
#169 = FILL_AREA_STYLE_COLOUR ( '', #348 ) ;
#170 = CARTESIAN_POINT ( 'NONE',  ( 6.123233995736762930E-15, 75.00000000000000000, 0.000000000000000000 ) ) ;
#171 = DIRECTION ( 'NONE',  ( 0.000000000000000000, 0.000000000000000000, -1.000000000000000000 ) ) ;
#172 = FILL_AREA_STYLE_COLOUR ( '', #55 ) ;
#173 = CARTESIAN_POINT ( 'NONE',  ( 5.000000000000000000, 75.00000000000000000, 0.000000000000000000 ) ) ;
#174 = AXIS2_PLACEMENT_3D ( 'NONE', #191, #95, #341 ) ;
#175 = TOROIDAL_SURFACE ( 'NONE', #193, 4.000000000000000000, 1.000000000000000444 ) ;
#176 = PLANE ( 'NONE',  #283 ) ;
#177 = ORIENTED_EDGE ( 'NONE', *, *, #154, .F. ) ;
#178 = ORIENTED_EDGE ( 'NONE', *, *, #154, .T. ) ;
#179 = SURFACE_SIDE_STYLE ('',( #101 ) ) ;
#180 = MECHANICAL_DESIGN_GEOMETRIC_PRESENTATION_REPRESENTATION (  '', ( #286 ), #208 ) ;
#181 = PLANE ( 'NONE',  #343 ) ;
#182 = ADVANCED_FACE ( 'NONE', ( #301 ), #96, .T. ) ;
#183 = DIRECTION ( 'NONE',  ( 0.000000000000000000, 0.000000000000000000, -1.000000000000000000 ) ) ;
#184 =( NAMED_UNIT ( * ) PLANE_ANGLE_UNIT ( ) SI_UNIT ( $, .RADIAN. ) );
#185 = LINE ( 'NONE', #86, #258 ) ;
#186 = VERTEX_POINT ( 'NONE', #235 ) ;
#187 =( GEOMETRIC_REPRESENTATION_CONTEXT ( 3 ) GLOBAL_UNCERTAINTY_ASSIGNED_CONTEXT ( ( #352 ) ) GLOBAL_UNIT_ASSIGNED_CONTEXT ( ( #354, #350, #97 ) ) REPRESENTATION_CONTEXT ( 'NONE', 'WORKASPACE' ) );
#188 =( NAMED_UNIT ( * ) SI_UNIT ( $, .STERADIAN. ) SOLID_ANGLE_UNIT ( ) );
#189 = SURFACE_STYLE_FILL_AREA ( #44 ) ;
#190 = SURFACE_STYLE_FILL_AREA ( #215 ) ;
#191 = CARTESIAN_POINT ( 'NONE',  ( 4.898587196589412829E-16, 1.000000000000000000, 4.000000000000000000 ) ) ;
#192 = CARTESIAN_POINT ( 'NONE',  ( 6.123233995736762930E-15, 75.00000000000000000, 0.000000000000000000 ) ) ;
#193 = AXIS2_PLACEMENT_3D ( 'NONE', #140, #81, #168 ) ;
#194 = CARTESIAN_POINT ( 'NONE',  ( 1.214306433183764966E-14, 25.00000000000000000, 0.000000000000000000 ) ) ;
#195 = CARTESIAN_POINT ( 'NONE',  ( 0.000000000000000000, 1.000000000000000000, 0.000000000000000000 ) ) ;
#196 =( NAMED_UNIT ( * ) SI_UNIT ( $, .STERADIAN. ) SOLID_ANGLE_UNIT ( ) );
#197 = FACE_OUTER_BOUND ( 'NONE', #359, .T. ) ;
#198 = CIRCLE ( 'NONE', #247, 5.000000000000000888 ) ;
#199 = AXIS2_PLACEMENT_3D ( 'NONE', #108, #333, #211 ) ;
#200 = VERTEX_POINT ( 'NONE', #241 ) ;
#201 = UNCERTAINTY_MEASURE_WITH_UNIT (LENGTH_MEASURE( 1.000000000000000082E-05 ), #218, 'distance_accuracy_value', 'NONE');
#202 = CARTESIAN_POINT ( 'NONE',  ( 1.214306433183764966E-14, 25.00000000000000000, 0.000000000000000000 ) ) ;
#203 = ORIENTED_EDGE ( 'NONE', *, *, #4, .F. ) ;
#204 = CARTESIAN_POINT ( 'NONE',  ( 0.000000000000000000, 0.000000000000000000, 0.000000000000000000 ) ) ;
#205 = PRESENTATION_STYLE_ASSIGNMENT (( #320 ) ) ;
#206 = ORIENTED_EDGE ( 'NONE', *, *, #224, .F. ) ;
#207 = DIRECTION ( 'NONE',  ( -1.000000000000000000, 0.000000000000000000, 0.000000000000000000 ) ) ;
#208 =( GEOMETRIC_REPRESENTATION_CONTEXT ( 3 ) GLOBAL_UNCERTAINTY_ASSIGNED_CONTEXT ( ( #127 ) ) GLOBAL_UNIT_ASSIGNED_CONTEXT ( ( #238, #216, #188 ) ) REPRESENTATION_CONTEXT ( 'NONE', 'WORKASPACE' ) );
#209 = ADVANCED_FACE ( 'NONE', ( #48 ), #181, .F. ) ;
#210 = ORIENTED_EDGE ( 'NONE', *, *, #291, .F. ) ;
#211 = DIRECTION ( 'NONE',  ( -1.000000000000000000, 0.000000000000000000, 0.000000000000000000 ) ) ;
#212 =( LENGTH_UNIT ( ) NAMED_UNIT ( * ) SI_UNIT ( .MILLI., .METRE. ) );
#213 = ORIENTED_EDGE ( 'NONE', *, *, #13, .F. ) ;
#214 = PRESENTATION_STYLE_ASSIGNMENT (( #22 ) ) ;
#215 = FILL_AREA_STYLE ('',( #137 ) ) ;
#216 =( NAMED_UNIT ( * ) PLANE_ANGLE_UNIT ( ) SI_UNIT ( $, .RADIAN. ) );
#217 = ADVANCED_FACE ( 'NONE', ( #136 ), #49, .T. ) ;
#218 =( LENGTH_UNIT ( ) NAMED_UNIT ( * ) SI_UNIT ( .MILLI., .METRE. ) );
#219 = AXIS2_PLACEMENT_3D ( 'NONE', #254, #126, #355 ) ;
#220 = AXIS2_PLACEMENT_3D ( 'NONE', #202, #157, #259 ) ;
#221 = PRESENTATION_STYLE_ASSIGNMENT (( #361 ) ) ;
#222 = PLANE ( 'NONE',  #90 ) ;
#223 = PRESENTATION_STYLE_ASSIGNMENT (( #74 ) ) ;
#224 = EDGE_CURVE ( 'NONE', #200, #323, #46, .T. ) ;
#225 = PRESENTATION_LAYER_ASSIGNMENT (  '', '', ( #288 ) ) ;
#226 = APPLICATION_PROTOCOL_DEFINITION ( 'draft international standard', 'automotive_design', 1998, #106 ) ;
#227 = PRODUCT_CONTEXT ( 'NONE', #106, 'mechanical' ) ;
#228 = FACE_OUTER_BOUND ( 'NONE', #111, .T. ) ;
#229 = DIRECTION ( 'NONE',  ( 1.000000000000000000, 1.203966067220177465E-16, 0.000000000000000000 ) ) ;
#230 = COLOUR_RGB ( '',1.000000000000000000, 0.000000000000000000, 0.000000000000000000 ) ;
#231 = CIRCLE ( 'NONE', #220, 4.999999999999987566 ) ;
#232 = MECHANICAL_DESIGN_GEOMETRIC_PRESENTATION_REPRESENTATION (  '', ( #288 ), #344 ) ;
#233 = ORIENTED_EDGE ( 'NONE', *, *, #312, .T. ) ;
#234 = ADVANCED_FACE ( 'NONE', ( #329 ), #160, .T. ) ;
#235 = CARTESIAN_POINT ( 'NONE',  ( 6.123233995736766282E-16, 1.000000000000000000, 5.000000000000000888 ) ) ;
#236 = DIRECTION ( 'NONE',  ( -1.000000000000000000, 0.000000000000000000, 0.000000000000000000 ) ) ;
#237 =( GEOMETRIC_REPRESENTATION_CONTEXT ( 3 ) GLOBAL_UNCERTAINTY_ASSIGNED_CONTEXT ( ( #262 ) ) GLOBAL_UNIT_ASSIGNED_CONTEXT ( ( #10, #59, #129 ) ) REPRESENTATION_CONTEXT ( 'NONE', 'WORKASPACE' ) );
#238 =( LENGTH_UNIT ( ) NAMED_UNIT ( * ) SI_UNIT ( .MILLI., .METRE. ) );
#239 = ORIENTED_EDGE ( 'NONE', *, *, #133, .F. ) ;
#240 = DIRECTION ( 'NONE',  ( -1.000000000000000000, 0.000000000000000000, 0.000000000000000000 ) ) ;
#241 = CARTESIAN_POINT ( 'NONE',  ( -4.999999999999987566, 75.00000000000000000, 0.000000000000000000 ) ) ;
#242 = SURFACE_STYLE_USAGE ( .BOTH. , #271 ) ;
#243 = PRESENTATION_LAYER_ASSIGNMENT (  '', '', ( #282 ) ) ;
#244 = DIRECTION ( 'NONE',  ( 0.000000000000000000, 0.000000000000000000, 1.000000000000000000 ) ) ;
#245 = CARTESIAN_POINT ( 'NONE',  ( 0.000000000000000000, 1.000000000000000000, 0.000000000000000000 ) ) ;
#246 = PRODUCT ( '59672', '59672', '', ( #227 ) ) ;
#247 = AXIS2_PLACEMENT_3D ( 'NONE', #245, #346, #309 ) ;
#248 = MECHANICAL_DESIGN_GEOMETRIC_PRESENTATION_REPRESENTATION (  '', ( #268 ), #237 ) ;
#249 = DIRECTION ( 'NONE',  ( -1.000000000000000000, 0.000000000000000000, 0.000000000000000000 ) ) ;
#250 = LINE ( 'NONE', #88, #360 ) ;
#251 = STYLED_ITEM ( 'NONE', ( #205 ), #234 ) ;
#252 = CIRCLE ( 'NONE', #276, 4.999999999999993783 ) ;
#253 = DIRECTION ( 'NONE',  ( 0.000000000000000000, 0.000000000000000000, -1.000000000000000000 ) ) ;
#254 = CARTESIAN_POINT ( 'NONE',  ( 0.000000000000000000, 25.00000000000000000, 0.000000000000000000 ) ) ;
#255 = SHAPE_DEFINITION_REPRESENTATION ( #92, #146 ) ;
#256 = EDGE_LOOP ( 'NONE', ( #135, #103 ) ) ;
#257 = PRESENTATION_LAYER_ASSIGNMENT (  '', '', ( #141 ) ) ;
#258 = VECTOR ( 'NONE', #332, 1000.000000000000000 ) ;
#259 = DIRECTION ( 'NONE',  ( -1.000000000000000000, 0.000000000000000000, 0.000000000000000000 ) ) ;
#260 =( GEOMETRIC_REPRESENTATION_CONTEXT ( 3 ) GLOBAL_UNCERTAINTY_ASSIGNED_CONTEXT ( ( #201 ) ) GLOBAL_UNIT_ASSIGNED_CONTEXT ( ( #218, #112, #367 ) ) REPRESENTATION_CONTEXT ( 'NONE', 'WORKASPACE' ) );
#261 = VERTEX_POINT ( 'NONE', #63 ) ;
#262 = UNCERTAINTY_MEASURE_WITH_UNIT (LENGTH_MEASURE( 1.000000000000000082E-05 ), #10, 'distance_accuracy_value', 'NONE');
#263 = EDGE_LOOP ( 'NONE', ( #296, #325 ) ) ;
#264 = ORIENTED_EDGE ( 'NONE', *, *, #353, .T. ) ;
#265 = FILL_AREA_STYLE ('',( #167 ) ) ;
#266 = FILL_AREA_STYLE_COLOUR ( '', #314 ) ;
#267 = CARTESIAN_POINT ( 'NONE',  ( 0.000000000000000000, 0.000000000000000000, 0.000000000000000000 ) ) ;
#268 = STYLED_ITEM ( 'NONE', ( #369 ), #99 ) ;
#269 = ORIENTED_EDGE ( 'NONE', *, *, #317, .T. ) ;
#270 = SURFACE_STYLE_FILL_AREA ( #265 ) ;
#271 = SURFACE_SIDE_STYLE ('',( #300 ) ) ;
#272 = DIRECTION ( 'NONE',  ( -0.000000000000000000, -1.000000000000000000, -0.000000000000000000 ) ) ;
#273 =( NAMED_UNIT ( * ) PLANE_ANGLE_UNIT ( ) SI_UNIT ( $, .RADIAN. ) );
#274 = DIRECTION ( 'NONE',  ( 0.000000000000000000, 1.000000000000000000, 0.000000000000000000 ) ) ;
#275 = PRESENTATION_LAYER_ASSIGNMENT (  '', '', ( #251 ) ) ;
#276 = AXIS2_PLACEMENT_3D ( 'NONE', #192, #306, #236 ) ;
#277 = CARTESIAN_POINT ( 'NONE',  ( 0.000000000000000000, 0.000000000000000000, 0.000000000000000000 ) ) ;
#278 = CARTESIAN_POINT ( 'NONE',  ( 0.000000000000000000, 1.000000000000000000, -5.000000000000000888 ) ) ;
#279 = SURFACE_SIDE_STYLE ('',( #311 ) ) ;
#280 = VERTEX_POINT ( 'NONE', #125 ) ;
#281 = DIRECTION ( 'NONE',  ( -0.000000000000000000, -1.000000000000000000, -0.000000000000000000 ) ) ;
#282 = STYLED_ITEM ( 'NONE', ( #34 ), #87 ) ;
#283 = AXIS2_PLACEMENT_3D ( 'NONE', #173, #318, #229 ) ;
#284 = FILL_AREA_STYLE ('',( #172 ) ) ;
#285 = CIRCLE ( 'NONE', #321, 4.999999999999987566 ) ;
#286 = STYLED_ITEM ( 'NONE', ( #214 ), #217 ) ;
#287 = DIRECTION ( 'NONE',  ( 0.000000000000000000, 0.000000000000000000, -1.000000000000000000 ) ) ;
#288 = STYLED_ITEM ( 'NONE', ( #223 ), #342 ) ;
#289 = EDGE_CURVE ( 'NONE', #328, #166, #33, .T. ) ;
#290 = ORIENTED_EDGE ( 'NONE', *, *, #13, .T. ) ;
#291 = EDGE_CURVE ( 'NONE', #69, #280, #231, .T. ) ;
#292 = VERTEX_POINT ( 'NONE', #278 ) ;
#293 = AXIS2_PLACEMENT_3D ( 'NONE', #28, #142, #207 ) ;
#294 = STYLED_ITEM ( 'NONE', ( #52 ), #339 ) ;
#295 = SURFACE_SIDE_STYLE ('',( #270 ) ) ;
#296 = ORIENTED_EDGE ( 'NONE', *, *, #289, .F. ) ;
#297 = SURFACE_SIDE_STYLE ('',( #24 ) ) ;
#298 = FACE_OUTER_BOUND ( 'NONE', #302, .T. ) ;
#299 = STYLED_ITEM ( 'NONE', ( #221 ), #182 ) ;
#300 = SURFACE_STYLE_FILL_AREA ( #362 ) ;
#301 = FACE_OUTER_BOUND ( 'NONE', #366, .T. ) ;
#302 = EDGE_LOOP ( 'NONE', ( #178, #109 ) ) ;
#303 = FILL_AREA_STYLE_COLOUR ( '', #123 ) ;
#304 = DIRECTION ( 'NONE',  ( -0.000000000000000000, -1.000000000000000000, -0.000000000000000000 ) ) ;
#305 = ORIENTED_EDGE ( 'NONE', *, *, #105, .T. ) ;
#306 = DIRECTION ( 'NONE',  ( -1.203966067220177465E-16, 1.000000000000000000, -0.000000000000000000 ) ) ;
#307 = MECHANICAL_DESIGN_GEOMETRIC_PRESENTATION_REPRESENTATION (  '', ( #251 ), #187 ) ;
#308 = CYLINDRICAL_SURFACE ( 'NONE', #79, 4.999999999999990230 ) ;
#309 = DIRECTION ( 'NONE',  ( 0.000000000000000000, 0.000000000000000000, -1.000000000000000000 ) ) ;
#310 = CARTESIAN_POINT ( 'NONE',  ( 0.000000000000000000, 0.000000000000000000, 0.000000000000000000 ) ) ;
#311 = SURFACE_STYLE_FILL_AREA ( #32 ) ;
#312 = EDGE_CURVE ( 'NONE', #166, #186, #78, .T. ) ;
#313 = CLOSED_SHELL ( 'NONE', ( #164, #209, #83, #117 ) ) ;
#314 = COLOUR_RGB ( '',0.7921568627450980005, 0.8196078431372548767, 0.9333333333333333481 ) ;
#315 =( GEOMETRIC_REPRESENTATION_CONTEXT ( 3 ) GLOBAL_UNCERTAINTY_ASSIGNED_CONTEXT ( ( #16 ) ) GLOBAL_UNIT_ASSIGNED_CONTEXT ( ( #53, #3, #196 ) ) REPRESENTATION_CONTEXT ( 'NONE', 'WORKASPACE' ) );
#316 = LINE ( 'NONE', #60, #67 ) ;
#317 = EDGE_CURVE ( 'NONE', #69, #323, #185, .T. ) ;
#318 = DIRECTION ( 'NONE',  ( 1.203966067220177465E-16, -1.000000000000000000, 0.000000000000000000 ) ) ;
#319 = DIRECTION ( 'NONE',  ( -0.000000000000000000, -1.000000000000000000, -0.000000000000000000 ) ) ;
#320 = SURFACE_STYLE_USAGE ( .BOTH. , #349 ) ;
#321 = AXIS2_PLACEMENT_3D ( 'NONE', #194, #84, #93 ) ;
#322 = PRESENTATION_LAYER_ASSIGNMENT (  '', '', ( #299 ) ) ;
#323 = VERTEX_POINT ( 'NONE', #110 ) ;
#324 = SURFACE_STYLE_USAGE ( .BOTH. , #179 ) ;
#325 = ORIENTED_EDGE ( 'NONE', *, *, #128, .F. ) ;
#326 = CARTESIAN_POINT ( 'NONE',  ( 0.000000000000000000, 0.000000000000000000, 0.000000000000000000 ) ) ;
#327 = PRODUCT_DEFINITION_CONTEXT ( 'detailed design', #122, 'design' ) ;
#328 = VERTEX_POINT ( 'NONE', #338 ) ;
#329 = FACE_OUTER_BOUND ( 'NONE', #15, .T. ) ;
#330 = MECHANICAL_DESIGN_GEOMETRIC_PRESENTATION_REPRESENTATION (  '', ( #299 ), #29 ) ;
#331 = DIRECTION ( 'NONE',  ( 0.000000000000000000, 0.000000000000000000, -1.000000000000000000 ) ) ;
#332 = DIRECTION ( 'NONE',  ( -1.203966067220177465E-16, 1.000000000000000000, -0.000000000000000000 ) ) ;
#333 = DIRECTION ( 'NONE',  ( -1.203966067220177465E-16, 1.000000000000000000, -0.000000000000000000 ) ) ;
#334 = FILL_AREA_STYLE ('',( #303 ) ) ;
#335 = FACE_OUTER_BOUND ( 'NONE', #159, .T. ) ;
#336 =( GEOMETRIC_REPRESENTATION_CONTEXT ( 3 ) GLOBAL_UNCERTAINTY_ASSIGNED_CONTEXT ( ( #365 ) ) GLOBAL_UNIT_ASSIGNED_CONTEXT ( ( #148, #149, #118 ) ) REPRESENTATION_CONTEXT ( 'NONE', 'WORKASPACE' ) );
#337 = AXIS2_PLACEMENT_3D ( 'NONE', #204, #319, #287 ) ;
#338 = CARTESIAN_POINT ( 'NONE',  ( 0.000000000000000000, 25.00000000000000000, -5.000000000000000000 ) ) ;
#339 = ADVANCED_FACE ( 'NONE', ( #298 ), #222, .T. ) ;
#340 = SURFACE_STYLE_USAGE ( .BOTH. , #297 ) ;
#341 = DIRECTION ( 'NONE',  ( -1.224646799147353454E-16, 0.000000000000000000, -1.000000000000000000 ) ) ;
#342 = MANIFOLD_SOLID_BREP ( 'Revolve - Tool Body (Straight Shanked)', #313 ) ;
#343 = AXIS2_PLACEMENT_3D ( 'NONE', #25, #163, #368 ) ;
#344 =( GEOMETRIC_REPRESENTATION_CONTEXT ( 3 ) GLOBAL_UNCERTAINTY_ASSIGNED_CONTEXT ( ( #62 ) ) GLOBAL_UNIT_ASSIGNED_CONTEXT ( ( #212, #273, #26 ) ) REPRESENTATION_CONTEXT ( 'NONE', 'WORKASPACE' ) );
#345 = CYLINDRICAL_SURFACE ( 'NONE', #347, 5.000000000000000888 ) ;
#346 = DIRECTION ( 'NONE',  ( -0.000000000000000000, -1.000000000000000000, -0.000000000000000000 ) ) ;
#347 = AXIS2_PLACEMENT_3D ( 'NONE', #277, #7, #121 ) ;
#348 = COLOUR_RGB ( '',1.000000000000000000, 0.000000000000000000, 0.000000000000000000 ) ;
#349 = SURFACE_SIDE_STYLE ('',( #71 ) ) ;
#350 =( NAMED_UNIT ( * ) PLANE_ANGLE_UNIT ( ) SI_UNIT ( $, .RADIAN. ) );
#351 = DIRECTION ( 'NONE',  ( -1.203966067220177465E-16, 1.000000000000000000, -0.000000000000000000 ) ) ;
#352 = UNCERTAINTY_MEASURE_WITH_UNIT (LENGTH_MEASURE( 1.000000000000000082E-05 ), #354, 'distance_accuracy_value', 'NONE');
#353 = EDGE_CURVE ( 'NONE', #292, #21, #143, .T. ) ;
#354 =( LENGTH_UNIT ( ) NAMED_UNIT ( * ) SI_UNIT ( .MILLI., .METRE. ) );
#355 = DIRECTION ( 'NONE',  ( 0.000000000000000000, 0.000000000000000000, -1.000000000000000000 ) ) ;
#356 = ORIENTED_EDGE ( 'NONE', *, *, #289, .T. ) ;
#357 = DIRECTION ( 'NONE',  ( -0.000000000000000000, -1.000000000000000000, -0.000000000000000000 ) ) ;
#358 = EDGE_CURVE ( 'NONE', #323, #200, #252, .T. ) ;
#359 = EDGE_LOOP ( 'NONE', ( #161, #61, #290, #147 ) ) ;
#360 = VECTOR ( 'NONE', #304, 1000.000000000000000 ) ;
#361 = SURFACE_STYLE_USAGE ( .BOTH. , #115 ) ;
#362 = FILL_AREA_STYLE ('',( #266 ) ) ;
#363 = PRODUCT_DEFINITION_FORMATION_WITH_SPECIFIED_SOURCE ( 'ANY', '', #246, .NOT_KNOWN. ) ;
#364 = CARTESIAN_POINT ( 'NONE',  ( 6.123233995736767268E-16, 0.000000000000000000, 5.000000000000000888 ) ) ;
#365 = UNCERTAINTY_MEASURE_WITH_UNIT (LENGTH_MEASURE( 1.000000000000000082E-05 ), #148, 'distance_accuracy_value', 'NONE');
#366 = EDGE_LOOP ( 'NONE', ( #75, #38, #264, #239 ) ) ;
#367 =( NAMED_UNIT ( * ) SI_UNIT ( $, .STERADIAN. ) SOLID_ANGLE_UNIT ( ) );
#368 = DIRECTION ( 'NONE',  ( -1.000000000000000000, -1.203966067220177465E-16, 0.000000000000000000 ) ) ;
#369 = PRESENTATION_STYLE_ASSIGNMENT (( #242 ) ) ;
#370 = AXIS2_PLACEMENT_3D ( 'NONE', #326, #65, #253 ) ;
ENDSEC;
END-ISO-10303-21;
