ISO-10303-21;
HEADER;
FILE_DESCRIPTION (( 'STEP AP214' ),
    '1' );
FILE_NAME ('Micro_SBMM-060-230X.STEP',
    '2021-09-02T17:12:21',
    ( '' ),
    ( '' ),
    'SwSTEP 2.0',
    'SolidWorks 2020',
    '' );
FILE_SCHEMA (( 'AUTOMOTIVE_DESIGN' ));
ENDSEC;

DATA;
#1 = DIRECTION ( 'NONE',  ( -1.000000000000000000, 0.0000000000000000000, 0.0000000000000000000 ) ) ;
#2 = ORIENTED_EDGE ( 'NONE', *, *, #231, .T. ) ;
#3 = MANIFOLD_SOLID_BREP ( 'Cut-Revolve3', #344 ) ;
#4 = DIRECTION ( 'NONE',  ( 0.0000000000000000000, 0.0000000000000000000, -1.000000000000000000 ) ) ;
#5 = CARTESIAN_POINT ( 'NONE',  ( 0.0000000000000000000, 0.0000000000000000000, 0.2061439962741667686 ) ) ;
#6 = EDGE_CURVE ( 'NONE', #62, #331, #51, .T. ) ;
#7 = ORIENTED_EDGE ( 'NONE', *, *, #272, .T. ) ;
#8 = ORIENTED_EDGE ( 'NONE', *, *, #6, .F. ) ;
#9 = EDGE_LOOP ( 'NONE', ( #277, #117, #113, #133 ) ) ;
#10 = AXIS2_PLACEMENT_3D ( 'NONE', #270, #328, #298 ) ;
#11 = CARTESIAN_POINT ( 'NONE',  ( 0.0000000000000000000, 0.0000000000000000000, 2.937755999999999368 ) ) ;
#12 = CARTESIAN_POINT ( 'NONE',  ( 0.0000000000000000000, 0.0000000000000000000, 0.1181100000000000066 ) ) ;
#13 = DIRECTION ( 'NONE',  ( 1.000000000000000000, 0.0000000000000000000, 0.0000000000000000000 ) ) ;
#14 = VECTOR ( 'NONE', #236, 39.37007874015748143 ) ;
#15 = SURFACE_SIDE_STYLE ('',( #192 ) ) ;
#16 =( NAMED_UNIT ( * ) PLANE_ANGLE_UNIT ( ) SI_UNIT ( $, .RADIAN. ) );
#17 = LINE ( 'NONE', #66, #255 ) ;
#18 = SPHERICAL_SURFACE ( 'NONE', #67, 0.1181099999999999928 ) ;
#19 = FILL_AREA_STYLE_COLOUR ( '', #137 ) ;
#20 = DIRECTION ( 'NONE',  ( 1.000000000000000000, 0.0000000000000000000, 0.0000000000000000000 ) ) ;
#21 = LINE ( 'NONE', #129, #24 ) ;
#22 = DIRECTION ( 'NONE',  ( -0.09053553870087675814, 1.108740576791100357E-17, 0.9958932253169222593 ) ) ;
#23 = EDGE_CURVE ( 'NONE', #166, #216, #284, .T. ) ;
#24 = VECTOR ( 'NONE', #343, 39.37007874015748143 ) ;
#25 = CONICAL_SURFACE ( 'NONE', #202, 0.1299209999999998422, 0.09065967900408460067 ) ;
#26 = CARTESIAN_POINT ( 'NONE',  ( 0.0000000000000000000, 0.0000000000000000000, 1.181102000000000096 ) ) ;
#27 = EDGE_CURVE ( 'NONE', #216, #135, #286, .T. ) ;
#28 = CARTESIAN_POINT ( 'NONE',  ( 0.0000000000000000000, 0.0000000000000000000, 1.181102000000000096 ) ) ;
#29 = ORIENTED_EDGE ( 'NONE', *, *, #80, .T. ) ;
#30 = EDGE_CURVE ( 'NONE', #120, #135, #17, .T. ) ;
#31 = DIRECTION ( 'NONE',  ( -0.0000000000000000000, -0.0000000000000000000, -1.000000000000000000 ) ) ;
#32 = VERTEX_POINT ( 'NONE', #141 ) ;
#33 = AXIS2_PLACEMENT_3D ( 'NONE', #288, #252, #250 ) ;
#34 = AXIS2_PLACEMENT_3D ( 'NONE', #156, #242, #187 ) ;
#35 = ORIENTED_EDGE ( 'NONE', *, *, #27, .F. ) ;
#36 = EDGE_LOOP ( 'NONE', ( #7, #2, #8, #254, #305 ) ) ;
#37 =( GEOMETRIC_REPRESENTATION_CONTEXT ( 3 ) GLOBAL_UNCERTAINTY_ASSIGNED_CONTEXT ( ( #258 ) ) GLOBAL_UNIT_ASSIGNED_CONTEXT ( ( #122, #280, #169 ) ) REPRESENTATION_CONTEXT ( 'NONE', 'WORKASPACE' ) );
#38 = ORIENTED_EDGE ( 'NONE', *, *, #93, .F. ) ;
#39 = DIRECTION ( 'NONE',  ( 1.000000000000000000, 1.224646799147353207E-16, -0.0000000000000000000 ) ) ;
#40 = ADVANCED_FACE ( 'NONE', ( #257 ), #314, .T. ) ;
#41 = LENGTH_MEASURE_WITH_UNIT ( LENGTH_MEASURE( 0.02539999999999999897 ), #306 );
#42 = CIRCLE ( 'NONE', #243, 0.1031099999999991745 ) ;
#43 = CARTESIAN_POINT ( 'NONE',  ( 0.1181100000000000344, 1.446430334472939084E-17, 2.952755999999999936 ) ) ;
#44 = PRESENTATION_LAYER_ASSIGNMENT (  '', '', ( #195 ) ) ;
#45 =( NAMED_UNIT ( * ) PLANE_ANGLE_UNIT ( ) SI_UNIT ( $, .RADIAN. ) );
#46 = CYLINDRICAL_SURFACE ( 'NONE', #92, 0.1181100000000000344 ) ;
#47 = DIMENSIONAL_EXPONENTS ( 1.000000000000000000, 0.0000000000000000000, 0.0000000000000000000, 0.0000000000000000000, 0.0000000000000000000, 0.0000000000000000000, 0.0000000000000000000 ) ;
#48 = APPLICATION_PROTOCOL_DEFINITION ( 'draft international standard', 'automotive_design', 1998, #311 ) ;
#49 = DIRECTION ( 'NONE',  ( 0.0000000000000000000, 0.0000000000000000000, 1.000000000000000000 ) ) ;
#50 = DIRECTION ( 'NONE',  ( -1.000000000000000000, 0.0000000000000000000, 0.0000000000000000000 ) ) ;
#51 = CIRCLE ( 'NONE', #116, 0.07873999999999996280 ) ;
#52 = CARTESIAN_POINT ( 'NONE',  ( -0.1299209999999998422, 1.591073367920230651E-17, 1.744094299999997322 ) ) ;
#53 = DIRECTION ( 'NONE',  ( 1.000000000000000000, 0.0000000000000000000, 0.0000000000000000000 ) ) ;
#54 = EDGE_CURVE ( 'NONE', #94, #216, #152, .T. ) ;
#55 = CARTESIAN_POINT ( 'NONE',  ( 0.07873999999999996280, 9.642868896486255427E-18, 0.2061439962741667686 ) ) ;
#56 = VECTOR ( 'NONE', #316, 39.37007874015748143 ) ;
#57 = CIRCLE ( 'NONE', #256, 0.07873999999999996280 ) ;
#58 = FACE_OUTER_BOUND ( 'NONE', #59, .T. ) ;
#59 = EDGE_LOOP ( 'NONE', ( #241, #91, #101, #87, #97 ) ) ;
#60 = EDGE_CURVE ( 'NONE', #193, #245, #222, .T. ) ;
#61 = DIRECTION ( 'NONE',  ( -1.000000000000000000, 0.0000000000000000000, 0.0000000000000000000 ) ) ;
#62 = VERTEX_POINT ( 'NONE', #143 ) ;
#63 = ORIENTED_EDGE ( 'NONE', *, *, #80, .F. ) ;
#64 = ORIENTED_EDGE ( 'NONE', *, *, #265, .T. ) ;
#65 = ORIENTED_EDGE ( 'NONE', *, *, #172, .T. ) ;
#66 = CARTESIAN_POINT ( 'NONE',  ( 0.1299209999999998422, 0.0000000000000000000, 1.744094299999997322 ) ) ;
#67 = AXIS2_PLACEMENT_3D ( 'NONE', #124, #153, #261 ) ;
#68 = VECTOR ( 'NONE', #112, 39.37007874015748854 ) ;
#69 = FILL_AREA_STYLE_COLOUR ( '', #340 ) ;
#70 = SURFACE_STYLE_FILL_AREA ( #260 ) ;
#71 = DIRECTION ( 'NONE',  ( -1.000000000000000000, 0.0000000000000000000, 0.0000000000000000000 ) ) ;
#72 = PRODUCT_DEFINITION_CONTEXT ( 'detailed design', #311, 'design' ) ;
#73 = AXIS2_PLACEMENT_3D ( 'NONE', #210, #134, #296 ) ;
#74 = DIRECTION ( 'NONE',  ( -1.000000000000000000, 0.0000000000000000000, 0.0000000000000000000 ) ) ;
#75 =( LENGTH_UNIT ( ) NAMED_UNIT ( * ) SI_UNIT ( $, .METRE. ) );
#76 = DIMENSIONAL_EXPONENTS ( 1.000000000000000000, 0.0000000000000000000, 0.0000000000000000000, 0.0000000000000000000, 0.0000000000000000000, 0.0000000000000000000, 0.0000000000000000000 ) ;
#77 = LINE ( 'NONE', #155, #56 ) ;
#78 = LENGTH_MEASURE_WITH_UNIT ( LENGTH_MEASURE( 0.02539999999999999897 ), #75 );
#79 = CARTESIAN_POINT ( 'NONE',  ( -0.07873999999999996280, 0.0000000000000000000, 0.2061439962741667686 ) ) ;
#80 = EDGE_CURVE ( 'NONE', #216, #94, #184, .T. ) ;
#81 = LINE ( 'NONE', #111, #14 ) ;
#82 = ADVANCED_FACE ( 'NONE', ( #220 ), #275, .T. ) ;
#83 = CARTESIAN_POINT ( 'NONE',  ( 0.0000000000000000000, 0.0000000000000000000, 0.1181100000000000066 ) ) ;
#84 = EDGE_CURVE ( 'NONE', #331, #193, #190, .T. ) ;
#85 = CARTESIAN_POINT ( 'NONE',  ( 0.0000000000000000000, 0.0000000000000000000, 0.1181100000000000066 ) ) ;
#86 = CYLINDRICAL_SURFACE ( 'NONE', #100, 0.07873999999999992117 ) ;
#87 = ORIENTED_EDGE ( 'NONE', *, *, #265, .F. ) ;
#88 = CARTESIAN_POINT ( 'NONE',  ( -0.1031099999999991745, 0.0000000000000000000, 2.952755999999999936 ) ) ;
#89 = EDGE_LOOP ( 'NONE', ( #38, #274, #209, #336 ) ) ;
#90 = ORIENTED_EDGE ( 'NONE', *, *, #272, .F. ) ;
#91 = ORIENTED_EDGE ( 'NONE', *, *, #332, .T. ) ;
#92 = AXIS2_PLACEMENT_3D ( 'NONE', #321, #175, #50 ) ;
#93 = EDGE_CURVE ( 'NONE', #32, #301, #204, .T. ) ;
#94 = VERTEX_POINT ( 'NONE', #292 ) ;
#95 = ORIENTED_EDGE ( 'NONE', *, *, #161, .T. ) ;
#96 = UNCERTAINTY_MEASURE_WITH_UNIT (LENGTH_MEASURE( 1.000000000000000082E-05 ), #198, 'distance_accuracy_value', 'NONE');
#97 = ORIENTED_EDGE ( 'NONE', *, *, #84, .F. ) ;
#98 = EDGE_CURVE ( 'NONE', #62, #245, #211, .T. ) ;
#99 = AXIS2_PLACEMENT_3D ( 'NONE', #154, #294, #206 ) ;
#100 = AXIS2_PLACEMENT_3D ( 'NONE', #131, #208, #239 ) ;
#101 = ORIENTED_EDGE ( 'NONE', *, *, #213, .T. ) ;
#102 = SHAPE_DEFINITION_REPRESENTATION ( #253, #307 ) ;
#103 = ADVANCED_FACE ( 'NONE', ( #266 ), #341, .T. ) ;
#104 = AXIS2_PLACEMENT_3D ( 'NONE', #219, #285, #74 ) ;
#105 = CARTESIAN_POINT ( 'NONE',  ( 9.642868896486255427E-18, -0.07873999999999996280, 0.2061439962741667686 ) ) ;
#106 = AXIS2_PLACEMENT_3D ( 'NONE', #28, #300, #269 ) ;
#107 = CARTESIAN_POINT ( 'NONE',  ( 0.0000000000000000000, 0.0000000000000000000, 2.952755999999999936 ) ) ;
#108 = DIRECTION ( 'NONE',  ( 1.000000000000000000, 0.0000000000000000000, -0.0000000000000000000 ) ) ;
#109 = CARTESIAN_POINT ( 'NONE',  ( 0.0000000000000000000, 7.232151672364693882E-18, 1.707404996040164512E-17 ) ) ;
#110 = MECHANICAL_DESIGN_GEOMETRIC_PRESENTATION_REPRESENTATION (  '', ( #248 ), #37 ) ;
#111 = CARTESIAN_POINT ( 'NONE',  ( -0.1181100000000000344, 0.0000000000000000000, 2.952755999999999936 ) ) ;
#112 = DIRECTION ( 'NONE',  ( -0.7071067811865486830, 0.0000000000000000000, -0.7071067811865462405 ) ) ;
#113 = ORIENTED_EDGE ( 'NONE', *, *, #267, .T. ) ;
#114 = CARTESIAN_POINT ( 'NONE',  ( 0.0000000000000000000, 0.0000000000000000000, 2.952755999999999936 ) ) ;
#115 = EDGE_LOOP ( 'NONE', ( #191, #334, #163, #63 ) ) ;
#116 = AXIS2_PLACEMENT_3D ( 'NONE', #309, #197, #71 ) ;
#117 = ORIENTED_EDGE ( 'NONE', *, *, #27, .T. ) ;
#118 = ADVANCED_FACE ( 'NONE', ( #295 ), #180, .T. ) ;
#119 = ORIENTED_EDGE ( 'NONE', *, *, #172, .F. ) ;
#120 = VERTEX_POINT ( 'NONE', #319 ) ;
#121 = LENGTH_MEASURE_WITH_UNIT ( LENGTH_MEASURE( 0.02539999999999999897 ), #147 );
#122 =( CONVERSION_BASED_UNIT ( 'INCH', #41 ) LENGTH_UNIT ( ) NAMED_UNIT ( #47 ) );
#123 = EDGE_LOOP ( 'NONE', ( #170, #64, #167, #303 ) ) ;
#124 = CARTESIAN_POINT ( 'NONE',  ( 0.0000000000000000000, 0.0000000000000000000, 0.1181100000000000066 ) ) ;
#125 = FACE_OUTER_BOUND ( 'NONE', #89, .T. ) ;
#126 = VECTOR ( 'NONE', #225, 39.37007874015748854 ) ;
#127 = AXIS2_PLACEMENT_3D ( 'NONE', #318, #337, #291 ) ;
#128 = CARTESIAN_POINT ( 'NONE',  ( 0.0000000000000000000, 0.0000000000000000000, 1.614173000000000080 ) ) ;
#129 = CARTESIAN_POINT ( 'NONE',  ( 0.07873999999999992117, 9.642868896486249264E-18, 0.0000000000000000000 ) ) ;
#130 = DIRECTION ( 'NONE',  ( 0.0000000000000000000, 1.000000000000000000, 0.0000000000000000000 ) ) ;
#131 = CARTESIAN_POINT ( 'NONE',  ( 0.0000000000000000000, 0.0000000000000000000, 0.0000000000000000000 ) ) ;
#132 = CARTESIAN_POINT ( 'NONE',  ( -0.1031099999999991745, 0.0000000000000000000, 2.952755999999999936 ) ) ;
#133 = ORIENTED_EDGE ( 'NONE', *, *, #161, .F. ) ;
#134 = DIRECTION ( 'NONE',  ( -0.0000000000000000000, -0.0000000000000000000, -1.000000000000000000 ) ) ;
#135 = VERTEX_POINT ( 'NONE', #150 ) ;
#136 = CIRCLE ( 'NONE', #297, 0.1181100000000000344 ) ;
#137 = COLOUR_RGB ( '',0.7921568627450980005, 0.8196078431372548767, 0.9333333333333333481 ) ;
#138 = CIRCLE ( 'NONE', #73, 0.07873999999999996280 ) ;
#139 = CONICAL_SURFACE ( 'NONE', #34, 0.1031099999999991745, 0.7853981633974500554 ) ;
#140 = EDGE_CURVE ( 'NONE', #299, #166, #42, .T. ) ;
#141 = CARTESIAN_POINT ( 'NONE',  ( -0.07873999999999986565, 1.205358612060781851E-17, 1.181102000000000096 ) ) ;
#142 = APPLICATION_CONTEXT ( 'automotive_design' ) ;
#143 = CARTESIAN_POINT ( 'NONE',  ( 0.0000000000000000000, 0.07873999999999996280, 0.2061439962741667686 ) ) ;
#144 = ORIENTED_EDGE ( 'NONE', *, *, #93, .T. ) ;
#145 = CIRCLE ( 'NONE', #327, 0.07873999999999986565 ) ;
#146 = DIRECTION ( 'NONE',  ( -0.0000000000000000000, -0.0000000000000000000, -1.000000000000000000 ) ) ;
#147 =( LENGTH_UNIT ( ) NAMED_UNIT ( * ) SI_UNIT ( $, .METRE. ) );
#148 = CARTESIAN_POINT ( 'NONE',  ( 0.0000000000000000000, 0.0000000000000000000, 2.952755999999999936 ) ) ;
#149 = DIMENSIONAL_EXPONENTS ( 1.000000000000000000, 0.0000000000000000000, 0.0000000000000000000, 0.0000000000000000000, 0.0000000000000000000, 0.0000000000000000000, 0.0000000000000000000 ) ;
#150 = CARTESIAN_POINT ( 'NONE',  ( 0.1181100000000000344, 0.0000000000000000000, 1.614173000000000080 ) ) ;
#151 = APPLICATION_PROTOCOL_DEFINITION ( 'draft international standard', 'automotive_design', 1998, #142 ) ;
#152 = CIRCLE ( 'NONE', #33, 0.1181100000000000344 ) ;
#153 = DIRECTION ( 'NONE',  ( 1.000000000000000000, 0.0000000000000000000, 0.0000000000000000000 ) ) ;
#154 = CARTESIAN_POINT ( 'NONE',  ( 0.0000000000000000000, 0.0000000000000000000, 0.2061439962741667686 ) ) ;
#155 = CARTESIAN_POINT ( 'NONE',  ( -0.07873999999999992117, 0.0000000000000000000, 0.0000000000000000000 ) ) ;
#156 = CARTESIAN_POINT ( 'NONE',  ( 0.0000000000000000000, 0.0000000000000000000, 2.952755999999999936 ) ) ;
#157 = AXIS2_PLACEMENT_3D ( 'NONE', #83, #227, #130 ) ;
#158 = ADVANCED_FACE ( 'NONE', ( #290 ), #46, .T. ) ;
#159 = CARTESIAN_POINT ( 'NONE',  ( -0.1181100000000000344, 1.446430334472939393E-17, 1.614173000000000080 ) ) ;
#160 = ORIENTED_EDGE ( 'NONE', *, *, #98, .F. ) ;
#161 = EDGE_CURVE ( 'NONE', #94, #301, #81, .T. ) ;
#162 = LINE ( 'NONE', #88, #68 ) ;
#163 = ORIENTED_EDGE ( 'NONE', *, *, #283, .T. ) ;
#164 = ADVANCED_FACE ( 'NONE', ( #317 ), #18, .T. ) ;
#165 = CONICAL_SURFACE ( 'NONE', #217, 0.1031099999999991745, 0.7853981633974500554 ) ;
#166 = VERTEX_POINT ( 'NONE', #345 ) ;
#167 = ORIENTED_EDGE ( 'NONE', *, *, #289, .T. ) ;
#168 = DIRECTION ( 'NONE',  ( 0.09053553870087675814, 0.0000000000000000000, 0.9958932253169222593 ) ) ;
#169 =( NAMED_UNIT ( * ) SI_UNIT ( $, .STERADIAN. ) SOLID_ANGLE_UNIT ( ) );
#170 = ORIENTED_EDGE ( 'NONE', *, *, #60, .F. ) ;
#171 = PRODUCT ( 'Micro_SBMM-060-230X', 'Micro_SBMM-060-230X', '', ( #178 ) ) ;
#172 = EDGE_CURVE ( 'NONE', #166, #299, #287, .T. ) ;
#173 = CARTESIAN_POINT ( 'NONE',  ( 0.1031099999999991745, 1.262733314600825725E-17, 2.952755999999999936 ) ) ;
#174 =( CONVERSION_BASED_UNIT ( 'INCH', #78 ) LENGTH_UNIT ( ) NAMED_UNIT ( #76 ) );
#175 = DIRECTION ( 'NONE',  ( -0.0000000000000000000, -0.0000000000000000000, -1.000000000000000000 ) ) ;
#176 =( NAMED_UNIT ( * ) SI_UNIT ( $, .STERADIAN. ) SOLID_ANGLE_UNIT ( ) );
#177 = DIRECTION ( 'NONE',  ( 0.0000000000000000000, 0.0000000000000000000, 1.000000000000000000 ) ) ;
#178 = PRODUCT_CONTEXT ( 'NONE', #142, 'mechanical' ) ;
#179 = AXIS2_PLACEMENT_3D ( 'NONE', #148, #322, #53 ) ;
#180 = CYLINDRICAL_SURFACE ( 'NONE', #320, 0.07873999999999992117 ) ;
#181 = DIRECTION ( 'NONE',  ( 0.0000000000000000000, 0.0000000000000000000, 1.000000000000000000 ) ) ;
#182 = CARTESIAN_POINT ( 'NONE',  ( 0.0000000000000000000, 0.0000000000000000000, 0.0000000000000000000 ) ) ;
#183 = FACE_OUTER_BOUND ( 'NONE', #278, .T. ) ;
#184 = CIRCLE ( 'NONE', #262, 0.1181100000000000344 ) ;
#185 = ADVANCED_FACE ( 'NONE', ( #339 ), #342, .T. ) ;
#186 = EDGE_LOOP ( 'NONE', ( #90, #144, #302, #330 ) ) ;
#187 = DIRECTION ( 'NONE',  ( -1.000000000000000000, 0.0000000000000000000, 0.0000000000000000000 ) ) ;
#188 = ORIENTED_EDGE ( 'NONE', *, *, #218, .T. ) ;
#189 = ORIENTED_EDGE ( 'NONE', *, *, #283, .F. ) ;
#190 = CIRCLE ( 'NONE', #99, 0.07873999999999996280 ) ;
#191 = ORIENTED_EDGE ( 'NONE', *, *, #23, .F. ) ;
#192 = SURFACE_STYLE_FILL_AREA ( #312 ) ;
#193 = VERTEX_POINT ( 'NONE', #105 ) ;
#194 = AXIS2_PLACEMENT_3D ( 'NONE', #221, #235, #259 ) ;
#195 = STYLED_ITEM ( 'NONE', ( #313 ), #307 ) ;
#196 = EDGE_LOOP ( 'NONE', ( #329, #65 ) ) ;
#197 = DIRECTION ( 'NONE',  ( -0.0000000000000000000, -0.0000000000000000000, -1.000000000000000000 ) ) ;
#198 =( CONVERSION_BASED_UNIT ( 'INCH', #121 ) LENGTH_UNIT ( ) NAMED_UNIT ( #149 ) );
#199 = UNCERTAINTY_MEASURE_WITH_UNIT (LENGTH_MEASURE( 1.000000000000000082E-05 ), #174, 'distance_accuracy_value', 'NONE');
#200 = PRESENTATION_STYLE_ASSIGNMENT (( #308 ) ) ;
#201 = CARTESIAN_POINT ( 'NONE',  ( 0.0000000000000000000, 0.0000000000000000000, 1.744094299999997322 ) ) ;
#202 = AXIS2_PLACEMENT_3D ( 'NONE', #201, #226, #228 ) ;
#203 = DIRECTION ( 'NONE',  ( -0.0000000000000000000, -0.0000000000000000000, -1.000000000000000000 ) ) ;
#204 = LINE ( 'NONE', #52, #325 ) ;
#205 = DIRECTION ( 'NONE',  ( 1.000000000000000000, 0.0000000000000000000, 0.0000000000000000000 ) ) ;
#206 = DIRECTION ( 'NONE',  ( -1.000000000000000000, 0.0000000000000000000, 0.0000000000000000000 ) ) ;
#207 = DIRECTION ( 'NONE',  ( -1.000000000000000000, 0.0000000000000000000, 0.0000000000000000000 ) ) ;
#208 = DIRECTION ( 'NONE',  ( -0.0000000000000000000, -0.0000000000000000000, -1.000000000000000000 ) ) ;
#209 = ORIENTED_EDGE ( 'NONE', *, *, #30, .T. ) ;
#210 = CARTESIAN_POINT ( 'NONE',  ( 0.0000000000000000000, 0.0000000000000000000, 0.2061439962741667686 ) ) ;
#211 = CIRCLE ( 'NONE', #333, 0.1181099999999999789 ) ;
#212 = PRODUCT_DEFINITION_FORMATION_WITH_SPECIFIED_SOURCE ( 'ANY', '', #171, .NOT_KNOWN. ) ;
#213 = EDGE_CURVE ( 'NONE', #32, #214, #77, .T. ) ;
#214 = VERTEX_POINT ( 'NONE', #79 ) ;
#215 = ORIENTED_EDGE ( 'NONE', *, *, #6, .T. ) ;
#216 = VERTEX_POINT ( 'NONE', #264 ) ;
#217 = AXIS2_PLACEMENT_3D ( 'NONE', #114, #4, #61 ) ;
#218 = EDGE_CURVE ( 'NONE', #301, #135, #136, .T. ) ;
#219 = CARTESIAN_POINT ( 'NONE',  ( 0.0000000000000000000, 0.0000000000000000000, 2.952755999999999936 ) ) ;
#220 = FACE_OUTER_BOUND ( 'NONE', #186, .T. ) ;
#221 = CARTESIAN_POINT ( 'NONE',  ( 0.0000000000000000000, 0.0000000000000000000, 1.744094299999997322 ) ) ;
#222 = CIRCLE ( 'NONE', #268, 0.1181099999999999928 ) ;
#223 = PRODUCT_DEFINITION ( 'UNKNOWN', '', #212, #72 ) ;
#224 = SURFACE_STYLE_USAGE ( .BOTH. , #310 ) ;
#225 = DIRECTION ( 'NONE',  ( 0.7071067811865486830, 8.659560562354947649E-17, -0.7071067811865462405 ) ) ;
#226 = DIRECTION ( 'NONE',  ( 0.0000000000000000000, 0.0000000000000000000, 1.000000000000000000 ) ) ;
#227 = DIRECTION ( 'NONE',  ( 1.000000000000000000, 0.0000000000000000000, 0.0000000000000000000 ) ) ;
#228 = DIRECTION ( 'NONE',  ( 1.000000000000000000, 0.0000000000000000000, 0.0000000000000000000 ) ) ;
#229 = VECTOR ( 'NONE', #146, 39.37007874015748143 ) ;
#230 =( GEOMETRIC_REPRESENTATION_CONTEXT ( 3 ) GLOBAL_UNCERTAINTY_ASSIGNED_CONTEXT ( ( #96 ) ) GLOBAL_UNIT_ASSIGNED_CONTEXT ( ( #198, #16, #233 ) ) REPRESENTATION_CONTEXT ( 'NONE', 'WORKASPACE' ) );
#231 = EDGE_CURVE ( 'NONE', #120, #331, #21, .T. ) ;
#232 = DIRECTION ( 'NONE',  ( 0.0000000000000000000, 0.0000000000000000000, 1.000000000000000000 ) ) ;
#233 =( NAMED_UNIT ( * ) SI_UNIT ( $, .STERADIAN. ) SOLID_ANGLE_UNIT ( ) );
#234 = DIRECTION ( 'NONE',  ( -1.000000000000000000, 0.0000000000000000000, 0.0000000000000000000 ) ) ;
#235 = DIRECTION ( 'NONE',  ( 0.0000000000000000000, 0.0000000000000000000, 1.000000000000000000 ) ) ;
#236 = DIRECTION ( 'NONE',  ( -0.0000000000000000000, -0.0000000000000000000, -1.000000000000000000 ) ) ;
#237 = DIRECTION ( 'NONE',  ( -0.0000000000000000000, -0.0000000000000000000, -1.000000000000000000 ) ) ;
#238 = ORIENTED_EDGE ( 'NONE', *, *, #54, .F. ) ;
#239 = DIRECTION ( 'NONE',  ( -1.000000000000000000, 0.0000000000000000000, 0.0000000000000000000 ) ) ;
#240 = PRODUCT_RELATED_PRODUCT_CATEGORY ( 'part', '', ( #171 ) ) ;
#241 = ORIENTED_EDGE ( 'NONE', *, *, #231, .F. ) ;
#242 = DIRECTION ( 'NONE',  ( 0.0000000000000000000, 0.0000000000000000000, -1.000000000000000000 ) ) ;
#243 = AXIS2_PLACEMENT_3D ( 'NONE', #107, #181, #20 ) ;
#244 = EDGE_LOOP ( 'NONE', ( #215, #324, #246, #160 ) ) ;
#245 = VERTEX_POINT ( 'NONE', #109 ) ;
#246 = ORIENTED_EDGE ( 'NONE', *, *, #60, .T. ) ;
#247 = DIRECTION ( 'NONE',  ( -1.224646799147353207E-16, 1.000000000000000000, 0.0000000000000000000 ) ) ;
#248 = STYLED_ITEM ( 'NONE', ( #200 ), #3 ) ;
#249 = MECHANICAL_DESIGN_GEOMETRIC_PRESENTATION_REPRESENTATION (  '', ( #195 ), #282 ) ;
#250 = DIRECTION ( 'NONE',  ( 1.000000000000000000, 0.0000000000000000000, 0.0000000000000000000 ) ) ;
#251 = ADVANCED_FACE ( 'NONE', ( #323 ), #165, .T. ) ;
#252 = DIRECTION ( 'NONE',  ( 0.0000000000000000000, 0.0000000000000000000, -1.000000000000000000 ) ) ;
#253 = PRODUCT_DEFINITION_SHAPE ( 'NONE', 'NONE',  #223 ) ;
#254 = ORIENTED_EDGE ( 'NONE', *, *, #289, .F. ) ;
#255 = VECTOR ( 'NONE', #168, 39.37007874015748143 ) ;
#256 = AXIS2_PLACEMENT_3D ( 'NONE', #5, #31, #273 ) ;
#257 = FACE_OUTER_BOUND ( 'NONE', #9, .T. ) ;
#258 = UNCERTAINTY_MEASURE_WITH_UNIT (LENGTH_MEASURE( 1.000000000000000082E-05 ), #122, 'distance_accuracy_value', 'NONE');
#259 = DIRECTION ( 'NONE',  ( 1.000000000000000000, 0.0000000000000000000, 0.0000000000000000000 ) ) ;
#260 = FILL_AREA_STYLE ('',( #19 ) ) ;
#261 = DIRECTION ( 'NONE',  ( 0.0000000000000000000, 1.000000000000000000, 0.0000000000000000000 ) ) ;
#262 = AXIS2_PLACEMENT_3D ( 'NONE', #11, #335, #13 ) ;
#263 = CARTESIAN_POINT ( 'NONE',  ( 0.0000000000000000000, 0.0000000000000000000, 2.952755999999999936 ) ) ;
#264 = CARTESIAN_POINT ( 'NONE',  ( 0.1181100000000000344, 1.446430334472939084E-17, 2.937755999999999368 ) ) ;
#265 = EDGE_CURVE ( 'NONE', #193, #214, #138, .T. ) ;
#266 = FACE_OUTER_BOUND ( 'NONE', #244, .T. ) ;
#267 = EDGE_CURVE ( 'NONE', #135, #301, #281, .T. ) ;
#268 = AXIS2_PLACEMENT_3D ( 'NONE', #12, #39, #247 ) ;
#269 = DIRECTION ( 'NONE',  ( -1.000000000000000000, 0.0000000000000000000, 0.0000000000000000000 ) ) ;
#270 = CARTESIAN_POINT ( 'NONE',  ( 0.0000000000000000000, 0.0000000000000000000, 1.614173000000000080 ) ) ;
#271 = ORIENTED_EDGE ( 'NONE', *, *, #23, .T. ) ;
#272 = EDGE_CURVE ( 'NONE', #32, #120, #326, .T. ) ;
#273 = DIRECTION ( 'NONE',  ( -1.000000000000000000, 0.0000000000000000000, 0.0000000000000000000 ) ) ;
#274 = ORIENTED_EDGE ( 'NONE', *, *, #332, .F. ) ;
#275 = CONICAL_SURFACE ( 'NONE', #194, 0.1299209999999998422, 0.09065967900408460067 ) ;
#276 = EDGE_LOOP ( 'NONE', ( #35, #29, #95, #188 ) ) ;
#277 = ORIENTED_EDGE ( 'NONE', *, *, #54, .T. ) ;
#278 = EDGE_LOOP ( 'NONE', ( #119, #271, #238, #189 ) ) ;
#279 = PRESENTATION_LAYER_ASSIGNMENT (  '', '', ( #248 ) ) ;
#280 =( NAMED_UNIT ( * ) PLANE_ANGLE_UNIT ( ) SI_UNIT ( $, .RADIAN. ) );
#281 = CIRCLE ( 'NONE', #10, 0.1181100000000000344 ) ;
#282 =( GEOMETRIC_REPRESENTATION_CONTEXT ( 3 ) GLOBAL_UNCERTAINTY_ASSIGNED_CONTEXT ( ( #199 ) ) GLOBAL_UNIT_ASSIGNED_CONTEXT ( ( #174, #45, #176 ) ) REPRESENTATION_CONTEXT ( 'NONE', 'WORKASPACE' ) );
#283 = EDGE_CURVE ( 'NONE', #299, #94, #162, .T. ) ;
#284 = LINE ( 'NONE', #173, #126 ) ;
#285 = DIRECTION ( 'NONE',  ( -0.0000000000000000000, -0.0000000000000000000, -1.000000000000000000 ) ) ;
#286 = LINE ( 'NONE', #43, #229 ) ;
#287 = CIRCLE ( 'NONE', #179, 0.1031099999999991745 ) ;
#288 = CARTESIAN_POINT ( 'NONE',  ( 0.0000000000000000000, 0.0000000000000000000, 2.937755999999999368 ) ) ;
#289 = EDGE_CURVE ( 'NONE', #214, #62, #57, .T. ) ;
#290 = FACE_OUTER_BOUND ( 'NONE', #276, .T. ) ;
#291 = DIRECTION ( 'NONE',  ( 1.000000000000000000, 0.0000000000000000000, 0.0000000000000000000 ) ) ;
#292 = CARTESIAN_POINT ( 'NONE',  ( -0.1181100000000000344, 0.0000000000000000000, 2.937755999999999368 ) ) ;
#293 = AXIS2_PLACEMENT_3D ( 'NONE', #263, #49, #108 ) ;
#294 = DIRECTION ( 'NONE',  ( -0.0000000000000000000, -0.0000000000000000000, -1.000000000000000000 ) ) ;
#295 = FACE_OUTER_BOUND ( 'NONE', #36, .T. ) ;
#296 = DIRECTION ( 'NONE',  ( -1.000000000000000000, 0.0000000000000000000, 0.0000000000000000000 ) ) ;
#297 = AXIS2_PLACEMENT_3D ( 'NONE', #128, #177, #205 ) ;
#298 = DIRECTION ( 'NONE',  ( 1.000000000000000000, 0.0000000000000000000, 0.0000000000000000000 ) ) ;
#299 = VERTEX_POINT ( 'NONE', #132 ) ;
#300 = DIRECTION ( 'NONE',  ( -0.0000000000000000000, -0.0000000000000000000, -1.000000000000000000 ) ) ;
#301 = VERTEX_POINT ( 'NONE', #159 ) ;
#302 = ORIENTED_EDGE ( 'NONE', *, *, #267, .F. ) ;
#303 = ORIENTED_EDGE ( 'NONE', *, *, #98, .T. ) ;
#304 = ADVANCED_FACE ( 'NONE', ( #58 ), #86, .T. ) ;
#305 = ORIENTED_EDGE ( 'NONE', *, *, #213, .F. ) ;
#306 =( LENGTH_UNIT ( ) NAMED_UNIT ( * ) SI_UNIT ( $, .METRE. ) );
#307 = ADVANCED_BREP_SHAPE_REPRESENTATION ( 'Micro_SBMM-060-230X', ( #3, #127 ), #230 ) ;
#308 = SURFACE_STYLE_USAGE ( .BOTH. , #15 ) ;
#309 = CARTESIAN_POINT ( 'NONE',  ( 0.0000000000000000000, 0.0000000000000000000, 0.2061439962741667686 ) ) ;
#310 = SURFACE_SIDE_STYLE ('',( #70 ) ) ;
#311 = APPLICATION_CONTEXT ( 'automotive_design' ) ;
#312 = FILL_AREA_STYLE ('',( #69 ) ) ;
#313 = PRESENTATION_STYLE_ASSIGNMENT (( #224 ) ) ;
#314 = CYLINDRICAL_SURFACE ( 'NONE', #104, 0.1181100000000000344 ) ;
#315 = ADVANCED_FACE ( 'NONE', ( #183 ), #139, .T. ) ;
#316 = DIRECTION ( 'NONE',  ( -0.0000000000000000000, -0.0000000000000000000, -1.000000000000000000 ) ) ;
#317 = FACE_OUTER_BOUND ( 'NONE', #123, .T. ) ;
#318 = CARTESIAN_POINT ( 'NONE',  ( 0.0000000000000000000, 0.0000000000000000000, 0.0000000000000000000 ) ) ;
#319 = CARTESIAN_POINT ( 'NONE',  ( 0.07873999999999986565, 0.0000000000000000000, 1.181102000000000096 ) ) ;
#320 = AXIS2_PLACEMENT_3D ( 'NONE', #182, #203, #207 ) ;
#321 = CARTESIAN_POINT ( 'NONE',  ( 0.0000000000000000000, 0.0000000000000000000, 2.952755999999999936 ) ) ;
#322 = DIRECTION ( 'NONE',  ( 0.0000000000000000000, 0.0000000000000000000, 1.000000000000000000 ) ) ;
#323 = FACE_OUTER_BOUND ( 'NONE', #115, .T. ) ;
#324 = ORIENTED_EDGE ( 'NONE', *, *, #84, .T. ) ;
#325 = VECTOR ( 'NONE', #22, 39.37007874015748143 ) ;
#326 = CIRCLE ( 'NONE', #106, 0.07873999999999986565 ) ;
#327 = AXIS2_PLACEMENT_3D ( 'NONE', #26, #237, #1 ) ;
#328 = DIRECTION ( 'NONE',  ( 0.0000000000000000000, 0.0000000000000000000, 1.000000000000000000 ) ) ;
#329 = ORIENTED_EDGE ( 'NONE', *, *, #140, .T. ) ;
#330 = ORIENTED_EDGE ( 'NONE', *, *, #30, .F. ) ;
#331 = VERTEX_POINT ( 'NONE', #55 ) ;
#332 = EDGE_CURVE ( 'NONE', #120, #32, #145, .T. ) ;
#333 = AXIS2_PLACEMENT_3D ( 'NONE', #85, #234, #232 ) ;
#334 = ORIENTED_EDGE ( 'NONE', *, *, #140, .F. ) ;
#335 = DIRECTION ( 'NONE',  ( 0.0000000000000000000, 0.0000000000000000000, -1.000000000000000000 ) ) ;
#336 = ORIENTED_EDGE ( 'NONE', *, *, #218, .F. ) ;
#337 = DIRECTION ( 'NONE',  ( 0.0000000000000000000, 0.0000000000000000000, 1.000000000000000000 ) ) ;
#338 = ADVANCED_FACE ( 'NONE', ( #125 ), #25, .T. ) ;
#339 = FACE_OUTER_BOUND ( 'NONE', #196, .T. ) ;
#340 = COLOUR_RGB ( '',0.7921568627450980005, 0.8196078431372548767, 0.9333333333333333481 ) ;
#341 = SPHERICAL_SURFACE ( 'NONE', #157, 0.1181099999999999928 ) ;
#342 = PLANE ( 'NONE',  #293 ) ;
#343 = DIRECTION ( 'NONE',  ( -0.0000000000000000000, -0.0000000000000000000, -1.000000000000000000 ) ) ;
#344 = CLOSED_SHELL ( 'NONE', ( #315, #40, #118, #82, #103, #164, #338, #304, #158, #185, #251 ) ) ;
#345 = CARTESIAN_POINT ( 'NONE',  ( 0.1031099999999991745, 1.354581824536882559E-17, 2.952755999999999936 ) ) ;
ENDSEC;
END-ISO-10303-21;
