ISO-10303-21;
HEADER;
FILE_DESCRIPTION (( 'STEP AP214' ),
    '1' );
FILE_NAME ('Micro_RSC-250-260.STEP',
    '2021-09-03T17:49:44',
    ( '' ),
    ( '' ),
    'SwSTEP 2.0',
    'SolidWorks 2020',
    '' );
FILE_SCHEMA (( 'AUTOMOTIVE_DESIGN' ));
ENDSEC;

DATA;
#1 = EDGE_CURVE ( 'NONE', #168, #33, #86, .T. ) ;
#2 = ADVANCED_FACE ( 'NONE', ( #61 ), #23, .T. ) ;
#3 = PRODUCT ( 'Micro_RSC-250-260', 'Micro_RSC-250-260', '', ( #118 ) ) ;
#4 = CARTESIAN_POINT ( 'NONE',  ( 0.1250000000000000000, 1.530808498934191509E-17, 2.335455173280957197 ) ) ;
#5 = AXIS2_PLACEMENT_3D ( 'NONE', #46, #60, #146 ) ;
#6 = MANIFOLD_SOLID_BREP ( 'Mirror1', #75 ) ;
#7 = CARTESIAN_POINT ( 'NONE',  ( 0.0000000000000000000, 0.0000000000000000000, 0.1645448267190428304 ) ) ;
#8 = EDGE_CURVE ( 'NONE', #92, #246, #9, .T. ) ;
#9 = LINE ( 'NONE', #85, #220 ) ;
#10 = DIRECTION ( 'NONE',  ( -0.0000000000000000000, -0.0000000000000000000, -1.000000000000000000 ) ) ;
#11 =( GEOMETRIC_REPRESENTATION_CONTEXT ( 3 ) GLOBAL_UNCERTAINTY_ASSIGNED_CONTEXT ( ( #80 ) ) GLOBAL_UNIT_ASSIGNED_CONTEXT ( ( #199, #19, #180 ) ) REPRESENTATION_CONTEXT ( 'NONE', 'WORKASPACE' ) );
#12 = FACE_OUTER_BOUND ( 'NONE', #42, .T. ) ;
#13 = EDGE_LOOP ( 'NONE', ( #173, #226, #229, #167 ) ) ;
#14 = PLANE ( 'NONE',  #142 ) ;
#15 = CARTESIAN_POINT ( 'NONE',  ( -0.03000000000000000583, 9.491012693391986370E-18, 0.0000000000000000000 ) ) ;
#16 = FACE_OUTER_BOUND ( 'NONE', #209, .T. ) ;
#17 = APPLICATION_CONTEXT ( 'automotive_design' ) ;
#18 = AXIS2_PLACEMENT_3D ( 'NONE', #100, #242, #111 ) ;
#19 =( NAMED_UNIT ( * ) PLANE_ANGLE_UNIT ( ) SI_UNIT ( $, .RADIAN. ) );
#20 =( CONVERSION_BASED_UNIT ( 'INCH', #77 ) LENGTH_UNIT ( ) NAMED_UNIT ( #206 ) );
#21 = UNCERTAINTY_MEASURE_WITH_UNIT (LENGTH_MEASURE( 1.000000000000000082E-05 ), #20, 'distance_accuracy_value', 'NONE');
#22 =( NAMED_UNIT ( * ) PLANE_ANGLE_UNIT ( ) SI_UNIT ( $, .RADIAN. ) );
#23 = CONICAL_SURFACE ( 'NONE', #119, 0.03000000000000000583, 0.5235987755983001479 ) ;
#24 = SURFACE_STYLE_USAGE ( .BOTH. , #204 ) ;
#25 =( CONVERSION_BASED_UNIT ( 'INCH', #87 ) LENGTH_UNIT ( ) NAMED_UNIT ( #43 ) );
#26 = PRODUCT_DEFINITION_SHAPE ( 'NONE', 'NONE',  #29 ) ;
#27 = VECTOR ( 'NONE', #37, 39.37007874015748854 ) ;
#28 = CARTESIAN_POINT ( 'NONE',  ( 0.0000000000000000000, 0.0000000000000000000, 2.500000000000000000 ) ) ;
#29 = PRODUCT_DEFINITION ( 'UNKNOWN', '', #157, #68 ) ;
#30 = ORIENTED_EDGE ( 'NONE', *, *, #106, .T. ) ;
#31 = LINE ( 'NONE', #213, #59 ) ;
#32 = DIRECTION ( 'NONE',  ( -1.000000000000000000, 0.0000000000000000000, 0.0000000000000000000 ) ) ;
#33 = VERTEX_POINT ( 'NONE', #4 ) ;
#34 = VECTOR ( 'NONE', #249, 39.37007874015748143 ) ;
#35 = CARTESIAN_POINT ( 'NONE',  ( -0.1250000000000000000, 0.0000000000000000000, 2.500000000000000000 ) ) ;
#36 = DIRECTION ( 'NONE',  ( 1.000000000000000000, 0.0000000000000000000, 0.0000000000000000000 ) ) ;
#37 = DIRECTION ( 'NONE',  ( 0.5000000000000009992, 0.0000000000000000000, 0.8660254037844379305 ) ) ;
#38 =( NAMED_UNIT ( * ) SI_UNIT ( $, .STERADIAN. ) SOLID_ANGLE_UNIT ( ) );
#39 = EDGE_CURVE ( 'NONE', #33, #168, #193, .T. ) ;
#40 = CONICAL_SURFACE ( 'NONE', #129, 0.03000000000000000583, 0.5235987755983001479 ) ;
#41 = DIRECTION ( 'NONE',  ( -1.000000000000000000, 0.0000000000000000000, 0.0000000000000000000 ) ) ;
#42 = EDGE_LOOP ( 'NONE', ( #223, #66, #127, #109 ) ) ;
#43 = DIMENSIONAL_EXPONENTS ( 1.000000000000000000, 0.0000000000000000000, 0.0000000000000000000, 0.0000000000000000000, 0.0000000000000000000, 0.0000000000000000000, 0.0000000000000000000 ) ;
#44 = MECHANICAL_DESIGN_GEOMETRIC_PRESENTATION_REPRESENTATION (  '', ( #178 ), #78 ) ;
#45 = VERTEX_POINT ( 'NONE', #160 ) ;
#46 = CARTESIAN_POINT ( 'NONE',  ( 0.0000000000000000000, 0.0000000000000000000, 2.335455173280957197 ) ) ;
#47 = DIRECTION ( 'NONE',  ( -0.0000000000000000000, -0.0000000000000000000, -1.000000000000000000 ) ) ;
#48 = PRESENTATION_LAYER_ASSIGNMENT (  '', '', ( #178 ) ) ;
#49 = DIRECTION ( 'NONE',  ( -0.5000000000000009992, -6.123233995736778362E-17, -0.8660254037844379305 ) ) ;
#50 = UNCERTAINTY_MEASURE_WITH_UNIT (LENGTH_MEASURE( 1.000000000000000082E-05 ), #25, 'distance_accuracy_value', 'NONE');
#51 = CYLINDRICAL_SURFACE ( 'NONE', #162, 0.1250000000000000000 ) ;
#52 = VERTEX_POINT ( 'NONE', #239 ) ;
#53 = EDGE_CURVE ( 'NONE', #237, #45, #93, .T. ) ;
#54 = CARTESIAN_POINT ( 'NONE',  ( -0.1250000000000000000, 0.0000000000000000000, 2.335455173280957197 ) ) ;
#55 = CARTESIAN_POINT ( 'NONE',  ( 0.0000000000000000000, 0.0000000000000000000, 2.500000000000000000 ) ) ;
#56 = DIRECTION ( 'NONE',  ( -1.000000000000000000, 0.0000000000000000000, 0.0000000000000000000 ) ) ;
#57 = AXIS2_PLACEMENT_3D ( 'NONE', #207, #10, #91 ) ;
#58 = EDGE_CURVE ( 'NONE', #246, #182, #156, .T. ) ;
#59 = VECTOR ( 'NONE', #115, 39.37007874015748854 ) ;
#60 = DIRECTION ( 'NONE',  ( 0.0000000000000000000, 0.0000000000000000000, -1.000000000000000000 ) ) ;
#61 = FACE_OUTER_BOUND ( 'NONE', #13, .T. ) ;
#62 = DIMENSIONAL_EXPONENTS ( 1.000000000000000000, 0.0000000000000000000, 0.0000000000000000000, 0.0000000000000000000, 0.0000000000000000000, 0.0000000000000000000, 0.0000000000000000000 ) ;
#63 = SURFACE_STYLE_FILL_AREA ( #123 ) ;
#64 = EDGE_CURVE ( 'NONE', #92, #52, #135, .T. ) ;
#65 = ORIENTED_EDGE ( 'NONE', *, *, #1, .T. ) ;
#66 = ORIENTED_EDGE ( 'NONE', *, *, #84, .T. ) ;
#67 = ORIENTED_EDGE ( 'NONE', *, *, #8, .T. ) ;
#68 = PRODUCT_DEFINITION_CONTEXT ( 'detailed design', #143, 'design' ) ;
#69 = CARTESIAN_POINT ( 'NONE',  ( 0.0000000000000000000, 0.0000000000000000000, 0.0000000000000000000 ) ) ;
#70 = CARTESIAN_POINT ( 'NONE',  ( 0.0000000000000000000, 0.0000000000000000000, 2.500000000000000000 ) ) ;
#71 = ORIENTED_EDGE ( 'NONE', *, *, #39, .T. ) ;
#72 = CARTESIAN_POINT ( 'NONE',  ( 0.0000000000000000000, 0.0000000000000000000, 2.500000000000000000 ) ) ;
#73 = ORIENTED_EDGE ( 'NONE', *, *, #53, .F. ) ;
#74 = DIRECTION ( 'NONE',  ( -0.0000000000000000000, -0.0000000000000000000, -1.000000000000000000 ) ) ;
#75 = CLOSED_SHELL ( 'NONE', ( #97, #191, #248, #175, #195, #217, #2, #102 ) ) ;
#76 =( LENGTH_UNIT ( ) NAMED_UNIT ( * ) SI_UNIT ( $, .METRE. ) );
#77 = LENGTH_MEASURE_WITH_UNIT ( LENGTH_MEASURE( 0.02539999999999999897 ), #176 );
#78 =( GEOMETRIC_REPRESENTATION_CONTEXT ( 3 ) GLOBAL_UNCERTAINTY_ASSIGNED_CONTEXT ( ( #50 ) ) GLOBAL_UNIT_ASSIGNED_CONTEXT ( ( #25, #22, #122 ) ) REPRESENTATION_CONTEXT ( 'NONE', 'WORKASPACE' ) );
#79 =( NAMED_UNIT ( * ) PLANE_ANGLE_UNIT ( ) SI_UNIT ( $, .RADIAN. ) );
#80 = UNCERTAINTY_MEASURE_WITH_UNIT (LENGTH_MEASURE( 1.000000000000000082E-05 ), #199, 'distance_accuracy_value', 'NONE');
#81 = CIRCLE ( 'NONE', #184, 0.03000000000000000583 ) ;
#82 = AXIS2_PLACEMENT_3D ( 'NONE', #214, #121, #200 ) ;
#83 = DIRECTION ( 'NONE',  ( 1.000000000000000000, 0.0000000000000000000, 0.0000000000000000000 ) ) ;
#84 = EDGE_CURVE ( 'NONE', #237, #168, #110, .T. ) ;
#85 = CARTESIAN_POINT ( 'NONE',  ( -0.03000000000000000583, 3.673940397442059960E-18, 0.0000000000000000000 ) ) ;
#86 = CIRCLE ( 'NONE', #238, 0.1250000000000000000 ) ;
#87 = LENGTH_MEASURE_WITH_UNIT ( LENGTH_MEASURE( 0.02539999999999999897 ), #202 );
#88 = ORIENTED_EDGE ( 'NONE', *, *, #64, .F. ) ;
#89 = ORIENTED_EDGE ( 'NONE', *, *, #145, .F. ) ;
#90 = EDGE_LOOP ( 'NONE', ( #126, #71, #30, #89 ) ) ;
#91 = DIRECTION ( 'NONE',  ( -1.000000000000000000, 0.0000000000000000000, 0.0000000000000000000 ) ) ;
#92 = VERTEX_POINT ( 'NONE', #15 ) ;
#93 = CIRCLE ( 'NONE', #104, 0.03000000000000000583 ) ;
#94 = DIRECTION ( 'NONE',  ( -1.000000000000000000, 0.0000000000000000000, 0.0000000000000000000 ) ) ;
#95 = EDGE_LOOP ( 'NONE', ( #221, #188 ) ) ;
#96 = DIRECTION ( 'NONE',  ( 0.0000000000000000000, 0.0000000000000000000, -1.000000000000000000 ) ) ;
#97 = ADVANCED_FACE ( 'NONE', ( #12 ), #40, .T. ) ;
#98 = ORIENTED_EDGE ( 'NONE', *, *, #230, .F. ) ;
#99 = DIRECTION ( 'NONE',  ( -0.0000000000000000000, -0.0000000000000000000, -1.000000000000000000 ) ) ;
#100 = CARTESIAN_POINT ( 'NONE',  ( 0.0000000000000000000, 0.0000000000000000000, 0.0000000000000000000 ) ) ;
#101 = LENGTH_MEASURE_WITH_UNIT ( LENGTH_MEASURE( 0.02539999999999999897 ), #76 );
#102 = ADVANCED_FACE ( 'NONE', ( #174 ), #14, .T. ) ;
#103 = DIRECTION ( 'NONE',  ( 0.0000000000000000000, 0.0000000000000000000, -1.000000000000000000 ) ) ;
#104 = AXIS2_PLACEMENT_3D ( 'NONE', #222, #144, #108 ) ;
#105 = MECHANICAL_DESIGN_GEOMETRIC_PRESENTATION_REPRESENTATION (  '', ( #205 ), #179 ) ;
#106 = EDGE_CURVE ( 'NONE', #168, #246, #231, .T. ) ;
#107 = DIRECTION ( 'NONE',  ( 0.0000000000000000000, 0.0000000000000000000, -1.000000000000000000 ) ) ;
#108 = DIRECTION ( 'NONE',  ( -1.000000000000000000, 0.0000000000000000000, 0.0000000000000000000 ) ) ;
#109 = ORIENTED_EDGE ( 'NONE', *, *, #183, .F. ) ;
#110 = LINE ( 'NONE', #208, #197 ) ;
#111 = DIRECTION ( 'NONE',  ( 1.000000000000000000, 0.0000000000000000000, 0.0000000000000000000 ) ) ;
#112 = EDGE_CURVE ( 'NONE', #52, #182, #130, .T. ) ;
#113 = CARTESIAN_POINT ( 'NONE',  ( 0.0000000000000000000, 0.0000000000000000000, 0.0000000000000000000 ) ) ;
#114 = FACE_OUTER_BOUND ( 'NONE', #161, .T. ) ;
#115 = DIRECTION ( 'NONE',  ( 0.5000000000000009992, 0.0000000000000000000, -0.8660254037844379305 ) ) ;
#116 = CONICAL_SURFACE ( 'NONE', #18, 0.03000000000000000583, 0.5235987755983001479 ) ;
#117 = APPLICATION_PROTOCOL_DEFINITION ( 'draft international standard', 'automotive_design', 1998, #143 ) ;
#118 = PRODUCT_CONTEXT ( 'NONE', #17, 'mechanical' ) ;
#119 = AXIS2_PLACEMENT_3D ( 'NONE', #28, #107, #83 ) ;
#120 = EDGE_CURVE ( 'NONE', #45, #237, #81, .T. ) ;
#121 = DIRECTION ( 'NONE',  ( 0.0000000000000000000, 0.0000000000000000000, 1.000000000000000000 ) ) ;
#122 =( NAMED_UNIT ( * ) SI_UNIT ( $, .STERADIAN. ) SOLID_ANGLE_UNIT ( ) );
#123 = FILL_AREA_STYLE ('',( #125 ) ) ;
#124 = AXIS2_PLACEMENT_3D ( 'NONE', #7, #47, #159 ) ;
#125 = FILL_AREA_STYLE_COLOUR ( '', #244 ) ;
#126 = ORIENTED_EDGE ( 'NONE', *, *, #151, .F. ) ;
#127 = ORIENTED_EDGE ( 'NONE', *, *, #39, .F. ) ;
#128 = EDGE_LOOP ( 'NONE', ( #241, #73 ) ) ;
#129 = AXIS2_PLACEMENT_3D ( 'NONE', #72, #96, #210 ) ;
#130 = LINE ( 'NONE', #153, #27 ) ;
#131 = ORIENTED_EDGE ( 'NONE', *, *, #58, .F. ) ;
#132 = DIRECTION ( 'NONE',  ( -1.000000000000000000, 0.0000000000000000000, 0.0000000000000000000 ) ) ;
#133 = EDGE_LOOP ( 'NONE', ( #65, #165, #131, #140 ) ) ;
#134 = PLANE ( 'NONE',  #234 ) ;
#135 = CIRCLE ( 'NONE', #215, 0.03000000000000000583 ) ;
#136 = DIRECTION ( 'NONE',  ( 0.0000000000000000000, 0.0000000000000000000, 1.000000000000000000 ) ) ;
#137 = CYLINDRICAL_SURFACE ( 'NONE', #211, 0.1250000000000000000 ) ;
#138 = APPLICATION_PROTOCOL_DEFINITION ( 'draft international standard', 'automotive_design', 1998, #17 ) ;
#139 = FILL_AREA_STYLE_COLOUR ( '', #198 ) ;
#140 = ORIENTED_EDGE ( 'NONE', *, *, #106, .F. ) ;
#141 = ORIENTED_EDGE ( 'NONE', *, *, #112, .F. ) ;
#142 = AXIS2_PLACEMENT_3D ( 'NONE', #171, #189, #192 ) ;
#143 = APPLICATION_CONTEXT ( 'automotive_design' ) ;
#144 = DIRECTION ( 'NONE',  ( 0.0000000000000000000, 0.0000000000000000000, -1.000000000000000000 ) ) ;
#145 = EDGE_CURVE ( 'NONE', #182, #246, #224, .T. ) ;
#146 = DIRECTION ( 'NONE',  ( -1.000000000000000000, 0.0000000000000000000, 0.0000000000000000000 ) ) ;
#147 = ORIENTED_EDGE ( 'NONE', *, *, #58, .T. ) ;
#148 = DIRECTION ( 'NONE',  ( 1.000000000000000000, 0.0000000000000000000, -0.0000000000000000000 ) ) ;
#149 = AXIS2_PLACEMENT_3D ( 'NONE', #186, #99, #94 ) ;
#150 = DIRECTION ( 'NONE',  ( -0.0000000000000000000, -0.0000000000000000000, -1.000000000000000000 ) ) ;
#151 = EDGE_CURVE ( 'NONE', #33, #182, #227, .T. ) ;
#152 = DIRECTION ( 'NONE',  ( -1.000000000000000000, 0.0000000000000000000, 0.0000000000000000000 ) ) ;
#153 = CARTESIAN_POINT ( 'NONE',  ( 0.03000000000000000583, 0.0000000000000000000, 0.0000000000000000000 ) ) ;
#154 = DIRECTION ( 'NONE',  ( -0.0000000000000000000, -0.0000000000000000000, -1.000000000000000000 ) ) ;
#155 = SURFACE_SIDE_STYLE ('',( #177 ) ) ;
#156 = CIRCLE ( 'NONE', #124, 0.1250000000000000000 ) ;
#157 = PRODUCT_DEFINITION_FORMATION_WITH_SPECIFIED_SOURCE ( 'ANY', '', #3, .NOT_KNOWN. ) ;
#158 = VECTOR ( 'NONE', #154, 39.37007874015748143 ) ;
#159 = DIRECTION ( 'NONE',  ( -1.000000000000000000, 0.0000000000000000000, 0.0000000000000000000 ) ) ;
#160 = CARTESIAN_POINT ( 'NONE',  ( 0.03000000000000000583, 0.0000000000000000000, 2.500000000000000000 ) ) ;
#161 = EDGE_LOOP ( 'NONE', ( #203, #98, #243, #240 ) ) ;
#162 = AXIS2_PLACEMENT_3D ( 'NONE', #70, #150, #152 ) ;
#163 = PRESENTATION_LAYER_ASSIGNMENT (  '', '', ( #205 ) ) ;
#164 = DIRECTION ( 'NONE',  ( -0.5000000000000009992, 6.123233995736778362E-17, 0.8660254037844379305 ) ) ;
#165 = ORIENTED_EDGE ( 'NONE', *, *, #151, .T. ) ;
#166 = PRODUCT_RELATED_PRODUCT_CATEGORY ( 'part', '', ( #3 ) ) ;
#167 = ORIENTED_EDGE ( 'NONE', *, *, #1, .F. ) ;
#168 = VERTEX_POINT ( 'NONE', #54 ) ;
#169 = CARTESIAN_POINT ( 'NONE',  ( -0.03000000000000000583, -9.491012693391986370E-18, 2.500000000000000000 ) ) ;
#170 = CIRCLE ( 'NONE', #57, 0.03000000000000000583 ) ;
#171 = CARTESIAN_POINT ( 'NONE',  ( 0.0000000000000000000, 0.0000000000000000000, 2.500000000000000000 ) ) ;
#172 = CARTESIAN_POINT ( 'NONE',  ( 0.1250000000000000000, 1.530808498934191509E-17, 2.500000000000000000 ) ) ;
#173 = ORIENTED_EDGE ( 'NONE', *, *, #84, .F. ) ;
#174 = FACE_OUTER_BOUND ( 'NONE', #128, .T. ) ;
#175 = ADVANCED_FACE ( 'NONE', ( #228 ), #137, .T. ) ;
#176 =( LENGTH_UNIT ( ) NAMED_UNIT ( * ) SI_UNIT ( $, .METRE. ) );
#177 = SURFACE_STYLE_FILL_AREA ( #233 ) ;
#178 = STYLED_ITEM ( 'NONE', ( #201 ), #6 ) ;
#179 =( GEOMETRIC_REPRESENTATION_CONTEXT ( 3 ) GLOBAL_UNCERTAINTY_ASSIGNED_CONTEXT ( ( #21 ) ) GLOBAL_UNIT_ASSIGNED_CONTEXT ( ( #20, #79, #38 ) ) REPRESENTATION_CONTEXT ( 'NONE', 'WORKASPACE' ) );
#180 =( NAMED_UNIT ( * ) SI_UNIT ( $, .STERADIAN. ) SOLID_ANGLE_UNIT ( ) );
#181 = CONICAL_SURFACE ( 'NONE', #235, 0.03000000000000000583, 0.5235987755983001479 ) ;
#182 = VERTEX_POINT ( 'NONE', #225 ) ;
#183 = EDGE_CURVE ( 'NONE', #45, #33, #31, .T. ) ;
#184 = AXIS2_PLACEMENT_3D ( 'NONE', #55, #232, #32 ) ;
#185 = ADVANCED_BREP_SHAPE_REPRESENTATION ( 'Micro_RSC-250-260', ( #6, #82 ), #11 ) ;
#186 = CARTESIAN_POINT ( 'NONE',  ( 0.0000000000000000000, 0.0000000000000000000, 0.1645448267190428304 ) ) ;
#187 = DIRECTION ( 'NONE',  ( 0.0000000000000000000, 0.0000000000000000000, 1.000000000000000000 ) ) ;
#188 = ORIENTED_EDGE ( 'NONE', *, *, #64, .T. ) ;
#189 = DIRECTION ( 'NONE',  ( 0.0000000000000000000, 0.0000000000000000000, 1.000000000000000000 ) ) ;
#190 = FACE_OUTER_BOUND ( 'NONE', #95, .T. ) ;
#191 = ADVANCED_FACE ( 'NONE', ( #16 ), #181, .T. ) ;
#192 = DIRECTION ( 'NONE',  ( 1.000000000000000000, 0.0000000000000000000, -0.0000000000000000000 ) ) ;
#193 = CIRCLE ( 'NONE', #5, 0.1250000000000000000 ) ;
#194 = PRESENTATION_STYLE_ASSIGNMENT (( #216 ) ) ;
#195 = ADVANCED_FACE ( 'NONE', ( #114 ), #116, .T. ) ;
#196 = SHAPE_DEFINITION_REPRESENTATION ( #26, #185 ) ;
#197 = VECTOR ( 'NONE', #49, 39.37007874015748854 ) ;
#198 = COLOUR_RGB ( '',0.7921568627450980005, 0.8196078431372548767, 0.9333333333333333481 ) ;
#199 =( CONVERSION_BASED_UNIT ( 'INCH', #101 ) LENGTH_UNIT ( ) NAMED_UNIT ( #62 ) );
#200 = DIRECTION ( 'NONE',  ( 1.000000000000000000, 0.0000000000000000000, 0.0000000000000000000 ) ) ;
#201 = PRESENTATION_STYLE_ASSIGNMENT (( #24 ) ) ;
#202 =( LENGTH_UNIT ( ) NAMED_UNIT ( * ) SI_UNIT ( $, .METRE. ) );
#203 = ORIENTED_EDGE ( 'NONE', *, *, #8, .F. ) ;
#204 = SURFACE_SIDE_STYLE ('',( #63 ) ) ;
#205 = STYLED_ITEM ( 'NONE', ( #194 ), #185 ) ;
#206 = DIMENSIONAL_EXPONENTS ( 1.000000000000000000, 0.0000000000000000000, 0.0000000000000000000, 0.0000000000000000000, 0.0000000000000000000, 0.0000000000000000000, 0.0000000000000000000 ) ;
#207 = CARTESIAN_POINT ( 'NONE',  ( 0.0000000000000000000, 0.0000000000000000000, 0.0000000000000000000 ) ) ;
#208 = CARTESIAN_POINT ( 'NONE',  ( -0.03000000000000000583, -3.673940397442059960E-18, 2.500000000000000000 ) ) ;
#209 = EDGE_LOOP ( 'NONE', ( #88, #67, #147, #141 ) ) ;
#210 = DIRECTION ( 'NONE',  ( 1.000000000000000000, 0.0000000000000000000, 0.0000000000000000000 ) ) ;
#211 = AXIS2_PLACEMENT_3D ( 'NONE', #212, #74, #132 ) ;
#212 = CARTESIAN_POINT ( 'NONE',  ( 0.0000000000000000000, 0.0000000000000000000, 2.500000000000000000 ) ) ;
#213 = CARTESIAN_POINT ( 'NONE',  ( 0.03000000000000000583, 0.0000000000000000000, 2.500000000000000000 ) ) ;
#214 = CARTESIAN_POINT ( 'NONE',  ( 0.0000000000000000000, 0.0000000000000000000, 0.0000000000000000000 ) ) ;
#215 = AXIS2_PLACEMENT_3D ( 'NONE', #236, #219, #56 ) ;
#216 = SURFACE_STYLE_USAGE ( .BOTH. , #155 ) ;
#217 = ADVANCED_FACE ( 'NONE', ( #190 ), #134, .F. ) ;
#218 = CARTESIAN_POINT ( 'NONE',  ( 0.0000000000000000000, 0.0000000000000000000, 2.335455173280957197 ) ) ;
#219 = DIRECTION ( 'NONE',  ( -0.0000000000000000000, -0.0000000000000000000, -1.000000000000000000 ) ) ;
#220 = VECTOR ( 'NONE', #164, 39.37007874015748854 ) ;
#221 = ORIENTED_EDGE ( 'NONE', *, *, #230, .T. ) ;
#222 = CARTESIAN_POINT ( 'NONE',  ( 0.0000000000000000000, 0.0000000000000000000, 2.500000000000000000 ) ) ;
#223 = ORIENTED_EDGE ( 'NONE', *, *, #120, .T. ) ;
#224 = CIRCLE ( 'NONE', #149, 0.1250000000000000000 ) ;
#225 = CARTESIAN_POINT ( 'NONE',  ( 0.1250000000000000000, 1.530808498934191509E-17, 0.1645448267190428304 ) ) ;
#226 = ORIENTED_EDGE ( 'NONE', *, *, #53, .T. ) ;
#227 = LINE ( 'NONE', #172, #34 ) ;
#228 = FACE_OUTER_BOUND ( 'NONE', #90, .T. ) ;
#229 = ORIENTED_EDGE ( 'NONE', *, *, #183, .T. ) ;
#230 = EDGE_CURVE ( 'NONE', #52, #92, #170, .T. ) ;
#231 = LINE ( 'NONE', #35, #158 ) ;
#232 = DIRECTION ( 'NONE',  ( 0.0000000000000000000, 0.0000000000000000000, -1.000000000000000000 ) ) ;
#233 = FILL_AREA_STYLE ('',( #139 ) ) ;
#234 = AXIS2_PLACEMENT_3D ( 'NONE', #69, #187, #148 ) ;
#235 = AXIS2_PLACEMENT_3D ( 'NONE', #113, #136, #36 ) ;
#236 = CARTESIAN_POINT ( 'NONE',  ( 0.0000000000000000000, 0.0000000000000000000, 0.0000000000000000000 ) ) ;
#237 = VERTEX_POINT ( 'NONE', #169 ) ;
#238 = AXIS2_PLACEMENT_3D ( 'NONE', #218, #103, #41 ) ;
#239 = CARTESIAN_POINT ( 'NONE',  ( 0.03000000000000000583, 0.0000000000000000000, 0.0000000000000000000 ) ) ;
#240 = ORIENTED_EDGE ( 'NONE', *, *, #145, .T. ) ;
#241 = ORIENTED_EDGE ( 'NONE', *, *, #120, .F. ) ;
#242 = DIRECTION ( 'NONE',  ( 0.0000000000000000000, 0.0000000000000000000, 1.000000000000000000 ) ) ;
#243 = ORIENTED_EDGE ( 'NONE', *, *, #112, .T. ) ;
#244 = COLOUR_RGB ( '',0.7921568627450980005, 0.8196078431372548767, 0.9333333333333333481 ) ;
#245 = CARTESIAN_POINT ( 'NONE',  ( -0.1250000000000000000, 0.0000000000000000000, 0.1645448267190428304 ) ) ;
#246 = VERTEX_POINT ( 'NONE', #245 ) ;
#247 = FACE_OUTER_BOUND ( 'NONE', #133, .T. ) ;
#248 = ADVANCED_FACE ( 'NONE', ( #247 ), #51, .T. ) ;
#249 = DIRECTION ( 'NONE',  ( -0.0000000000000000000, -0.0000000000000000000, -1.000000000000000000 ) ) ;
ENDSEC;
END-ISO-10303-21;
