ISO-10303-21;
HEADER;
FILE_DESCRIPTION (( 'STEP AP214' ),
    '1' );
FILE_NAME ('86086.STEP',
    '2023-07-01T00:08:02',
    ( '' ),
    ( '' ),
    'SwSTEP 2.0',
    'SolidWorks 2023',
    '' );
FILE_SCHEMA (( 'AUTOMOTIVE_DESIGN' ));
ENDSEC;

DATA;
#1 =( NAMED_UNIT ( * ) SI_UNIT ( $, .STERADIAN. ) SOLID_ANGLE_UNIT ( ) );
#2 = DIMENSIONAL_EXPONENTS ( 1.000000000000000000, 0.000000000000000000, 0.000000000000000000, 0.000000000000000000, 0.000000000000000000, 0.000000000000000000, 0.000000000000000000 ) ;
#3 = MANIFOLD_SOLID_BREP ( 'Revolve - Cutting Edge', #233 ) ;
#4 = DIRECTION ( 'NONE',  ( -0.000000000000000000, -1.000000000000000000, -0.000000000000000000 ) ) ;
#5 = EDGE_LOOP ( 'NONE', ( #35, #106, #271, #176 ) ) ;
#6 = CARTESIAN_POINT ( 'NONE',  ( -6.123233995736766036E-17, 0.5000000000000000000, 0.000000000000000000 ) ) ;
#7 =( CONVERSION_BASED_UNIT ( 'INCH', #169 ) LENGTH_UNIT ( ) NAMED_UNIT ( #263 ) );
#8 = ORIENTED_EDGE ( 'NONE', *, *, #154, .T. ) ;
#9 = CARTESIAN_POINT ( 'NONE',  ( 0.000000000000000000, 4.250000000000000000, 0.000000000000000000 ) ) ;
#10 =( NAMED_UNIT ( * ) SI_UNIT ( $, .STERADIAN. ) SOLID_ANGLE_UNIT ( ) );
#11 = DIRECTION ( 'NONE',  ( -1.228390007958548453E-16, 1.000000000000000000, -0.000000000000000000 ) ) ;
#12 = FILL_AREA_STYLE_COLOUR ( '', #131 ) ;
#13 = ORIENTED_EDGE ( 'NONE', *, *, #184, .F. ) ;
#14 = DIRECTION ( 'NONE',  ( -1.000000000000000000, 0.000000000000000000, 0.000000000000000000 ) ) ;
#15 = STYLED_ITEM ( 'NONE', ( #229 ), #85 ) ;
#16 = DIRECTION ( 'NONE',  ( -1.228390007958548453E-16, 1.000000000000000000, -0.000000000000000000 ) ) ;
#17 = CARTESIAN_POINT ( 'NONE',  ( -1.224646799147351975E-16, 7.000000000000000000, 0.000000000000000000 ) ) ;
#18 = CARTESIAN_POINT ( 'NONE',  ( 2.153425722738656455E-16, 4.250000000000000000, 0.000000000000000000 ) ) ;
#19 =( LENGTH_UNIT ( ) NAMED_UNIT ( * ) SI_UNIT ( $, .METRE. ) );
#20 = SURFACE_STYLE_USAGE ( .BOTH. , #298 ) ;
#21 = DIRECTION ( 'NONE',  ( -1.228390007958548453E-16, 1.000000000000000000, 0.000000000000000000 ) ) ;
#22 = CARTESIAN_POINT ( 'NONE',  ( 0.000000000000000000, 0.000000000000000000, 0.000000000000000000 ) ) ;
#23 = ADVANCED_FACE ( 'NONE', ( #80 ), #276, .F. ) ;
#24 = CARTESIAN_POINT ( 'NONE',  ( 0.4999999999999995004, 7.000000000000000000, 6.123233995736761105E-17 ) ) ;
#25 = STYLED_ITEM ( 'NONE', ( #275 ), #232 ) ;
#26 = MECHANICAL_DESIGN_GEOMETRIC_PRESENTATION_REPRESENTATION (  '', ( #70 ), #46 ) ;
#27 = STYLED_ITEM ( 'NONE', ( #291 ), #109 ) ;
#28 = ORIENTED_EDGE ( 'NONE', *, *, #257, .T. ) ;
#29 = SURFACE_STYLE_FILL_AREA ( #216 ) ;
#30 = SURFACE_STYLE_FILL_AREA ( #313 ) ;
#31 = CARTESIAN_POINT ( 'NONE',  ( -1.224646799147351975E-16, 7.000000000000000000, 0.000000000000000000 ) ) ;
#32 = CARTESIAN_POINT ( 'NONE',  ( -6.123233995736766036E-17, 0.5000000000000000000, 0.000000000000000000 ) ) ;
#33 = ORIENTED_EDGE ( 'NONE', *, *, #184, .T. ) ;
#34 =( LENGTH_UNIT ( ) NAMED_UNIT ( * ) SI_UNIT ( $, .METRE. ) );
#35 = ORIENTED_EDGE ( 'NONE', *, *, #256, .T. ) ;
#36 = EDGE_CURVE ( 'NONE', #333, #146, #165, .T. ) ;
#37 = PRESENTATION_LAYER_ASSIGNMENT (  '', '', ( #303 ) ) ;
#38 = LENGTH_MEASURE_WITH_UNIT ( LENGTH_MEASURE( 0.02539999999999999897 ), #285 );
#39 = ORIENTED_EDGE ( 'NONE', *, *, #129, .F. ) ;
#40 = CARTESIAN_POINT ( 'NONE',  ( 0.000000000000000000, 0.000000000000000000, -0.4999999999999997224 ) ) ;
#41 = SURFACE_SIDE_STYLE ('',( #44 ) ) ;
#42 = ORIENTED_EDGE ( 'NONE', *, *, #331, .T. ) ;
#43 = APPLICATION_PROTOCOL_DEFINITION ( 'draft international standard', 'automotive_design', 1998, #124 ) ;
#44 = SURFACE_STYLE_FILL_AREA ( #334 ) ;
#45 = FILL_AREA_STYLE ('',( #162 ) ) ;
#46 =( GEOMETRIC_REPRESENTATION_CONTEXT ( 3 ) GLOBAL_UNCERTAINTY_ASSIGNED_CONTEXT ( ( #196 ) ) GLOBAL_UNIT_ASSIGNED_CONTEXT ( ( #225, #161, #363 ) ) REPRESENTATION_CONTEXT ( 'NONE', 'WORKASPACE' ) );
#47 = PRESENTATION_STYLE_ASSIGNMENT (( #337 ) ) ;
#48 = LENGTH_MEASURE_WITH_UNIT ( LENGTH_MEASURE( 0.02539999999999999897 ), #104 );
#49 = UNCERTAINTY_MEASURE_WITH_UNIT (LENGTH_MEASURE( 1.000000000000000082E-05 ), #7, 'distance_accuracy_value', 'NONE');
#50 = ORIENTED_EDGE ( 'NONE', *, *, #167, .F. ) ;
#51 = LENGTH_MEASURE_WITH_UNIT ( LENGTH_MEASURE( 0.02539999999999999897 ), #160 );
#52 = ADVANCED_FACE ( 'NONE', ( #251 ), #357, .T. ) ;
#53 = STYLED_ITEM ( 'NONE', ( #47 ), #79 ) ;
#54 = AXIS2_PLACEMENT_3D ( 'NONE', #32, #143, #87 ) ;
#55 = AXIS2_PLACEMENT_3D ( 'NONE', #22, #360, #134 ) ;
#56 = CARTESIAN_POINT ( 'NONE',  ( 0.000000000000000000, 0.000000000000000000, 0.000000000000000000 ) ) ;
#57 =( NAMED_UNIT ( * ) PLANE_ANGLE_UNIT ( ) SI_UNIT ( $, .RADIAN. ) );
#58 = APPLICATION_CONTEXT ( 'automotive_design' ) ;
#59 =( CONVERSION_BASED_UNIT ( 'INCH', #253 ) LENGTH_UNIT ( ) NAMED_UNIT ( #207 ) );
#60 = PRODUCT_DEFINITION ( 'UNKNOWN', '', #205, #353 ) ;
#61 = CARTESIAN_POINT ( 'NONE',  ( -0.4999999999999990563, 4.250000000000000000, 0.000000000000000000 ) ) ;
#62 = COLOUR_RGB ( '',1.000000000000000000, 0.000000000000000000, 0.000000000000000000 ) ;
#63 = VERTEX_POINT ( 'NONE', #304 ) ;
#64 =( NAMED_UNIT ( * ) PLANE_ANGLE_UNIT ( ) SI_UNIT ( $, .RADIAN. ) );
#65 = ORIENTED_EDGE ( 'NONE', *, *, #299, .T. ) ;
#66 = DIRECTION ( 'NONE',  ( 0.000000000000000000, 0.000000000000000000, -1.000000000000000000 ) ) ;
#67 = UNCERTAINTY_MEASURE_WITH_UNIT (LENGTH_MEASURE( 1.000000000000000082E-05 ), #145, 'distance_accuracy_value', 'NONE');
#68 = DIRECTION ( 'NONE',  ( -1.228390007958548453E-16, 1.000000000000000000, -0.000000000000000000 ) ) ;
#69 = CARTESIAN_POINT ( 'NONE',  ( 0.000000000000000000, 4.250000000000000000, -0.4999999999999994449 ) ) ;
#70 = STYLED_ITEM ( 'NONE', ( #301 ), #3 ) ;
#71 = AXIS2_PLACEMENT_3D ( 'NONE', #82, #202, #369 ) ;
#72 = PRESENTATION_LAYER_ASSIGNMENT (  '', '', ( #25 ) ) ;
#73 = DIRECTION ( 'NONE',  ( -0.000000000000000000, -1.000000000000000000, -0.000000000000000000 ) ) ;
#74 = CARTESIAN_POINT ( 'NONE',  ( 6.123233995736763571E-17, 0.000000000000000000, 0.4999999999999997224 ) ) ;
#75 = FILL_AREA_STYLE_COLOUR ( '', #62 ) ;
#76 = CARTESIAN_POINT ( 'NONE',  ( 0.000000000000000000, 0.5000000000000001110, -0.5000000000000000000 ) ) ;
#77 = SURFACE_SIDE_STYLE ('',( #228 ) ) ;
#78 = AXIS2_PLACEMENT_3D ( 'NONE', #324, #128, #270 ) ;
#79 = ADVANCED_FACE ( 'NONE', ( #133 ), #189, .T. ) ;
#80 = FACE_OUTER_BOUND ( 'NONE', #359, .T. ) ;
#81 = MECHANICAL_DESIGN_GEOMETRIC_PRESENTATION_REPRESENTATION (  '', ( #303 ), #149 ) ;
#82 = CARTESIAN_POINT ( 'NONE',  ( -6.123233995736766036E-17, 0.5000000000000000000, 0.000000000000000000 ) ) ;
#83 =( LENGTH_UNIT ( ) NAMED_UNIT ( * ) SI_UNIT ( $, .METRE. ) );
#84 = PRESENTATION_LAYER_ASSIGNMENT (  '', '', ( #27 ) ) ;
#85 = ADVANCED_FACE ( 'NONE', ( #281 ), #312, .T. ) ;
#86 = SURFACE_STYLE_USAGE ( .BOTH. , #90 ) ;
#87 = DIRECTION ( 'NONE',  ( 1.000000000000000000, 0.000000000000000000, 0.000000000000000000 ) ) ;
#88 = VERTEX_POINT ( 'NONE', #24 ) ;
#89 = DIMENSIONAL_EXPONENTS ( 1.000000000000000000, 0.000000000000000000, 0.000000000000000000, 0.000000000000000000, 0.000000000000000000, 0.000000000000000000, 0.000000000000000000 ) ;
#90 = SURFACE_SIDE_STYLE ('',( #94 ) ) ;
#91 = CIRCLE ( 'NONE', #329, 0.4999999999999996114 ) ;
#92 = EDGE_LOOP ( 'NONE', ( #39, #151, #65, #296 ) ) ;
#93 = LINE ( 'NONE', #40, #362 ) ;
#94 = SURFACE_STYLE_FILL_AREA ( #126 ) ;
#95 = EDGE_CURVE ( 'NONE', #269, #323, #224, .T. ) ;
#96 = CARTESIAN_POINT ( 'NONE',  ( 0.000000000000000000, 4.250000000000000000, 0.000000000000000000 ) ) ;
#97 = PRESENTATION_STYLE_ASSIGNMENT (( #322 ) ) ;
#98 = DIRECTION ( 'NONE',  ( 1.000000000000000000, 1.228390007958548453E-16, 0.000000000000000000 ) ) ;
#99 = AXIS2_PLACEMENT_3D ( 'NONE', #138, #111, #310 ) ;
#100 = ORIENTED_EDGE ( 'NONE', *, *, #201, .F. ) ;
#101 = CARTESIAN_POINT ( 'NONE',  ( 2.153425722738656455E-16, 4.250000000000000000, 0.000000000000000000 ) ) ;
#102 = DIRECTION ( 'NONE',  ( -0.000000000000000000, -1.000000000000000000, -0.000000000000000000 ) ) ;
#103 = AXIS2_PLACEMENT_3D ( 'NONE', #245, #213, #272 ) ;
#104 =( LENGTH_UNIT ( ) NAMED_UNIT ( * ) SI_UNIT ( $, .METRE. ) );
#105 = EDGE_CURVE ( 'NONE', #290, #323, #166, .T. ) ;
#106 = ORIENTED_EDGE ( 'NONE', *, *, #129, .T. ) ;
#107 = APPLICATION_PROTOCOL_DEFINITION ( 'draft international standard', 'automotive_design', 1998, #58 ) ;
#108 = EDGE_LOOP ( 'NONE', ( #132, #240 ) ) ;
#109 = ADVANCED_FACE ( 'NONE', ( #118 ), #265, .T. ) ;
#110 = AXIS2_PLACEMENT_3D ( 'NONE', #152, #328, #66 ) ;
#111 = DIRECTION ( 'NONE',  ( 1.224646799147353207E-16, -0.000000000000000000, 1.000000000000000000 ) ) ;
#112 =( NAMED_UNIT ( * ) PLANE_ANGLE_UNIT ( ) SI_UNIT ( $, .RADIAN. ) );
#113 = AXIS2_PLACEMENT_3D ( 'NONE', #188, #355, #358 ) ;
#114 = COLOUR_RGB ( '',1.000000000000000000, 0.000000000000000000, 0.000000000000000000 ) ;
#115 = SURFACE_STYLE_FILL_AREA ( #366 ) ;
#116 = CYLINDRICAL_SURFACE ( 'NONE', #103, 0.4999999999999994449 ) ;
#117 = MANIFOLD_SOLID_BREP ( 'Revolve - Tool Body (Straight Shanked)', #293 ) ;
#118 = FACE_OUTER_BOUND ( 'NONE', #137, .T. ) ;
#119 = ORIENTED_EDGE ( 'NONE', *, *, #95, .F. ) ;
#120 = FILL_AREA_STYLE_COLOUR ( '', #114 ) ;
#121 = ORIENTED_EDGE ( 'NONE', *, *, #342, .T. ) ;
#122 = CARTESIAN_POINT ( 'NONE',  ( 6.123233995736761105E-17, 4.250000000000000000, 0.4999999999999994449 ) ) ;
#123 = EDGE_LOOP ( 'NONE', ( #305, #344 ) ) ;
#124 = APPLICATION_CONTEXT ( 'automotive_design' ) ;
#125 = DIRECTION ( 'NONE',  ( 0.000000000000000000, 0.000000000000000000, -1.000000000000000000 ) ) ;
#126 = FILL_AREA_STYLE ('',( #12 ) ) ;
#127 = ORIENTED_EDGE ( 'NONE', *, *, #342, .F. ) ;
#128 = DIRECTION ( 'NONE',  ( -0.000000000000000000, -1.000000000000000000, -0.000000000000000000 ) ) ;
#129 = EDGE_CURVE ( 'NONE', #333, #88, #350, .T. ) ;
#130 = LENGTH_MEASURE_WITH_UNIT ( LENGTH_MEASURE( 0.02539999999999999897 ), #273 );
#131 = COLOUR_RGB ( '',0.7921568627450980005, 0.8196078431372548767, 0.9333333333333333481 ) ;
#132 = ORIENTED_EDGE ( 'NONE', *, *, #331, .F. ) ;
#133 = FACE_OUTER_BOUND ( 'NONE', #108, .T. ) ;
#134 = DIRECTION ( 'NONE',  ( 1.000000000000000000, 0.000000000000000000, 0.000000000000000000 ) ) ;
#135 = DIRECTION ( 'NONE',  ( -1.000000000000000000, 0.000000000000000000, 0.000000000000000000 ) ) ;
#136 = ORIENTED_EDGE ( 'NONE', *, *, #167, .T. ) ;
#137 = EDGE_LOOP ( 'NONE', ( #136, #227, #316, #33 ) ) ;
#138 = CARTESIAN_POINT ( 'NONE',  ( -6.123233995736766036E-17, 0.5000000000000000000, 0.000000000000000000 ) ) ;
#139 = CIRCLE ( 'NONE', #78, 0.5000000000000000000 ) ;
#140 = LENGTH_MEASURE_WITH_UNIT ( LENGTH_MEASURE( 0.02539999999999999897 ), #83 );
#141 = AXIS2_PLACEMENT_3D ( 'NONE', #17, #330, #192 ) ;
#142 = DIRECTION ( 'NONE',  ( -1.000000000000000000, 0.000000000000000000, 0.000000000000000000 ) ) ;
#143 = DIRECTION ( 'NONE',  ( 0.000000000000000000, 0.000000000000000000, 1.000000000000000000 ) ) ;
#144 = SPHERICAL_SURFACE ( 'NONE', #348, 0.5000000000000000000 ) ;
#145 =( CONVERSION_BASED_UNIT ( 'INCH', #38 ) LENGTH_UNIT ( ) NAMED_UNIT ( #89 ) );
#146 = VERTEX_POINT ( 'NONE', #61 ) ;
#147 = DIMENSIONAL_EXPONENTS ( 1.000000000000000000, 0.000000000000000000, 0.000000000000000000, 0.000000000000000000, 0.000000000000000000, 0.000000000000000000, 0.000000000000000000 ) ;
#148 =( CONVERSION_BASED_UNIT ( 'INCH', #262 ) LENGTH_UNIT ( ) NAMED_UNIT ( #373 ) );
#149 =( GEOMETRIC_REPRESENTATION_CONTEXT ( 3 ) GLOBAL_UNCERTAINTY_ASSIGNED_CONTEXT ( ( #49 ) ) GLOBAL_UNIT_ASSIGNED_CONTEXT ( ( #7, #64, #1 ) ) REPRESENTATION_CONTEXT ( 'NONE', 'WORKASPACE' ) );
#150 = MECHANICAL_DESIGN_GEOMETRIC_PRESENTATION_REPRESENTATION (  '', ( #226 ), #286 ) ;
#151 = ORIENTED_EDGE ( 'NONE', *, *, #36, .T. ) ;
#152 = CARTESIAN_POINT ( 'NONE',  ( 0.000000000000000000, 0.000000000000000000, 0.000000000000000000 ) ) ;
#153 = VERTEX_POINT ( 'NONE', #122 ) ;
#154 = EDGE_CURVE ( 'NONE', #153, #307, #338, .T. ) ;
#155 =( NAMED_UNIT ( * ) SI_UNIT ( $, .STERADIAN. ) SOLID_ANGLE_UNIT ( ) );
#156 = SURFACE_STYLE_USAGE ( .BOTH. , #41 ) ;
#157 =( NAMED_UNIT ( * ) PLANE_ANGLE_UNIT ( ) SI_UNIT ( $, .RADIAN. ) );
#158 = DIRECTION ( 'NONE',  ( 0.000000000000000000, 0.000000000000000000, -1.000000000000000000 ) ) ;
#159 = CIRCLE ( 'NONE', #200, 0.5000000000000000000 ) ;
#160 =( LENGTH_UNIT ( ) NAMED_UNIT ( * ) SI_UNIT ( $, .METRE. ) );
#161 =( NAMED_UNIT ( * ) PLANE_ANGLE_UNIT ( ) SI_UNIT ( $, .RADIAN. ) );
#162 = FILL_AREA_STYLE_COLOUR ( '', #249 ) ;
#163 = CIRCLE ( 'NONE', #113, 0.5000000000000000000 ) ;
#164 = DIRECTION ( 'NONE',  ( -0.000000000000000000, -1.000000000000000000, -0.000000000000000000 ) ) ;
#165 = CIRCLE ( 'NONE', #223, 0.4999999999999992228 ) ;
#166 = CIRCLE ( 'NONE', #71, 0.5000000000000000000 ) ;
#167 = EDGE_CURVE ( 'NONE', #346, #269, #159, .T. ) ;
#168 =( NAMED_UNIT ( * ) SI_UNIT ( $, .STERADIAN. ) SOLID_ANGLE_UNIT ( ) );
#169 = LENGTH_MEASURE_WITH_UNIT ( LENGTH_MEASURE( 0.02539999999999999897 ), #34 );
#170 = ADVANCED_FACE ( 'NONE', ( #209 ), #181, .F. ) ;
#171 = CARTESIAN_POINT ( 'NONE',  ( -0.5000000000000000000, 0.5000000000000001110, 6.123233995736764803E-17 ) ) ;
#172 = CIRCLE ( 'NONE', #230, 0.5000000000000000000 ) ;
#173 = DIRECTION ( 'NONE',  ( 0.000000000000000000, 0.000000000000000000, -1.000000000000000000 ) ) ;
#174 = VERTEX_POINT ( 'NONE', #76 ) ;
#175 = CARTESIAN_POINT ( 'NONE',  ( 0.4999999999999994449, 7.000000000000000000, 0.000000000000000000 ) ) ;
#176 = ORIENTED_EDGE ( 'NONE', *, *, #299, .F. ) ;
#177 = ADVANCED_BREP_SHAPE_REPRESENTATION ( '86086', ( #3, #117, #55 ), #195 ) ;
#178 =( LENGTH_UNIT ( ) NAMED_UNIT ( * ) SI_UNIT ( $, .METRE. ) );
#179 = CARTESIAN_POINT ( 'NONE',  ( 0.4999999999999995004, 4.250000000000000000, 6.123233995736761105E-17 ) ) ;
#180 = UNCERTAINTY_MEASURE_WITH_UNIT (LENGTH_MEASURE( 1.000000000000000082E-05 ), #278, 'distance_accuracy_value', 'NONE');
#181 = PLANE ( 'NONE',  #268 ) ;
#182 = AXIS2_PLACEMENT_3D ( 'NONE', #56, #164, #284 ) ;
#183 = EDGE_LOOP ( 'NONE', ( #100, #8, #121, #198, #50 ) ) ;
#184 = EDGE_CURVE ( 'NONE', #290, #346, #172, .T. ) ;
#185 = CARTESIAN_POINT ( 'NONE',  ( 6.123233995736766036E-17, 0.5000000000000001110, 0.4999999999999999445 ) ) ;
#186 = FACE_OUTER_BOUND ( 'NONE', #199, .T. ) ;
#187 = DIRECTION ( 'NONE',  ( 1.000000000000000000, 0.000000000000000000, 0.000000000000000000 ) ) ;
#188 = CARTESIAN_POINT ( 'NONE',  ( 0.000000000000000000, 0.5000000000000001110, 0.000000000000000000 ) ) ;
#189 = PLANE ( 'NONE',  #327 ) ;
#190 = PRODUCT_RELATED_PRODUCT_CATEGORY ( 'part', '', ( #236 ) ) ;
#191 = SHAPE_DEFINITION_REPRESENTATION ( #341, #177 ) ;
#192 = DIRECTION ( 'NONE',  ( -1.000000000000000000, 0.000000000000000000, 0.000000000000000000 ) ) ;
#193 = COLOUR_RGB ( '',1.000000000000000000, 0.000000000000000000, 0.000000000000000000 ) ;
#194 = SURFACE_STYLE_FILL_AREA ( #45 ) ;
#195 =( GEOMETRIC_REPRESENTATION_CONTEXT ( 3 ) GLOBAL_UNCERTAINTY_ASSIGNED_CONTEXT ( ( #180 ) ) GLOBAL_UNIT_ASSIGNED_CONTEXT ( ( #278, #157, #306 ) ) REPRESENTATION_CONTEXT ( 'NONE', 'WORKASPACE' ) );
#196 = UNCERTAINTY_MEASURE_WITH_UNIT (LENGTH_MEASURE( 1.000000000000000082E-05 ), #225, 'distance_accuracy_value', 'NONE');
#197 = EDGE_CURVE ( 'NONE', #63, #88, #234, .T. ) ;
#198 = ORIENTED_EDGE ( 'NONE', *, *, #203, .F. ) ;
#199 = EDGE_LOOP ( 'NONE', ( #42, #352, #13, #215, #127 ) ) ;
#200 = AXIS2_PLACEMENT_3D ( 'NONE', #320, #326, #173 ) ;
#201 = EDGE_CURVE ( 'NONE', #153, #346, #221, .T. ) ;
#202 = DIRECTION ( 'NONE',  ( 0.000000000000000000, 0.000000000000000000, -1.000000000000000000 ) ) ;
#203 = EDGE_CURVE ( 'NONE', #269, #174, #163, .T. ) ;
#204 = MECHANICAL_DESIGN_GEOMETRIC_PRESENTATION_REPRESENTATION (  '', ( #27 ), #242 ) ;
#205 = PRODUCT_DEFINITION_FORMATION_WITH_SPECIFIED_SOURCE ( 'ANY', '', #236, .NOT_KNOWN. ) ;
#206 =( NAMED_UNIT ( * ) SI_UNIT ( $, .STERADIAN. ) SOLID_ANGLE_UNIT ( ) );
#207 = DIMENSIONAL_EXPONENTS ( 1.000000000000000000, 0.000000000000000000, 0.000000000000000000, 0.000000000000000000, 0.000000000000000000, 0.000000000000000000, 0.000000000000000000 ) ;
#208 = CIRCLE ( 'NONE', #259, 0.4999999999999992228 ) ;
#209 = FACE_OUTER_BOUND ( 'NONE', #123, .T. ) ;
#210 = ORIENTED_EDGE ( 'NONE', *, *, #105, .T. ) ;
#211 = CARTESIAN_POINT ( 'NONE',  ( -0.4999999999999996114, 7.000000000000000000, 0.000000000000000000 ) ) ;
#212 = DIMENSIONAL_EXPONENTS ( 1.000000000000000000, 0.000000000000000000, 0.000000000000000000, 0.000000000000000000, 0.000000000000000000, 0.000000000000000000, 0.000000000000000000 ) ;
#213 = DIRECTION ( 'NONE',  ( -1.228390007958548453E-16, 1.000000000000000000, -0.000000000000000000 ) ) ;
#214 = DIRECTION ( 'NONE',  ( 0.000000000000000000, 0.000000000000000000, -1.000000000000000000 ) ) ;
#215 = ORIENTED_EDGE ( 'NONE', *, *, #257, .F. ) ;
#216 = FILL_AREA_STYLE ('',( #120 ) ) ;
#217 = AXIS2_PLACEMENT_3D ( 'NONE', #222, #220, #364 ) ;
#218 = DIRECTION ( 'NONE',  ( 1.228390007958548453E-16, -1.000000000000000000, 0.000000000000000000 ) ) ;
#219 = ORIENTED_EDGE ( 'NONE', *, *, #256, .F. ) ;
#220 = DIRECTION ( 'NONE',  ( -1.228390007958548453E-16, 1.000000000000000000, -0.000000000000000000 ) ) ;
#221 = LINE ( 'NONE', #74, #367 ) ;
#222 = CARTESIAN_POINT ( 'NONE',  ( -1.224646799147351975E-16, 7.000000000000000000, 0.000000000000000000 ) ) ;
#223 = AXIS2_PLACEMENT_3D ( 'NONE', #18, #277, #14 ) ;
#224 = CIRCLE ( 'NONE', #99, 0.5000000000000000000 ) ;
#225 =( CONVERSION_BASED_UNIT ( 'INCH', #51 ) LENGTH_UNIT ( ) NAMED_UNIT ( #212 ) );
#226 = STYLED_ITEM ( 'NONE', ( #97 ), #354 ) ;
#227 = ORIENTED_EDGE ( 'NONE', *, *, #95, .T. ) ;
#228 = SURFACE_STYLE_FILL_AREA ( #335 ) ;
#229 = PRESENTATION_STYLE_ASSIGNMENT (( #340 ) ) ;
#230 = AXIS2_PLACEMENT_3D ( 'NONE', #332, #300, #158 ) ;
#231 = DIRECTION ( 'NONE',  ( 0.000000000000000000, -0.000000000000000000, 1.000000000000000000 ) ) ;
#232 = ADVANCED_FACE ( 'NONE', ( #186 ), #297, .T. ) ;
#233 = CLOSED_SHELL ( 'NONE', ( #109, #232, #79, #85, #354 ) ) ;
#234 = CIRCLE ( 'NONE', #141, 0.4999999999999996114 ) ;
#235 = DIRECTION ( 'NONE',  ( 0.000000000000000000, 1.000000000000000000, 0.000000000000000000 ) ) ;
#236 = PRODUCT ( '86086', '86086', '', ( #254 ) ) ;
#237 = ADVANCED_FACE ( 'NONE', ( #345 ), #116, .T. ) ;
#238 =( NAMED_UNIT ( * ) PLANE_ANGLE_UNIT ( ) SI_UNIT ( $, .RADIAN. ) );
#239 = SURFACE_SIDE_STYLE ('',( #30 ) ) ;
#240 = ORIENTED_EDGE ( 'NONE', *, *, #154, .F. ) ;
#241 =( NAMED_UNIT ( * ) PLANE_ANGLE_UNIT ( ) SI_UNIT ( $, .RADIAN. ) );
#242 =( GEOMETRIC_REPRESENTATION_CONTEXT ( 3 ) GLOBAL_UNCERTAINTY_ASSIGNED_CONTEXT ( ( #67 ) ) GLOBAL_UNIT_ASSIGNED_CONTEXT ( ( #145, #243, #10 ) ) REPRESENTATION_CONTEXT ( 'NONE', 'WORKASPACE' ) );
#243 =( NAMED_UNIT ( * ) PLANE_ANGLE_UNIT ( ) SI_UNIT ( $, .RADIAN. ) );
#244 = DIMENSIONAL_EXPONENTS ( 1.000000000000000000, 0.000000000000000000, 0.000000000000000000, 0.000000000000000000, 0.000000000000000000, 0.000000000000000000, 0.000000000000000000 ) ;
#245 = CARTESIAN_POINT ( 'NONE',  ( -1.224646799147351975E-16, 7.000000000000000000, 0.000000000000000000 ) ) ;
#246 = SURFACE_STYLE_USAGE ( .BOTH. , #239 ) ;
#247 = DIRECTION ( 'NONE',  ( 0.000000000000000000, 0.000000000000000000, 1.000000000000000000 ) ) ;
#248 = LINE ( 'NONE', #211, #283 ) ;
#249 = COLOUR_RGB ( '',0.7921568627450980005, 0.8196078431372548767, 0.9333333333333333481 ) ;
#250 =( CONVERSION_BASED_UNIT ( 'INCH', #130 ) LENGTH_UNIT ( ) NAMED_UNIT ( #244 ) );
#251 = FACE_OUTER_BOUND ( 'NONE', #92, .T. ) ;
#252 = FILL_AREA_STYLE_COLOUR ( '', #302 ) ;
#253 = LENGTH_MEASURE_WITH_UNIT ( LENGTH_MEASURE( 0.02539999999999999897 ), #19 );
#254 = PRODUCT_CONTEXT ( 'NONE', #58, 'mechanical' ) ;
#255 = AXIS2_PLACEMENT_3D ( 'NONE', #96, #4, #214 ) ;
#256 = EDGE_CURVE ( 'NONE', #146, #333, #208, .T. ) ;
#257 = EDGE_CURVE ( 'NONE', #174, #290, #139, .T. ) ;
#258 = SURFACE_SIDE_STYLE ('',( #115 ) ) ;
#259 = AXIS2_PLACEMENT_3D ( 'NONE', #101, #349, #142 ) ;
#260 =( CONVERSION_BASED_UNIT ( 'INCH', #140 ) LENGTH_UNIT ( ) NAMED_UNIT ( #147 ) );
#261 = MECHANICAL_DESIGN_GEOMETRIC_PRESENTATION_REPRESENTATION (  '', ( #53 ), #347 ) ;
#262 = LENGTH_MEASURE_WITH_UNIT ( LENGTH_MEASURE( 0.02539999999999999897 ), #178 );
#263 = DIMENSIONAL_EXPONENTS ( 1.000000000000000000, 0.000000000000000000, 0.000000000000000000, 0.000000000000000000, 0.000000000000000000, 0.000000000000000000, 0.000000000000000000 ) ;
#264 = SURFACE_SIDE_STYLE ('',( #29 ) ) ;
#265 = SPHERICAL_SURFACE ( 'NONE', #54, 0.5000000000000000000 ) ;
#266 = EDGE_LOOP ( 'NONE', ( #119, #321, #28, #210 ) ) ;
#267 =( NAMED_UNIT ( * ) SI_UNIT ( $, .STERADIAN. ) SOLID_ANGLE_UNIT ( ) );
#268 = AXIS2_PLACEMENT_3D ( 'NONE', #175, #218, #98 ) ;
#269 = VERTEX_POINT ( 'NONE', #171 ) ;
#270 = DIRECTION ( 'NONE',  ( 0.000000000000000000, 0.000000000000000000, -1.000000000000000000 ) ) ;
#271 = ORIENTED_EDGE ( 'NONE', *, *, #197, .F. ) ;
#272 = DIRECTION ( 'NONE',  ( -1.000000000000000000, 0.000000000000000000, 0.000000000000000000 ) ) ;
#273 =( LENGTH_UNIT ( ) NAMED_UNIT ( * ) SI_UNIT ( $, .METRE. ) );
#274 = DIRECTION ( 'NONE',  ( -1.000000000000000000, -1.228390007958548453E-16, 0.000000000000000000 ) ) ;
#275 = PRESENTATION_STYLE_ASSIGNMENT (( #156 ) ) ;
#276 = PLANE ( 'NONE',  #282 ) ;
#277 = DIRECTION ( 'NONE',  ( -1.228390007958548453E-16, 1.000000000000000000, -0.000000000000000000 ) ) ;
#278 =( CONVERSION_BASED_UNIT ( 'INCH', #48 ) LENGTH_UNIT ( ) NAMED_UNIT ( #2 ) );
#279 = PRESENTATION_LAYER_ASSIGNMENT (  '', '', ( #70 ) ) ;
#280 = CARTESIAN_POINT ( 'NONE',  ( 2.153425722738655716E-16, 4.250000000000000000, 0.000000000000000000 ) ) ;
#281 = FACE_OUTER_BOUND ( 'NONE', #183, .T. ) ;
#282 = AXIS2_PLACEMENT_3D ( 'NONE', #280, #21, #274 ) ;
#283 = VECTOR ( 'NONE', #11, 39.37007874015748143 ) ;
#284 = DIRECTION ( 'NONE',  ( 0.000000000000000000, 0.000000000000000000, -1.000000000000000000 ) ) ;
#285 =( LENGTH_UNIT ( ) NAMED_UNIT ( * ) SI_UNIT ( $, .METRE. ) );
#286 =( GEOMETRIC_REPRESENTATION_CONTEXT ( 3 ) GLOBAL_UNCERTAINTY_ASSIGNED_CONTEXT ( ( #370 ) ) GLOBAL_UNIT_ASSIGNED_CONTEXT ( ( #148, #238, #267 ) ) REPRESENTATION_CONTEXT ( 'NONE', 'WORKASPACE' ) );
#287 = DIRECTION ( 'NONE',  ( -0.000000000000000000, -1.000000000000000000, -0.000000000000000000 ) ) ;
#288 = PRESENTATION_STYLE_ASSIGNMENT (( #86 ) ) ;
#289 = CARTESIAN_POINT ( 'NONE',  ( 0.5000000000000000000, 0.5000000000000001110, 0.000000000000000000 ) ) ;
#290 = VERTEX_POINT ( 'NONE', #289 ) ;
#291 = PRESENTATION_STYLE_ASSIGNMENT (( #246 ) ) ;
#292 = ORIENTED_EDGE ( 'NONE', *, *, #36, .F. ) ;
#293 = CLOSED_SHELL ( 'NONE', ( #237, #23, #52, #170 ) ) ;
#294 = FACE_OUTER_BOUND ( 'NONE', #266, .T. ) ;
#295 = PRESENTATION_LAYER_ASSIGNMENT (  '', '', ( #15 ) ) ;
#296 = ORIENTED_EDGE ( 'NONE', *, *, #365, .F. ) ;
#297 = CYLINDRICAL_SURFACE ( 'NONE', #110, 0.4999999999999997224 ) ;
#298 = SURFACE_SIDE_STYLE ('',( #194 ) ) ;
#299 = EDGE_CURVE ( 'NONE', #146, #63, #248, .T. ) ;
#300 = DIRECTION ( 'NONE',  ( -0.000000000000000000, -1.000000000000000000, -0.000000000000000000 ) ) ;
#301 = PRESENTATION_STYLE_ASSIGNMENT (( #20 ) ) ;
#302 = COLOUR_RGB ( '',1.000000000000000000, 0.000000000000000000, 0.000000000000000000 ) ;
#303 = STYLED_ITEM ( 'NONE', ( #288 ), #117 ) ;
#304 = CARTESIAN_POINT ( 'NONE',  ( -0.4999999999999997224, 7.000000000000000000, 0.000000000000000000 ) ) ;
#305 = ORIENTED_EDGE ( 'NONE', *, *, #197, .T. ) ;
#306 =( NAMED_UNIT ( * ) SI_UNIT ( $, .STERADIAN. ) SOLID_ANGLE_UNIT ( ) );
#307 = VERTEX_POINT ( 'NONE', #69 ) ;
#308 = PRESENTATION_LAYER_ASSIGNMENT (  '', '', ( #53 ) ) ;
#309 = MECHANICAL_DESIGN_GEOMETRIC_PRESENTATION_REPRESENTATION (  '', ( #15 ), #317 ) ;
#310 = DIRECTION ( 'NONE',  ( 1.000000000000000000, 0.000000000000000000, -1.224646799147353207E-16 ) ) ;
#311 = CIRCLE ( 'NONE', #339, 0.4999999999999994449 ) ;
#312 = CYLINDRICAL_SURFACE ( 'NONE', #182, 0.4999999999999997224 ) ;
#313 = FILL_AREA_STYLE ('',( #351 ) ) ;
#314 = CARTESIAN_POINT ( 'NONE',  ( -3.061616997868383018E-17, 0.000000000000000000, 0.000000000000000000 ) ) ;
#315 = CARTESIAN_POINT ( 'NONE',  ( 0.4999999999999993339, 7.000000000000000000, 6.123233995736758640E-17 ) ) ;
#316 = ORIENTED_EDGE ( 'NONE', *, *, #105, .F. ) ;
#317 =( GEOMETRIC_REPRESENTATION_CONTEXT ( 3 ) GLOBAL_UNCERTAINTY_ASSIGNED_CONTEXT ( ( #319 ) ) GLOBAL_UNIT_ASSIGNED_CONTEXT ( ( #260, #112, #206 ) ) REPRESENTATION_CONTEXT ( 'NONE', 'WORKASPACE' ) );
#318 = PRESENTATION_LAYER_ASSIGNMENT (  '', '', ( #226 ) ) ;
#319 = UNCERTAINTY_MEASURE_WITH_UNIT (LENGTH_MEASURE( 1.000000000000000082E-05 ), #260, 'distance_accuracy_value', 'NONE');
#320 = CARTESIAN_POINT ( 'NONE',  ( 0.000000000000000000, 0.5000000000000001110, 0.000000000000000000 ) ) ;
#321 = ORIENTED_EDGE ( 'NONE', *, *, #203, .T. ) ;
#322 = SURFACE_STYLE_USAGE ( .BOTH. , #264 ) ;
#323 = VERTEX_POINT ( 'NONE', #314 ) ;
#324 = CARTESIAN_POINT ( 'NONE',  ( 0.000000000000000000, 0.5000000000000001110, 0.000000000000000000 ) ) ;
#325 = UNCERTAINTY_MEASURE_WITH_UNIT (LENGTH_MEASURE( 1.000000000000000082E-05 ), #59, 'distance_accuracy_value', 'NONE');
#326 = DIRECTION ( 'NONE',  ( -0.000000000000000000, -1.000000000000000000, -0.000000000000000000 ) ) ;
#327 = AXIS2_PLACEMENT_3D ( 'NONE', #371, #235, #231 ) ;
#328 = DIRECTION ( 'NONE',  ( -0.000000000000000000, -1.000000000000000000, -0.000000000000000000 ) ) ;
#329 = AXIS2_PLACEMENT_3D ( 'NONE', #31, #16, #135 ) ;
#330 = DIRECTION ( 'NONE',  ( -1.228390007958548453E-16, 1.000000000000000000, -0.000000000000000000 ) ) ;
#331 = EDGE_CURVE ( 'NONE', #307, #153, #311, .T. ) ;
#332 = CARTESIAN_POINT ( 'NONE',  ( 0.000000000000000000, 0.5000000000000001110, 0.000000000000000000 ) ) ;
#333 = VERTEX_POINT ( 'NONE', #179 ) ;
#334 = FILL_AREA_STYLE ('',( #75 ) ) ;
#335 = FILL_AREA_STYLE ('',( #252 ) ) ;
#336 = UNCERTAINTY_MEASURE_WITH_UNIT (LENGTH_MEASURE( 1.000000000000000082E-05 ), #250, 'distance_accuracy_value', 'NONE');
#337 = SURFACE_STYLE_USAGE ( .BOTH. , #77 ) ;
#338 = CIRCLE ( 'NONE', #255, 0.4999999999999994449 ) ;
#339 = AXIS2_PLACEMENT_3D ( 'NONE', #9, #73, #125 ) ;
#340 = SURFACE_STYLE_USAGE ( .BOTH. , #258 ) ;
#341 = PRODUCT_DEFINITION_SHAPE ( 'NONE', 'NONE',  #60 ) ;
#342 = EDGE_CURVE ( 'NONE', #307, #174, #93, .T. ) ;
#343 = VECTOR ( 'NONE', #68, 39.37007874015748143 ) ;
#344 = ORIENTED_EDGE ( 'NONE', *, *, #365, .T. ) ;
#345 = FACE_OUTER_BOUND ( 'NONE', #5, .T. ) ;
#346 = VERTEX_POINT ( 'NONE', #185 ) ;
#347 =( GEOMETRIC_REPRESENTATION_CONTEXT ( 3 ) GLOBAL_UNCERTAINTY_ASSIGNED_CONTEXT ( ( #325 ) ) GLOBAL_UNIT_ASSIGNED_CONTEXT ( ( #59, #57, #168 ) ) REPRESENTATION_CONTEXT ( 'NONE', 'WORKASPACE' ) );
#348 = AXIS2_PLACEMENT_3D ( 'NONE', #6, #247, #187 ) ;
#349 = DIRECTION ( 'NONE',  ( -1.228390007958548453E-16, 1.000000000000000000, -0.000000000000000000 ) ) ;
#350 = LINE ( 'NONE', #315, #343 ) ;
#351 = FILL_AREA_STYLE_COLOUR ( '', #193 ) ;
#352 = ORIENTED_EDGE ( 'NONE', *, *, #201, .T. ) ;
#353 = PRODUCT_DEFINITION_CONTEXT ( 'detailed design', #124, 'design' ) ;
#354 = ADVANCED_FACE ( 'NONE', ( #294 ), #144, .T. ) ;
#355 = DIRECTION ( 'NONE',  ( -0.000000000000000000, -1.000000000000000000, -0.000000000000000000 ) ) ;
#356 =( GEOMETRIC_REPRESENTATION_CONTEXT ( 3 ) GLOBAL_UNCERTAINTY_ASSIGNED_CONTEXT ( ( #336 ) ) GLOBAL_UNIT_ASSIGNED_CONTEXT ( ( #250, #241, #155 ) ) REPRESENTATION_CONTEXT ( 'NONE', 'WORKASPACE' ) );
#357 = CYLINDRICAL_SURFACE ( 'NONE', #217, 0.4999999999999994449 ) ;
#358 = DIRECTION ( 'NONE',  ( 0.000000000000000000, 0.000000000000000000, -1.000000000000000000 ) ) ;
#359 = EDGE_LOOP ( 'NONE', ( #219, #292 ) ) ;
#360 = DIRECTION ( 'NONE',  ( 0.000000000000000000, 0.000000000000000000, 1.000000000000000000 ) ) ;
#361 = COLOUR_RGB ( '',1.000000000000000000, 0.000000000000000000, 0.000000000000000000 ) ;
#362 = VECTOR ( 'NONE', #287, 39.37007874015748143 ) ;
#363 =( NAMED_UNIT ( * ) SI_UNIT ( $, .STERADIAN. ) SOLID_ANGLE_UNIT ( ) );
#364 = DIRECTION ( 'NONE',  ( -1.000000000000000000, 0.000000000000000000, 0.000000000000000000 ) ) ;
#365 = EDGE_CURVE ( 'NONE', #88, #63, #91, .T. ) ;
#366 = FILL_AREA_STYLE ('',( #368 ) ) ;
#367 = VECTOR ( 'NONE', #102, 39.37007874015748143 ) ;
#368 = FILL_AREA_STYLE_COLOUR ( '', #361 ) ;
#369 = DIRECTION ( 'NONE',  ( -1.000000000000000000, 0.000000000000000000, 0.000000000000000000 ) ) ;
#370 = UNCERTAINTY_MEASURE_WITH_UNIT (LENGTH_MEASURE( 1.000000000000000082E-05 ), #148, 'distance_accuracy_value', 'NONE');
#371 = CARTESIAN_POINT ( 'NONE',  ( 0.000000000000000000, 4.250000000000000000, 0.000000000000000000 ) ) ;
#372 = MECHANICAL_DESIGN_GEOMETRIC_PRESENTATION_REPRESENTATION (  '', ( #25 ), #356 ) ;
#373 = DIMENSIONAL_EXPONENTS ( 1.000000000000000000, 0.000000000000000000, 0.000000000000000000, 0.000000000000000000, 0.000000000000000000, 0.000000000000000000, 0.000000000000000000 ) ;
ENDSEC;
END-ISO-10303-21;
