ISO-10303-21;
HEADER;
FILE_DESCRIPTION (( 'STEP AP214' ),
    '1' );
FILE_NAME ('30032.STEP',
    '2023-06-22T17:51:04',
    ( '' ),
    ( '' ),
    'SwSTEP 2.0',
    'SolidWorks 2023',
    '' );
FILE_SCHEMA (( 'AUTOMOTIVE_DESIGN' ));
ENDSEC;

DATA;
#1 =( CONVERSION_BASED_UNIT ( 'INCH', #238 ) LENGTH_UNIT ( ) NAMED_UNIT ( #91 ) );
#2 = ORIENTED_EDGE ( 'NONE', *, *, #84, .T. ) ;
#3 =( LENGTH_UNIT ( ) NAMED_UNIT ( * ) SI_UNIT ( $, .METRE. ) );
#4 = SURFACE_STYLE_USAGE ( .BOTH. , #142 ) ;
#5 = AXIS2_PLACEMENT_3D ( 'NONE', #76, #104, #249 ) ;
#6 = CYLINDRICAL_SURFACE ( 'NONE', #63, 0.06250000000000001388 ) ;
#7 =( LENGTH_UNIT ( ) NAMED_UNIT ( * ) SI_UNIT ( $, .METRE. ) );
#8 = LINE ( 'NONE', #85, #25 ) ;
#9 = DIRECTION ( 'NONE',  ( -6.123233995736766036E-17, 1.000000000000000000, -0.000000000000000000 ) ) ;
#10 = PRESENTATION_LAYER_ASSIGNMENT (  '', '', ( #151 ) ) ;
#11 = FILL_AREA_STYLE ('',( #121 ) ) ;
#12 = ORIENTED_EDGE ( 'NONE', *, *, #17, .F. ) ;
#13 = AXIS2_PLACEMENT_3D ( 'NONE', #219, #195, #198 ) ;
#14 = PRESENTATION_LAYER_ASSIGNMENT (  '', '', ( #154 ) ) ;
#15 = DIRECTION ( 'NONE',  ( 0.000000000000000000, 0.000000000000000000, 1.000000000000000000 ) ) ;
#16 =( GEOMETRIC_REPRESENTATION_CONTEXT ( 3 ) GLOBAL_UNCERTAINTY_ASSIGNED_CONTEXT ( ( #203 ) ) GLOBAL_UNIT_ASSIGNED_CONTEXT ( ( #118, #147, #125 ) ) REPRESENTATION_CONTEXT ( 'NONE', 'WORKASPACE' ) );
#17 = EDGE_CURVE ( 'NONE', #263, #146, #136, .T. ) ;
#18 = APPLICATION_CONTEXT ( 'automotive_design' ) ;
#19 = EDGE_LOOP ( 'NONE', ( #116, #221, #180, #12 ) ) ;
#20 = PRESENTATION_LAYER_ASSIGNMENT (  '', '', ( #54 ) ) ;
#21 = SURFACE_STYLE_FILL_AREA ( #160 ) ;
#22 = FACE_OUTER_BOUND ( 'NONE', #172, .T. ) ;
#23 = ADVANCED_FACE ( 'NONE', ( #137 ), #268, .T. ) ;
#24 = SURFACE_STYLE_FILL_AREA ( #75 ) ;
#25 = VECTOR ( 'NONE', #181, 39.37007874015748143 ) ;
#26 = DIRECTION ( 'NONE',  ( -6.123233995736766036E-17, 1.000000000000000000, -0.000000000000000000 ) ) ;
#27 = EDGE_CURVE ( 'NONE', #296, #287, #100, .T. ) ;
#28 = PRESENTATION_STYLE_ASSIGNMENT (( #227 ) ) ;
#29 = CYLINDRICAL_SURFACE ( 'NONE', #187, 0.06250000000000005551 ) ;
#30 = CARTESIAN_POINT ( 'NONE',  ( 0.000000000000000000, 0.000000000000000000, 0.000000000000000000 ) ) ;
#31 = MECHANICAL_DESIGN_GEOMETRIC_PRESENTATION_REPRESENTATION (  '', ( #151 ), #72 ) ;
#32 = PRODUCT ( '30032', '30032', '', ( #307 ) ) ;
#33 = DIRECTION ( 'NONE',  ( 0.000000000000000000, 0.000000000000000000, -1.000000000000000000 ) ) ;
#34 = MANIFOLD_SOLID_BREP ( 'Revolve - Tool Body (Straight Shanked)', #308 ) ;
#35 = CIRCLE ( 'NONE', #210, 0.06250000000000000000 ) ;
#36 =( GEOMETRIC_REPRESENTATION_CONTEXT ( 3 ) GLOBAL_UNCERTAINTY_ASSIGNED_CONTEXT ( ( #250 ) ) GLOBAL_UNIT_ASSIGNED_CONTEXT ( ( #175, #133, #58 ) ) REPRESENTATION_CONTEXT ( 'NONE', 'WORKASPACE' ) );
#37 = ORIENTED_EDGE ( 'NONE', *, *, #17, .T. ) ;
#38 =( LENGTH_UNIT ( ) NAMED_UNIT ( * ) SI_UNIT ( $, .METRE. ) );
#39 = SURFACE_STYLE_FILL_AREA ( #214 ) ;
#40 = COLOUR_RGB ( '',0.7921568627450980005, 0.8196078431372548767, 0.9333333333333333481 ) ;
#41 = DIRECTION ( 'NONE',  ( 0.000000000000000000, 1.000000000000000000, 0.000000000000000000 ) ) ;
#42 = DIRECTION ( 'NONE',  ( -0.000000000000000000, -1.000000000000000000, -0.000000000000000000 ) ) ;
#43 = DIRECTION ( 'NONE',  ( -1.000000000000000000, 0.000000000000000000, 0.000000000000000000 ) ) ;
#44 = COLOUR_RGB ( '',1.000000000000000000, 0.000000000000000000, 0.000000000000000000 ) ;
#45 = SURFACE_SIDE_STYLE ('',( #239 ) ) ;
#46 = CARTESIAN_POINT ( 'NONE',  ( 0.000000000000000000, 0.5000000000000000000, 0.000000000000000000 ) ) ;
#47 = ORIENTED_EDGE ( 'NONE', *, *, #171, .F. ) ;
#48 = SURFACE_SIDE_STYLE ('',( #149 ) ) ;
#49 = UNCERTAINTY_MEASURE_WITH_UNIT (LENGTH_MEASURE( 1.000000000000000082E-05 ), #60, 'distance_accuracy_value', 'NONE');
#50 = CARTESIAN_POINT ( 'NONE',  ( -1.224646799147353207E-16, 2.500000000000000000, 0.000000000000000000 ) ) ;
#51 = STYLED_ITEM ( 'NONE', ( #105 ), #140 ) ;
#52 = FACE_OUTER_BOUND ( 'NONE', #236, .T. ) ;
#53 =( LENGTH_UNIT ( ) NAMED_UNIT ( * ) SI_UNIT ( $, .METRE. ) );
#54 = STYLED_ITEM ( 'NONE', ( #288 ), #208 ) ;
#55 = EDGE_CURVE ( 'NONE', #86, #135, #35, .T. ) ;
#56 = ORIENTED_EDGE ( 'NONE', *, *, #226, .T. ) ;
#57 = PRODUCT_DEFINITION_SHAPE ( 'NONE', 'NONE',  #106 ) ;
#58 =( NAMED_UNIT ( * ) SI_UNIT ( $, .STERADIAN. ) SOLID_ANGLE_UNIT ( ) );
#59 = LENGTH_MEASURE_WITH_UNIT ( LENGTH_MEASURE( 0.02539999999999999897 ), #267 );
#60 =( CONVERSION_BASED_UNIT ( 'INCH', #109 ) LENGTH_UNIT ( ) NAMED_UNIT ( #289 ) );
#61 = CARTESIAN_POINT ( 'NONE',  ( 0.000000000000000000, 0.5000000000000000000, 0.000000000000000000 ) ) ;
#62 = COLOUR_RGB ( '',1.000000000000000000, 0.000000000000000000, 0.000000000000000000 ) ;
#63 = AXIS2_PLACEMENT_3D ( 'NONE', #30, #224, #247 ) ;
#64 = CARTESIAN_POINT ( 'NONE',  ( 1.171687330204576256E-34, 0.5000000000000000000, 0.000000000000000000 ) ) ;
#65 = ORIENTED_EDGE ( 'NONE', *, *, #95, .T. ) ;
#66 = CARTESIAN_POINT ( 'NONE',  ( -0.06250000000000023592, 2.500000000000000000, 0.000000000000000000 ) ) ;
#67 = PRESENTATION_STYLE_ASSIGNMENT (( #4 ) ) ;
#68 = APPLICATION_PROTOCOL_DEFINITION ( 'draft international standard', 'automotive_design', 1998, #18 ) ;
#69 =( NAMED_UNIT ( * ) PLANE_ANGLE_UNIT ( ) SI_UNIT ( $, .RADIAN. ) );
#70 = ORIENTED_EDGE ( 'NONE', *, *, #117, .F. ) ;
#71 = ORIENTED_EDGE ( 'NONE', *, *, #226, .F. ) ;
#72 =( GEOMETRIC_REPRESENTATION_CONTEXT ( 3 ) GLOBAL_UNCERTAINTY_ASSIGNED_CONTEXT ( ( #102 ) ) GLOBAL_UNIT_ASSIGNED_CONTEXT ( ( #1, #295, #244 ) ) REPRESENTATION_CONTEXT ( 'NONE', 'WORKASPACE' ) );
#73 = CARTESIAN_POINT ( 'NONE',  ( 7.654042494670959086E-18, 0.000000000000000000, 0.06250000000000001388 ) ) ;
#74 = DIRECTION ( 'NONE',  ( -0.000000000000000000, -1.000000000000000000, -0.000000000000000000 ) ) ;
#75 = FILL_AREA_STYLE ('',( #152 ) ) ;
#76 = CARTESIAN_POINT ( 'NONE',  ( -1.224646799147353207E-16, 2.500000000000000000, 0.000000000000000000 ) ) ;
#77 = LENGTH_MEASURE_WITH_UNIT ( LENGTH_MEASURE( 0.02539999999999999897 ), #7 );
#78 = AXIS2_PLACEMENT_3D ( 'NONE', #256, #202, #124 ) ;
#79 = MECHANICAL_DESIGN_GEOMETRIC_PRESENTATION_REPRESENTATION (  '', ( #258 ), #36 ) ;
#80 = ADVANCED_FACE ( 'NONE', ( #22 ), #115, .F. ) ;
#81 = CARTESIAN_POINT ( 'NONE',  ( 0.000000000000000000, 0.000000000000000000, 0.000000000000000000 ) ) ;
#82 =( CONVERSION_BASED_UNIT ( 'INCH', #204 ) LENGTH_UNIT ( ) NAMED_UNIT ( #110 ) );
#83 = ORIENTED_EDGE ( 'NONE', *, *, #117, .T. ) ;
#84 = EDGE_CURVE ( 'NONE', #182, #193, #216, .T. ) ;
#85 = CARTESIAN_POINT ( 'NONE',  ( 0.000000000000000000, 0.000000000000000000, -0.06250000000000001388 ) ) ;
#86 = VERTEX_POINT ( 'NONE', #277 ) ;
#87 = AXIS2_PLACEMENT_3D ( 'NONE', #81, #280, #194 ) ;
#88 = ADVANCED_FACE ( 'NONE', ( #52 ), #29, .T. ) ;
#89 =( NAMED_UNIT ( * ) SI_UNIT ( $, .STERADIAN. ) SOLID_ANGLE_UNIT ( ) );
#90 = DIRECTION ( 'NONE',  ( -1.000000000000000000, -6.123233995736766036E-17, 0.000000000000000000 ) ) ;
#91 = DIMENSIONAL_EXPONENTS ( 1.000000000000000000, 0.000000000000000000, 0.000000000000000000, 0.000000000000000000, 0.000000000000000000, 0.000000000000000000, 0.000000000000000000 ) ;
#92 = CARTESIAN_POINT ( 'NONE',  ( 0.000000000000000000, 0.5000000000000001110, 0.000000000000000000 ) ) ;
#93 =( CONVERSION_BASED_UNIT ( 'INCH', #179 ) LENGTH_UNIT ( ) NAMED_UNIT ( #108 ) );
#94 = PLANE ( 'NONE',  #243 ) ;
#95 = EDGE_CURVE ( 'NONE', #146, #263, #272, .T. ) ;
#96 = PRODUCT_DEFINITION_CONTEXT ( 'detailed design', #205, 'design' ) ;
#97 = ORIENTED_EDGE ( 'NONE', *, *, #95, .F. ) ;
#98 = DIRECTION ( 'NONE',  ( -1.000000000000000000, 0.000000000000000000, 0.000000000000000000 ) ) ;
#99 = DIRECTION ( 'NONE',  ( -6.123233995736766036E-17, 1.000000000000000000, -0.000000000000000000 ) ) ;
#100 = CIRCLE ( 'NONE', #173, 0.06250000000000000000 ) ;
#101 = SURFACE_STYLE_FILL_AREA ( #11 ) ;
#102 = UNCERTAINTY_MEASURE_WITH_UNIT (LENGTH_MEASURE( 1.000000000000000082E-05 ), #1, 'distance_accuracy_value', 'NONE');
#103 = LINE ( 'NONE', #197, #113 ) ;
#104 = DIRECTION ( 'NONE',  ( -6.123233995736766036E-17, 1.000000000000000000, -0.000000000000000000 ) ) ;
#105 = PRESENTATION_STYLE_ASSIGNMENT (( #150 ) ) ;
#106 = PRODUCT_DEFINITION ( 'UNKNOWN', '', #143, #96 ) ;
#107 = PRESENTATION_LAYER_ASSIGNMENT (  '', '', ( #257 ) ) ;
#108 = DIMENSIONAL_EXPONENTS ( 1.000000000000000000, 0.000000000000000000, 0.000000000000000000, 0.000000000000000000, 0.000000000000000000, 0.000000000000000000, 0.000000000000000000 ) ;
#109 = LENGTH_MEASURE_WITH_UNIT ( LENGTH_MEASURE( 0.02539999999999999897 ), #38 );
#110 = DIMENSIONAL_EXPONENTS ( 1.000000000000000000, 0.000000000000000000, 0.000000000000000000, 0.000000000000000000, 0.000000000000000000, 0.000000000000000000, 0.000000000000000000 ) ;
#111 = CARTESIAN_POINT ( 'NONE',  ( 0.000000000000000000, 0.000000000000000000, 0.000000000000000000 ) ) ;
#112 = DIRECTION ( 'NONE',  ( -6.123233995736766036E-17, 1.000000000000000000, 0.000000000000000000 ) ) ;
#113 = VECTOR ( 'NONE', #9, 39.37007874015748143 ) ;
#114 = CARTESIAN_POINT ( 'NONE',  ( 0.06249999999999999306, 2.500000000000000000, 7.654042494670968330E-18 ) ) ;
#115 = PLANE ( 'NONE',  #13 ) ;
#116 = ORIENTED_EDGE ( 'NONE', *, *, #253, .F. ) ;
#117 = EDGE_CURVE ( 'NONE', #296, #182, #279, .T. ) ;
#118 =( CONVERSION_BASED_UNIT ( 'INCH', #276 ) LENGTH_UNIT ( ) NAMED_UNIT ( #189 ) );
#119 =( GEOMETRIC_REPRESENTATION_CONTEXT ( 3 ) GLOBAL_UNCERTAINTY_ASSIGNED_CONTEXT ( ( #174 ) ) GLOBAL_UNIT_ASSIGNED_CONTEXT ( ( #82, #153, #230 ) ) REPRESENTATION_CONTEXT ( 'NONE', 'WORKASPACE' ) );
#120 = LINE ( 'NONE', #73, #265 ) ;
#121 = FILL_AREA_STYLE_COLOUR ( '', #40 ) ;
#122 = UNCERTAINTY_MEASURE_WITH_UNIT (LENGTH_MEASURE( 1.000000000000000082E-05 ), #93, 'distance_accuracy_value', 'NONE');
#123 = PRESENTATION_STYLE_ASSIGNMENT (( #300 ) ) ;
#124 = DIRECTION ( 'NONE',  ( 0.000000000000000000, 0.000000000000000000, -1.000000000000000000 ) ) ;
#125 =( NAMED_UNIT ( * ) SI_UNIT ( $, .STERADIAN. ) SOLID_ANGLE_UNIT ( ) );
#126 = AXIS2_PLACEMENT_3D ( 'NONE', #46, #74, #176 ) ;
#127 = AXIS2_PLACEMENT_3D ( 'NONE', #129, #259, #33 ) ;
#128 = DIRECTION ( 'NONE',  ( -6.123233995736766036E-17, 1.000000000000000000, -0.000000000000000000 ) ) ;
#129 = CARTESIAN_POINT ( 'NONE',  ( 0.000000000000000000, 0.000000000000000000, 0.000000000000000000 ) ) ;
#130 = EDGE_LOOP ( 'NONE', ( #209, #264, #97, #306 ) ) ;
#131 = CARTESIAN_POINT ( 'NONE',  ( 0.06249999999999999306, 0.5000000000000001110, 7.654042494670968330E-18 ) ) ;
#132 = CLOSED_SHELL ( 'NONE', ( #211, #191, #292, #208 ) ) ;
#133 =( NAMED_UNIT ( * ) PLANE_ANGLE_UNIT ( ) SI_UNIT ( $, .RADIAN. ) );
#134 = EDGE_CURVE ( 'NONE', #135, #86, #178, .T. ) ;
#135 = VERTEX_POINT ( 'NONE', #177 ) ;
#136 = CIRCLE ( 'NONE', #290, 0.06250000000000001388 ) ;
#137 = FACE_OUTER_BOUND ( 'NONE', #188, .T. ) ;
#138 = AXIS2_PLACEMENT_3D ( 'NONE', #50, #248, #98 ) ;
#139 = DIRECTION ( 'NONE',  ( -0.000000000000000000, -1.000000000000000000, -0.000000000000000000 ) ) ;
#140 = MANIFOLD_SOLID_BREP ( 'Revolve - Cutting Edge', #132 ) ;
#141 = SURFACE_STYLE_USAGE ( .BOTH. , #222 ) ;
#142 = SURFACE_SIDE_STYLE ('',( #39 ) ) ;
#143 = PRODUCT_DEFINITION_FORMATION_WITH_SPECIFIED_SOURCE ( 'ANY', '', #32, .NOT_KNOWN. ) ;
#144 = FILL_AREA_STYLE_COLOUR ( '', #44 ) ;
#145 = DIRECTION ( 'NONE',  ( -6.123233995736766036E-17, 1.000000000000000000, -0.000000000000000000 ) ) ;
#146 = VERTEX_POINT ( 'NONE', #261 ) ;
#147 =( NAMED_UNIT ( * ) PLANE_ANGLE_UNIT ( ) SI_UNIT ( $, .RADIAN. ) );
#148 = DIRECTION ( 'NONE',  ( -1.000000000000000000, 0.000000000000000000, 0.000000000000000000 ) ) ;
#149 = SURFACE_STYLE_FILL_AREA ( #297 ) ;
#150 = SURFACE_STYLE_USAGE ( .BOTH. , #233 ) ;
#151 = STYLED_ITEM ( 'NONE', ( #67 ), #34 ) ;
#152 = FILL_AREA_STYLE_COLOUR ( '', #232 ) ;
#153 =( NAMED_UNIT ( * ) PLANE_ANGLE_UNIT ( ) SI_UNIT ( $, .RADIAN. ) );
#154 = STYLED_ITEM ( 'NONE', ( #28 ), #211 ) ;
#155 =( LENGTH_UNIT ( ) NAMED_UNIT ( * ) SI_UNIT ( $, .METRE. ) );
#156 = EDGE_CURVE ( 'NONE', #86, #146, #8, .T. ) ;
#157 =( GEOMETRIC_REPRESENTATION_CONTEXT ( 3 ) GLOBAL_UNCERTAINTY_ASSIGNED_CONTEXT ( ( #254 ) ) GLOBAL_UNIT_ASSIGNED_CONTEXT ( ( #192, #69, #309 ) ) REPRESENTATION_CONTEXT ( 'NONE', 'WORKASPACE' ) );
#158 = EDGE_LOOP ( 'NONE', ( #65, #37 ) ) ;
#159 = ORIENTED_EDGE ( 'NONE', *, *, #27, .T. ) ;
#160 = FILL_AREA_STYLE ('',( #144 ) ) ;
#161 =( NAMED_UNIT ( * ) PLANE_ANGLE_UNIT ( ) SI_UNIT ( $, .RADIAN. ) );
#162 = CARTESIAN_POINT ( 'NONE',  ( 0.000000000000000000, 0.5000000000000001110, 0.000000000000000000 ) ) ;
#163 = VECTOR ( 'NONE', #128, 39.37007874015748143 ) ;
#164 = DIRECTION ( 'NONE',  ( 0.000000000000000000, 0.000000000000000000, -1.000000000000000000 ) ) ;
#165 = ADVANCED_FACE ( 'NONE', ( #284 ), #291, .F. ) ;
#166 = PRESENTATION_STYLE_ASSIGNMENT (( #213 ) ) ;
#167 = ORIENTED_EDGE ( 'NONE', *, *, #134, .F. ) ;
#168 = APPLICATION_PROTOCOL_DEFINITION ( 'draft international standard', 'automotive_design', 1998, #205 ) ;
#169 = FACE_OUTER_BOUND ( 'NONE', #158, .T. ) ;
#170 = ORIENTED_EDGE ( 'NONE', *, *, #27, .F. ) ;
#171 = EDGE_CURVE ( 'NONE', #287, #296, #305, .T. ) ;
#172 = EDGE_LOOP ( 'NONE', ( #56, #2 ) ) ;
#173 = AXIS2_PLACEMENT_3D ( 'NONE', #92, #145, #185 ) ;
#174 = UNCERTAINTY_MEASURE_WITH_UNIT (LENGTH_MEASURE( 1.000000000000000082E-05 ), #82, 'distance_accuracy_value', 'NONE');
#175 =( CONVERSION_BASED_UNIT ( 'INCH', #77 ) LENGTH_UNIT ( ) NAMED_UNIT ( #294 ) );
#176 = DIRECTION ( 'NONE',  ( 0.000000000000000000, 0.000000000000000000, -1.000000000000000000 ) ) ;
#177 = CARTESIAN_POINT ( 'NONE',  ( 7.654042494670959086E-18, 0.5000000000000000000, 0.06250000000000000000 ) ) ;
#178 = CIRCLE ( 'NONE', #126, 0.06250000000000000000 ) ;
#179 = LENGTH_MEASURE_WITH_UNIT ( LENGTH_MEASURE( 0.02539999999999999897 ), #155 );
#180 = ORIENTED_EDGE ( 'NONE', *, *, #156, .T. ) ;
#181 = DIRECTION ( 'NONE',  ( -0.000000000000000000, -1.000000000000000000, -0.000000000000000000 ) ) ;
#182 = VERTEX_POINT ( 'NONE', #114 ) ;
#183 = COLOUR_RGB ( '',0.7921568627450980005, 0.8196078431372548767, 0.9333333333333333481 ) ;
#184 = EDGE_LOOP ( 'NONE', ( #234, #167 ) ) ;
#185 = DIRECTION ( 'NONE',  ( -1.000000000000000000, 0.000000000000000000, 0.000000000000000000 ) ) ;
#186 = DIRECTION ( 'NONE',  ( 1.000000000000000000, 0.000000000000000000, 0.000000000000000000 ) ) ;
#187 = AXIS2_PLACEMENT_3D ( 'NONE', #228, #26, #148 ) ;
#188 = EDGE_LOOP ( 'NONE', ( #282, #83, #71, #273 ) ) ;
#189 = DIMENSIONAL_EXPONENTS ( 1.000000000000000000, 0.000000000000000000, 0.000000000000000000, 0.000000000000000000, 0.000000000000000000, 0.000000000000000000, 0.000000000000000000 ) ;
#190 = DIRECTION ( 'NONE',  ( -1.000000000000000000, 0.000000000000000000, 0.000000000000000000 ) ) ;
#191 = ADVANCED_FACE ( 'NONE', ( #286 ), #94, .T. ) ;
#192 =( CONVERSION_BASED_UNIT ( 'INCH', #59 ) LENGTH_UNIT ( ) NAMED_UNIT ( #240 ) );
#193 = VERTEX_POINT ( 'NONE', #66 ) ;
#194 = DIRECTION ( 'NONE',  ( 0.000000000000000000, 0.000000000000000000, -1.000000000000000000 ) ) ;
#195 = DIRECTION ( 'NONE',  ( 6.123233995736766036E-17, -1.000000000000000000, 0.000000000000000000 ) ) ;
#196 = MECHANICAL_DESIGN_GEOMETRIC_PRESENTATION_REPRESENTATION (  '', ( #154 ), #16 ) ;
#197 = CARTESIAN_POINT ( 'NONE',  ( -0.06250000000000018041, 2.500000000000000000, 0.000000000000000000 ) ) ;
#198 = DIRECTION ( 'NONE',  ( 1.000000000000000000, 6.123233995736766036E-17, 0.000000000000000000 ) ) ;
#199 = FACE_OUTER_BOUND ( 'NONE', #19, .T. ) ;
#200 = MECHANICAL_DESIGN_GEOMETRIC_PRESENTATION_REPRESENTATION (  '', ( #54 ), #231 ) ;
#201 = DIRECTION ( 'NONE',  ( -0.000000000000000000, -1.000000000000000000, -0.000000000000000000 ) ) ;
#202 = DIRECTION ( 'NONE',  ( -0.000000000000000000, -1.000000000000000000, -0.000000000000000000 ) ) ;
#203 = UNCERTAINTY_MEASURE_WITH_UNIT (LENGTH_MEASURE( 1.000000000000000082E-05 ), #118, 'distance_accuracy_value', 'NONE');
#204 = LENGTH_MEASURE_WITH_UNIT ( LENGTH_MEASURE( 0.02539999999999999897 ), #53 );
#205 = APPLICATION_CONTEXT ( 'automotive_design' ) ;
#206 = AXIS2_PLACEMENT_3D ( 'NONE', #64, #112, #90 ) ;
#207 = CIRCLE ( 'NONE', #138, 0.06250000000000012490 ) ;
#208 = ADVANCED_FACE ( 'NONE', ( #169 ), #270, .T. ) ;
#209 = ORIENTED_EDGE ( 'NONE', *, *, #55, .T. ) ;
#210 = AXIS2_PLACEMENT_3D ( 'NONE', #61, #139, #241 ) ;
#211 = ADVANCED_FACE ( 'NONE', ( #229 ), #6, .T. ) ;
#212 = FILL_AREA_STYLE ('',( #215 ) ) ;
#213 = SURFACE_STYLE_USAGE ( .BOTH. , #45 ) ;
#214 = FILL_AREA_STYLE ('',( #217 ) ) ;
#215 = FILL_AREA_STYLE_COLOUR ( '', #62 ) ;
#216 = CIRCLE ( 'NONE', #5, 0.06250000000000012490 ) ;
#217 = FILL_AREA_STYLE_COLOUR ( '', #183 ) ;
#218 =( NAMED_UNIT ( * ) PLANE_ANGLE_UNIT ( ) SI_UNIT ( $, .RADIAN. ) );
#219 = CARTESIAN_POINT ( 'NONE',  ( 0.06250000000000000000, 2.500000000000000000, 0.000000000000000000 ) ) ;
#220 = ADVANCED_BREP_SHAPE_REPRESENTATION ( '30032', ( #140, #34, #281 ), #262 ) ;
#221 = ORIENTED_EDGE ( 'NONE', *, *, #134, .T. ) ;
#222 = SURFACE_SIDE_STYLE ('',( #21 ) ) ;
#223 = CARTESIAN_POINT ( 'NONE',  ( 0.000000000000000000, 0.000000000000000000, 0.000000000000000000 ) ) ;
#224 = DIRECTION ( 'NONE',  ( -0.000000000000000000, -1.000000000000000000, -0.000000000000000000 ) ) ;
#225 = PRESENTATION_LAYER_ASSIGNMENT (  '', '', ( #51 ) ) ;
#226 = EDGE_CURVE ( 'NONE', #193, #182, #207, .T. ) ;
#227 = SURFACE_STYLE_USAGE ( .BOTH. , #48 ) ;
#228 = CARTESIAN_POINT ( 'NONE',  ( -1.224646799147353207E-16, 2.500000000000000000, 0.000000000000000000 ) ) ;
#229 = FACE_OUTER_BOUND ( 'NONE', #130, .T. ) ;
#230 =( NAMED_UNIT ( * ) SI_UNIT ( $, .STERADIAN. ) SOLID_ANGLE_UNIT ( ) );
#231 =( GEOMETRIC_REPRESENTATION_CONTEXT ( 3 ) GLOBAL_UNCERTAINTY_ASSIGNED_CONTEXT ( ( #49 ) ) GLOBAL_UNIT_ASSIGNED_CONTEXT ( ( #60, #218, #89 ) ) REPRESENTATION_CONTEXT ( 'NONE', 'WORKASPACE' ) );
#232 = COLOUR_RGB ( '',1.000000000000000000, 0.000000000000000000, 0.000000000000000000 ) ;
#233 = SURFACE_SIDE_STYLE ('',( #101 ) ) ;
#234 = ORIENTED_EDGE ( 'NONE', *, *, #55, .F. ) ;
#235 = MECHANICAL_DESIGN_GEOMETRIC_PRESENTATION_REPRESENTATION (  '', ( #51 ), #119 ) ;
#236 = EDGE_LOOP ( 'NONE', ( #70, #159, #283, #260 ) ) ;
#237 = AXIS2_PLACEMENT_3D ( 'NONE', #162, #245, #190 ) ;
#238 = LENGTH_MEASURE_WITH_UNIT ( LENGTH_MEASURE( 0.02539999999999999897 ), #299 );
#239 = SURFACE_STYLE_FILL_AREA ( #212 ) ;
#240 = DIMENSIONAL_EXPONENTS ( 1.000000000000000000, 0.000000000000000000, 0.000000000000000000, 0.000000000000000000, 0.000000000000000000, 0.000000000000000000, 0.000000000000000000 ) ;
#241 = DIRECTION ( 'NONE',  ( 0.000000000000000000, 0.000000000000000000, -1.000000000000000000 ) ) ;
#242 = EDGE_CURVE ( 'NONE', #287, #193, #103, .T. ) ;
#243 = AXIS2_PLACEMENT_3D ( 'NONE', #293, #41, #266 ) ;
#244 =( NAMED_UNIT ( * ) SI_UNIT ( $, .STERADIAN. ) SOLID_ANGLE_UNIT ( ) );
#245 = DIRECTION ( 'NONE',  ( -6.123233995736766036E-17, 1.000000000000000000, -0.000000000000000000 ) ) ;
#246 = CARTESIAN_POINT ( 'NONE',  ( -1.224646799147353207E-16, 2.500000000000000000, 0.000000000000000000 ) ) ;
#247 = DIRECTION ( 'NONE',  ( 0.000000000000000000, 0.000000000000000000, -1.000000000000000000 ) ) ;
#248 = DIRECTION ( 'NONE',  ( -6.123233995736766036E-17, 1.000000000000000000, -0.000000000000000000 ) ) ;
#249 = DIRECTION ( 'NONE',  ( -1.000000000000000000, 0.000000000000000000, 0.000000000000000000 ) ) ;
#250 = UNCERTAINTY_MEASURE_WITH_UNIT (LENGTH_MEASURE( 1.000000000000000082E-05 ), #175, 'distance_accuracy_value', 'NONE');
#251 = SURFACE_SIDE_STYLE ('',( #24 ) ) ;
#252 = FILL_AREA_STYLE_COLOUR ( '', #298 ) ;
#253 = EDGE_CURVE ( 'NONE', #135, #263, #120, .T. ) ;
#254 = UNCERTAINTY_MEASURE_WITH_UNIT (LENGTH_MEASURE( 1.000000000000000082E-05 ), #192, 'distance_accuracy_value', 'NONE');
#255 = CARTESIAN_POINT ( 'NONE',  ( -0.06250000000000000000, 0.5000000000000001110, 0.000000000000000000 ) ) ;
#256 = CARTESIAN_POINT ( 'NONE',  ( 0.000000000000000000, 0.000000000000000000, 0.000000000000000000 ) ) ;
#257 = STYLED_ITEM ( 'NONE', ( #166 ), #191 ) ;
#258 = STYLED_ITEM ( 'NONE', ( #123 ), #292 ) ;
#259 = DIRECTION ( 'NONE',  ( -0.000000000000000000, -1.000000000000000000, -0.000000000000000000 ) ) ;
#260 = ORIENTED_EDGE ( 'NONE', *, *, #84, .F. ) ;
#261 = CARTESIAN_POINT ( 'NONE',  ( 0.000000000000000000, 0.000000000000000000, -0.06250000000000001388 ) ) ;
#262 =( GEOMETRIC_REPRESENTATION_CONTEXT ( 3 ) GLOBAL_UNCERTAINTY_ASSIGNED_CONTEXT ( ( #122 ) ) GLOBAL_UNIT_ASSIGNED_CONTEXT ( ( #93, #161, #271 ) ) REPRESENTATION_CONTEXT ( 'NONE', 'WORKASPACE' ) );
#263 = VERTEX_POINT ( 'NONE', #302 ) ;
#264 = ORIENTED_EDGE ( 'NONE', *, *, #253, .T. ) ;
#265 = VECTOR ( 'NONE', #201, 39.37007874015748143 ) ;
#266 = DIRECTION ( 'NONE',  ( 0.000000000000000000, -0.000000000000000000, 1.000000000000000000 ) ) ;
#267 =( LENGTH_UNIT ( ) NAMED_UNIT ( * ) SI_UNIT ( $, .METRE. ) );
#268 = CYLINDRICAL_SURFACE ( 'NONE', #303, 0.06250000000000005551 ) ;
#269 = SHAPE_DEFINITION_REPRESENTATION ( #57, #220 ) ;
#270 = PLANE ( 'NONE',  #87 ) ;
#271 =( NAMED_UNIT ( * ) SI_UNIT ( $, .STERADIAN. ) SOLID_ANGLE_UNIT ( ) );
#272 = CIRCLE ( 'NONE', #78, 0.06250000000000001388 ) ;
#273 = ORIENTED_EDGE ( 'NONE', *, *, #242, .F. ) ;
#274 = PRESENTATION_LAYER_ASSIGNMENT (  '', '', ( #258 ) ) ;
#275 = CYLINDRICAL_SURFACE ( 'NONE', #127, 0.06250000000000001388 ) ;
#276 = LENGTH_MEASURE_WITH_UNIT ( LENGTH_MEASURE( 0.02539999999999999897 ), #3 );
#277 = CARTESIAN_POINT ( 'NONE',  ( 0.000000000000000000, 0.5000000000000000000, -0.06250000000000000000 ) ) ;
#278 = MECHANICAL_DESIGN_GEOMETRIC_PRESENTATION_REPRESENTATION (  '', ( #257 ), #157 ) ;
#279 = LINE ( 'NONE', #301, #163 ) ;
#280 = DIRECTION ( 'NONE',  ( 0.000000000000000000, -1.000000000000000000, -0.000000000000000000 ) ) ;
#281 = AXIS2_PLACEMENT_3D ( 'NONE', #111, #15, #186 ) ;
#282 = ORIENTED_EDGE ( 'NONE', *, *, #171, .T. ) ;
#283 = ORIENTED_EDGE ( 'NONE', *, *, #242, .T. ) ;
#284 = FACE_OUTER_BOUND ( 'NONE', #304, .T. ) ;
#285 = PRODUCT_RELATED_PRODUCT_CATEGORY ( 'part', '', ( #32 ) ) ;
#286 = FACE_OUTER_BOUND ( 'NONE', #184, .T. ) ;
#287 = VERTEX_POINT ( 'NONE', #255 ) ;
#288 = PRESENTATION_STYLE_ASSIGNMENT (( #141 ) ) ;
#289 = DIMENSIONAL_EXPONENTS ( 1.000000000000000000, 0.000000000000000000, 0.000000000000000000, 0.000000000000000000, 0.000000000000000000, 0.000000000000000000, 0.000000000000000000 ) ;
#290 = AXIS2_PLACEMENT_3D ( 'NONE', #223, #42, #164 ) ;
#291 = PLANE ( 'NONE',  #206 ) ;
#292 = ADVANCED_FACE ( 'NONE', ( #199 ), #275, .T. ) ;
#293 = CARTESIAN_POINT ( 'NONE',  ( 0.000000000000000000, 0.5000000000000000000, 0.000000000000000000 ) ) ;
#294 = DIMENSIONAL_EXPONENTS ( 1.000000000000000000, 0.000000000000000000, 0.000000000000000000, 0.000000000000000000, 0.000000000000000000, 0.000000000000000000, 0.000000000000000000 ) ;
#295 =( NAMED_UNIT ( * ) PLANE_ANGLE_UNIT ( ) SI_UNIT ( $, .RADIAN. ) );
#296 = VERTEX_POINT ( 'NONE', #131 ) ;
#297 = FILL_AREA_STYLE ('',( #252 ) ) ;
#298 = COLOUR_RGB ( '',1.000000000000000000, 0.000000000000000000, 0.000000000000000000 ) ;
#299 =( LENGTH_UNIT ( ) NAMED_UNIT ( * ) SI_UNIT ( $, .METRE. ) );
#300 = SURFACE_STYLE_USAGE ( .BOTH. , #251 ) ;
#301 = CARTESIAN_POINT ( 'NONE',  ( 0.06249999999999993755, 2.500000000000000000, 7.654042494670965249E-18 ) ) ;
#302 = CARTESIAN_POINT ( 'NONE',  ( 7.654042494670960626E-18, 0.000000000000000000, 0.06250000000000002776 ) ) ;
#303 = AXIS2_PLACEMENT_3D ( 'NONE', #246, #99, #43 ) ;
#304 = EDGE_LOOP ( 'NONE', ( #47, #170 ) ) ;
#305 = CIRCLE ( 'NONE', #237, 0.06250000000000000000 ) ;
#306 = ORIENTED_EDGE ( 'NONE', *, *, #156, .F. ) ;
#307 = PRODUCT_CONTEXT ( 'NONE', #18, 'mechanical' ) ;
#308 = CLOSED_SHELL ( 'NONE', ( #23, #165, #88, #80 ) ) ;
#309 =( NAMED_UNIT ( * ) SI_UNIT ( $, .STERADIAN. ) SOLID_ANGLE_UNIT ( ) );
ENDSEC;
END-ISO-10303-21;
