ISO-10303-21;
HEADER;
FILE_DESCRIPTION (( 'STEP AP214' ),
    '1' );
FILE_NAME ('56632.STEP',
    '2023-06-30T22:11:44',
    ( '' ),
    ( '' ),
    'SwSTEP 2.0',
    'SolidWorks 2023',
    '' );
FILE_SCHEMA (( 'AUTOMOTIVE_DESIGN' ));
ENDSEC;

DATA;
#1 = ORIENTED_EDGE ( 'NONE', *, *, #107, .T. ) ;
#2 = APPLICATION_CONTEXT ( 'automotive_design' ) ;
#3 = PRODUCT_DEFINITION_SHAPE ( 'NONE', 'NONE',  #219 ) ;
#4 = CARTESIAN_POINT ( 'NONE',  ( 6.296810836887032500E-16, 0.8749999999999997780, 0.000000000000000000 ) ) ;
#5 =( GEOMETRIC_REPRESENTATION_CONTEXT ( 3 ) GLOBAL_UNCERTAINTY_ASSIGNED_CONTEXT ( ( #121 ) ) GLOBAL_UNIT_ASSIGNED_CONTEXT ( ( #135, #13, #82 ) ) REPRESENTATION_CONTEXT ( 'NONE', 'WORKASPACE' ) );
#6 =( NAMED_UNIT ( * ) PLANE_ANGLE_UNIT ( ) SI_UNIT ( $, .RADIAN. ) );
#7 = UNCERTAINTY_MEASURE_WITH_UNIT (LENGTH_MEASURE( 1.000000000000000082E-05 ), #110, 'distance_accuracy_value', 'NONE');
#8 = DIRECTION ( 'NONE',  ( -0.000000000000000000, -1.000000000000000000, -0.000000000000000000 ) ) ;
#9 = AXIS2_PLACEMENT_3D ( 'NONE', #329, #268, #177 ) ;
#10 = STYLED_ITEM ( 'NONE', ( #258 ), #286 ) ;
#11 =( LENGTH_UNIT ( ) NAMED_UNIT ( * ) SI_UNIT ( $, .METRE. ) );
#12 =( NAMED_UNIT ( * ) SI_UNIT ( $, .STERADIAN. ) SOLID_ANGLE_UNIT ( ) );
#13 =( NAMED_UNIT ( * ) PLANE_ANGLE_UNIT ( ) SI_UNIT ( $, .RADIAN. ) );
#14 = FILL_AREA_STYLE_COLOUR ( '', #155 ) ;
#15 = CIRCLE ( 'NONE', #357, 0.3749999999999998890 ) ;
#16 = MECHANICAL_DESIGN_GEOMETRIC_PRESENTATION_REPRESENTATION (  '', ( #364 ), #33 ) ;
#17 =( GEOMETRIC_REPRESENTATION_CONTEXT ( 3 ) GLOBAL_UNCERTAINTY_ASSIGNED_CONTEXT ( ( #358 ) ) GLOBAL_UNIT_ASSIGNED_CONTEXT ( ( #128, #247, #244 ) ) REPRESENTATION_CONTEXT ( 'NONE', 'WORKASPACE' ) );
#18 = DIRECTION ( 'NONE',  ( -0.000000000000000000, -1.000000000000000000, -0.000000000000000000 ) ) ;
#19 = CARTESIAN_POINT ( 'NONE',  ( 0.000000000000000000, 0.8749999999999997780, -0.3749999999999998890 ) ) ;
#20 = CYLINDRICAL_SURFACE ( 'NONE', #168, 0.3749999999999999445 ) ;
#21 = ORIENTED_EDGE ( 'NONE', *, *, #325, .F. ) ;
#22 = PRESENTATION_LAYER_ASSIGNMENT (  '', '', ( #297 ) ) ;
#23 = FACE_OUTER_BOUND ( 'NONE', #28, .T. ) ;
#24 = FILL_AREA_STYLE_COLOUR ( '', #241 ) ;
#25 = SURFACE_STYLE_FILL_AREA ( #284 ) ;
#26 = SURFACE_STYLE_FILL_AREA ( #53 ) ;
#27 = SURFACE_SIDE_STYLE ('',( #319 ) ) ;
#28 = EDGE_LOOP ( 'NONE', ( #255, #189, #227, #339 ) ) ;
#29 = SURFACE_STYLE_USAGE ( .BOTH. , #229 ) ;
#30 =( CONVERSION_BASED_UNIT ( 'INCH', #170 ) LENGTH_UNIT ( ) NAMED_UNIT ( #287 ) );
#31 = EDGE_LOOP ( 'NONE', ( #259, #225, #345, #218, #141 ) ) ;
#32 = AXIS2_PLACEMENT_3D ( 'NONE', #72, #208, #205 ) ;
#33 =( GEOMETRIC_REPRESENTATION_CONTEXT ( 3 ) GLOBAL_UNCERTAINTY_ASSIGNED_CONTEXT ( ( #230 ) ) GLOBAL_UNIT_ASSIGNED_CONTEXT ( ( #49, #197, #142 ) ) REPRESENTATION_CONTEXT ( 'NONE', 'WORKASPACE' ) );
#34 = DIRECTION ( 'NONE',  ( -1.234291971503516649E-16, 1.000000000000000000, -0.000000000000000000 ) ) ;
#35 =( LENGTH_UNIT ( ) NAMED_UNIT ( * ) SI_UNIT ( $, .METRE. ) );
#36 = PRESENTATION_STYLE_ASSIGNMENT (( #93 ) ) ;
#37 = COLOUR_RGB ( '',0.7921568627450980005, 0.8196078431372548767, 0.9333333333333333481 ) ;
#38 = COLOUR_RGB ( '',1.000000000000000000, 0.000000000000000000, 0.000000000000000000 ) ;
#39 = SHAPE_DEFINITION_REPRESENTATION ( #3, #360 ) ;
#40 = AXIS2_PLACEMENT_3D ( 'NONE', #109, #54, #317 ) ;
#41 = CARTESIAN_POINT ( 'NONE',  ( 4.592425496802572986E-17, 0.8749999999999997780, 0.3749999999999998890 ) ) ;
#42 = CARTESIAN_POINT ( 'NONE',  ( 0.000000000000000000, 0.3750000000000001110, 0.000000000000000000 ) ) ;
#43 = CIRCLE ( 'NONE', #303, 0.3749999999999992784 ) ;
#44 =( LENGTH_UNIT ( ) NAMED_UNIT ( * ) SI_UNIT ( $, .METRE. ) );
#45 = FACE_OUTER_BOUND ( 'NONE', #280, .T. ) ;
#46 = EDGE_LOOP ( 'NONE', ( #131, #74 ) ) ;
#47 = DIRECTION ( 'NONE',  ( -1.234291971503516649E-16, 1.000000000000000000, -0.000000000000000000 ) ) ;
#48 = CARTESIAN_POINT ( 'NONE',  ( -4.592425496802575451E-17, 0.3750000000000000555, 0.000000000000000000 ) ) ;
#49 =( CONVERSION_BASED_UNIT ( 'INCH', #232 ) LENGTH_UNIT ( ) NAMED_UNIT ( #327 ) );
#50 = EDGE_CURVE ( 'NONE', #117, #165, #58, .T. ) ;
#51 = STYLED_ITEM ( 'NONE', ( #194 ), #274 ) ;
#52 = CYLINDRICAL_SURFACE ( 'NONE', #207, 0.3749999999999993894 ) ;
#53 = FILL_AREA_STYLE ('',( #24 ) ) ;
#54 = DIRECTION ( 'NONE',  ( 0.000000000000000000, 0.000000000000000000, 1.000000000000000000 ) ) ;
#55 = EDGE_LOOP ( 'NONE', ( #56, #162, #90, #21 ) ) ;
#56 = ORIENTED_EDGE ( 'NONE', *, *, #50, .T. ) ;
#57 = EDGE_CURVE ( 'NONE', #83, #158, #206, .T. ) ;
#58 = CIRCLE ( 'NONE', #351, 0.3749999999999992784 ) ;
#59 = SURFACE_SIDE_STYLE ('',( #347 ) ) ;
#60 = PRESENTATION_LAYER_ASSIGNMENT (  '', '', ( #10 ) ) ;
#61 = DIRECTION ( 'NONE',  ( -1.234291971503516649E-16, 1.000000000000000000, -0.000000000000000000 ) ) ;
#62 = DIRECTION ( 'NONE',  ( 0.000000000000000000, 0.000000000000000000, -1.000000000000000000 ) ) ;
#63 = LINE ( 'NONE', #266, #316 ) ;
#64 = COLOUR_RGB ( '',1.000000000000000000, 0.000000000000000000, 0.000000000000000000 ) ;
#65 = APPLICATION_PROTOCOL_DEFINITION ( 'draft international standard', 'automotive_design', 1998, #75 ) ;
#66 = DIMENSIONAL_EXPONENTS ( 1.000000000000000000, 0.000000000000000000, 0.000000000000000000, 0.000000000000000000, 0.000000000000000000, 0.000000000000000000, 0.000000000000000000 ) ;
#67 = CARTESIAN_POINT ( 'NONE',  ( 0.3749999999999998890, 3.000000000000000444, 4.592425496802568672E-17 ) ) ;
#68 = UNCERTAINTY_MEASURE_WITH_UNIT (LENGTH_MEASURE( 1.000000000000000082E-05 ), #271, 'distance_accuracy_value', 'NONE');
#69 = CARTESIAN_POINT ( 'NONE',  ( -0.3749999999999986677, 0.8749999999999997780, 0.000000000000000000 ) ) ;
#70 = LENGTH_MEASURE_WITH_UNIT ( LENGTH_MEASURE( 0.02539999999999999897 ), #44 );
#71 = PRODUCT_RELATED_PRODUCT_CATEGORY ( 'part', '', ( #322 ) ) ;
#72 = CARTESIAN_POINT ( 'NONE',  ( -4.592425496802575451E-17, 0.3750000000000000555, 0.000000000000000000 ) ) ;
#73 = STYLED_ITEM ( 'NONE', ( #134 ), #279 ) ;
#74 = ORIENTED_EDGE ( 'NONE', *, *, #237, .F. ) ;
#75 = APPLICATION_CONTEXT ( 'automotive_design' ) ;
#76 = CYLINDRICAL_SURFACE ( 'NONE', #95, 0.3749999999999993894 ) ;
#77 = FACE_OUTER_BOUND ( 'NONE', #31, .T. ) ;
#78 = EDGE_CURVE ( 'NONE', #324, #106, #281, .T. ) ;
#79 = PRESENTATION_LAYER_ASSIGNMENT (  '', '', ( #330 ) ) ;
#80 = LENGTH_MEASURE_WITH_UNIT ( LENGTH_MEASURE( 0.02539999999999999897 ), #184 );
#81 = ADVANCED_FACE ( 'NONE', ( #291 ), #199, .T. ) ;
#82 =( NAMED_UNIT ( * ) SI_UNIT ( $, .STERADIAN. ) SOLID_ANGLE_UNIT ( ) );
#83 = VERTEX_POINT ( 'NONE', #306 ) ;
#84 = FILL_AREA_STYLE_COLOUR ( '', #203 ) ;
#85 = EDGE_LOOP ( 'NONE', ( #231, #349 ) ) ;
#86 = CLOSED_SHELL ( 'NONE', ( #367, #149, #310, #350 ) ) ;
#87 = CIRCLE ( 'NONE', #313, 0.3749999999999998890 ) ;
#88 = PRESENTATION_STYLE_ASSIGNMENT (( #195 ) ) ;
#89 = CARTESIAN_POINT ( 'NONE',  ( 0.000000000000000000, 0.3750000000000001110, 0.000000000000000000 ) ) ;
#90 = ORIENTED_EDGE ( 'NONE', *, *, #57, .F. ) ;
#91 = MECHANICAL_DESIGN_GEOMETRIC_PRESENTATION_REPRESENTATION (  '', ( #10 ), #139 ) ;
#92 = ORIENTED_EDGE ( 'NONE', *, *, #114, .F. ) ;
#93 = SURFACE_STYLE_USAGE ( .BOTH. , #359 ) ;
#94 = CLOSED_SHELL ( 'NONE', ( #293, #279, #81, #286, #274 ) ) ;
#95 = AXIS2_PLACEMENT_3D ( 'NONE', #216, #304, #212 ) ;
#96 = DIRECTION ( 'NONE',  ( 1.224646799147353207E-16, -0.000000000000000000, 1.000000000000000000 ) ) ;
#97 = UNCERTAINTY_MEASURE_WITH_UNIT (LENGTH_MEASURE( 1.000000000000000082E-05 ), #348, 'distance_accuracy_value', 'NONE');
#98 = CARTESIAN_POINT ( 'NONE',  ( 0.000000000000000000, 0.8749999999999997780, 0.000000000000000000 ) ) ;
#99 = SURFACE_STYLE_FILL_AREA ( #221 ) ;
#100 = ORIENTED_EDGE ( 'NONE', *, *, #223, .F. ) ;
#101 = VECTOR ( 'NONE', #47, 39.37007874015748143 ) ;
#102 =( NAMED_UNIT ( * ) PLANE_ANGLE_UNIT ( ) SI_UNIT ( $, .RADIAN. ) );
#103 = EDGE_CURVE ( 'NONE', #158, #83, #181, .T. ) ;
#104 = DIRECTION ( 'NONE',  ( 1.000000000000000000, 1.234291971503516649E-16, 0.000000000000000000 ) ) ;
#105 = DIRECTION ( 'NONE',  ( 0.000000000000000000, 0.000000000000000000, 1.000000000000000000 ) ) ;
#106 = VERTEX_POINT ( 'NONE', #295 ) ;
#107 = EDGE_CURVE ( 'NONE', #289, #252, #113, .T. ) ;
#108 = ORIENTED_EDGE ( 'NONE', *, *, #114, .T. ) ;
#109 = CARTESIAN_POINT ( 'NONE',  ( -4.592425496802575451E-17, 0.3750000000000000555, 0.000000000000000000 ) ) ;
#110 =( CONVERSION_BASED_UNIT ( 'INCH', #233 ) LENGTH_UNIT ( ) NAMED_UNIT ( #294 ) );
#111 = FILL_AREA_STYLE ('',( #246 ) ) ;
#112 = ORIENTED_EDGE ( 'NONE', *, *, #103, .T. ) ;
#113 = CIRCLE ( 'NONE', #32, 0.3750000000000000555 ) ;
#114 = EDGE_CURVE ( 'NONE', #289, #160, #296, .T. ) ;
#115 = EDGE_LOOP ( 'NONE', ( #201, #248, #372, #108 ) ) ;
#116 = SURFACE_STYLE_USAGE ( .BOTH. , #27 ) ;
#117 = VERTEX_POINT ( 'NONE', #69 ) ;
#118 = MECHANICAL_DESIGN_GEOMETRIC_PRESENTATION_REPRESENTATION (  '', ( #330 ), #154 ) ;
#119 =( GEOMETRIC_REPRESENTATION_CONTEXT ( 3 ) GLOBAL_UNCERTAINTY_ASSIGNED_CONTEXT ( ( #373 ) ) GLOBAL_UNIT_ASSIGNED_CONTEXT ( ( #307, #102, #193 ) ) REPRESENTATION_CONTEXT ( 'NONE', 'WORKASPACE' ) );
#120 = FACE_OUTER_BOUND ( 'NONE', #46, .T. ) ;
#121 = UNCERTAINTY_MEASURE_WITH_UNIT (LENGTH_MEASURE( 1.000000000000000082E-05 ), #135, 'distance_accuracy_value', 'NONE');
#122 = DIMENSIONAL_EXPONENTS ( 1.000000000000000000, 0.000000000000000000, 0.000000000000000000, 0.000000000000000000, 0.000000000000000000, 0.000000000000000000, 0.000000000000000000 ) ;
#123 = DIRECTION ( 'NONE',  ( -1.234291971503516649E-16, 1.000000000000000000, -0.000000000000000000 ) ) ;
#124 = DIRECTION ( 'NONE',  ( 0.000000000000000000, -0.000000000000000000, 1.000000000000000000 ) ) ;
#125 = DIMENSIONAL_EXPONENTS ( 1.000000000000000000, 0.000000000000000000, 0.000000000000000000, 0.000000000000000000, 0.000000000000000000, 0.000000000000000000, 0.000000000000000000 ) ;
#126 = AXIS2_PLACEMENT_3D ( 'NONE', #48, #105, #315 ) ;
#127 = DIRECTION ( 'NONE',  ( -1.000000000000000000, 0.000000000000000000, 0.000000000000000000 ) ) ;
#128 =( CONVERSION_BASED_UNIT ( 'INCH', #70 ) LENGTH_UNIT ( ) NAMED_UNIT ( #125 ) );
#129 = CARTESIAN_POINT ( 'NONE',  ( 0.3749999999999998890, 3.000000000000000444, 0.000000000000000000 ) ) ;
#130 = AXIS2_PLACEMENT_3D ( 'NONE', #4, #331, #328 ) ;
#131 = ORIENTED_EDGE ( 'NONE', *, *, #50, .F. ) ;
#132 = MECHANICAL_DESIGN_GEOMETRIC_PRESENTATION_REPRESENTATION (  '', ( #51 ), #5 ) ;
#133 = DIRECTION ( 'NONE',  ( 0.000000000000000000, 0.000000000000000000, -1.000000000000000000 ) ) ;
#134 = PRESENTATION_STYLE_ASSIGNMENT (( #214 ) ) ;
#135 =( CONVERSION_BASED_UNIT ( 'INCH', #272 ) LENGTH_UNIT ( ) NAMED_UNIT ( #257 ) );
#136 = EDGE_CURVE ( 'NONE', #165, #158, #63, .T. ) ;
#137 = CARTESIAN_POINT ( 'NONE',  ( 0.000000000000000000, 0.000000000000000000, 0.000000000000000000 ) ) ;
#138 = ORIENTED_EDGE ( 'NONE', *, *, #78, .T. ) ;
#139 =( GEOMETRIC_REPRESENTATION_CONTEXT ( 3 ) GLOBAL_UNCERTAINTY_ASSIGNED_CONTEXT ( ( #97 ) ) GLOBAL_UNIT_ASSIGNED_CONTEXT ( ( #348, #369, #146 ) ) REPRESENTATION_CONTEXT ( 'NONE', 'WORKASPACE' ) );
#140 = SPHERICAL_SURFACE ( 'NONE', #40, 0.3750000000000000555 ) ;
#141 = ORIENTED_EDGE ( 'NONE', *, *, #210, .F. ) ;
#142 =( NAMED_UNIT ( * ) SI_UNIT ( $, .STERADIAN. ) SOLID_ANGLE_UNIT ( ) );
#143 = EDGE_CURVE ( 'NONE', #352, #106, #355, .T. ) ;
#144 = SURFACE_SIDE_STYLE ('',( #25 ) ) ;
#145 = PRESENTATION_LAYER_ASSIGNMENT (  '', '', ( #312 ) ) ;
#146 =( NAMED_UNIT ( * ) SI_UNIT ( $, .STERADIAN. ) SOLID_ANGLE_UNIT ( ) );
#147 = ORIENTED_EDGE ( 'NONE', *, *, #242, .T. ) ;
#148 = EDGE_LOOP ( 'NONE', ( #343, #147, #92, #326, #185 ) ) ;
#149 = ADVANCED_FACE ( 'NONE', ( #120 ), #179, .F. ) ;
#150 = CARTESIAN_POINT ( 'NONE',  ( 0.000000000000000000, 0.000000000000000000, -0.3749999999999999445 ) ) ;
#151 =( NAMED_UNIT ( * ) SI_UNIT ( $, .STERADIAN. ) SOLID_ANGLE_UNIT ( ) );
#152 = LENGTH_MEASURE_WITH_UNIT ( LENGTH_MEASURE( 0.02539999999999999897 ), #35 );
#153 = PRESENTATION_STYLE_ASSIGNMENT (( #254 ) ) ;
#154 =( GEOMETRIC_REPRESENTATION_CONTEXT ( 3 ) GLOBAL_UNCERTAINTY_ASSIGNED_CONTEXT ( ( #68 ) ) GLOBAL_UNIT_ASSIGNED_CONTEXT ( ( #271, #354, #12 ) ) REPRESENTATION_CONTEXT ( 'NONE', 'WORKASPACE' ) );
#155 = COLOUR_RGB ( '',1.000000000000000000, 0.000000000000000000, 0.000000000000000000 ) ;
#156 = CARTESIAN_POINT ( 'NONE',  ( 0.000000000000000000, 0.8749999999999997780, 0.000000000000000000 ) ) ;
#157 = DIRECTION ( 'NONE',  ( 0.000000000000000000, 0.000000000000000000, -1.000000000000000000 ) ) ;
#158 = VERTEX_POINT ( 'NONE', #67 ) ;
#159 = FILL_AREA_STYLE_COLOUR ( '', #38 ) ;
#160 = VERTEX_POINT ( 'NONE', #180 ) ;
#161 =( LENGTH_UNIT ( ) NAMED_UNIT ( * ) SI_UNIT ( $, .METRE. ) );
#162 = ORIENTED_EDGE ( 'NONE', *, *, #136, .T. ) ;
#163 = DIRECTION ( 'NONE',  ( -1.234291971503516649E-16, 1.000000000000000000, -0.000000000000000000 ) ) ;
#164 = FILL_AREA_STYLE_COLOUR ( '', #182 ) ;
#165 = VERTEX_POINT ( 'NONE', #243 ) ;
#166 = CARTESIAN_POINT ( 'NONE',  ( 6.296810836887032500E-16, 0.8749999999999997780, 0.000000000000000000 ) ) ;
#167 = CIRCLE ( 'NONE', #9, 0.3749999999999999445 ) ;
#168 = AXIS2_PLACEMENT_3D ( 'NONE', #137, #341, #157 ) ;
#169 = DIRECTION ( 'NONE',  ( -1.000000000000000000, 0.000000000000000000, 0.000000000000000000 ) ) ;
#170 = LENGTH_MEASURE_WITH_UNIT ( LENGTH_MEASURE( 0.02539999999999999897 ), #11 );
#171 =( LENGTH_UNIT ( ) NAMED_UNIT ( * ) SI_UNIT ( $, .METRE. ) );
#172 = DIMENSIONAL_EXPONENTS ( 1.000000000000000000, 0.000000000000000000, 0.000000000000000000, 0.000000000000000000, 0.000000000000000000, 0.000000000000000000, 0.000000000000000000 ) ;
#173 = UNCERTAINTY_MEASURE_WITH_UNIT (LENGTH_MEASURE( 1.000000000000000082E-05 ), #30, 'distance_accuracy_value', 'NONE');
#174 = CARTESIAN_POINT ( 'NONE',  ( -4.592425496802575451E-17, 0.3750000000000000555, 0.000000000000000000 ) ) ;
#175 =( GEOMETRIC_REPRESENTATION_CONTEXT ( 3 ) GLOBAL_UNCERTAINTY_ASSIGNED_CONTEXT ( ( #7 ) ) GLOBAL_UNIT_ASSIGNED_CONTEXT ( ( #110, #253, #198 ) ) REPRESENTATION_CONTEXT ( 'NONE', 'WORKASPACE' ) );
#176 = AXIS2_PLACEMENT_3D ( 'NONE', #224, #290, #228 ) ;
#177 = DIRECTION ( 'NONE',  ( 0.000000000000000000, 0.000000000000000000, -1.000000000000000000 ) ) ;
#178 = EDGE_CURVE ( 'NONE', #321, #352, #15, .T. ) ;
#179 = PLANE ( 'NONE',  #130 ) ;
#180 = CARTESIAN_POINT ( 'NONE',  ( 4.592425496802573602E-17, 0.3750000000000001110, 0.3749999999999999445 ) ) ;
#181 = CIRCLE ( 'NONE', #202, 0.3749999999999995559 ) ;
#182 = COLOUR_RGB ( '',0.7921568627450980005, 0.8196078431372548767, 0.9333333333333333481 ) ;
#183 = DIRECTION ( 'NONE',  ( 0.000000000000000000, 1.000000000000000000, 0.000000000000000000 ) ) ;
#184 =( LENGTH_UNIT ( ) NAMED_UNIT ( * ) SI_UNIT ( $, .METRE. ) );
#185 = ORIENTED_EDGE ( 'NONE', *, *, #143, .F. ) ;
#186 = CYLINDRICAL_SURFACE ( 'NONE', #176, 0.3749999999999999445 ) ;
#187 = CARTESIAN_POINT ( 'NONE',  ( -0.3749999999999990563, 3.000000000000000444, 0.000000000000000000 ) ) ;
#188 = FILL_AREA_STYLE ('',( #159 ) ) ;
#189 = ORIENTED_EDGE ( 'NONE', *, *, #237, .T. ) ;
#190 = MANIFOLD_SOLID_BREP ( 'Revolve - Tool Body (Straight Shanked)', #86 ) ;
#191 = AXIS2_PLACEMENT_3D ( 'NONE', #275, #245, #133 ) ;
#192 = CARTESIAN_POINT ( 'NONE',  ( -0.3750000000000000555, 0.3750000000000001110, 4.592425496802574219E-17 ) ) ;
#193 =( NAMED_UNIT ( * ) SI_UNIT ( $, .STERADIAN. ) SOLID_ANGLE_UNIT ( ) );
#194 = PRESENTATION_STYLE_ASSIGNMENT (( #336 ) ) ;
#195 = SURFACE_STYLE_USAGE ( .BOTH. , #59 ) ;
#196 = DIRECTION ( 'NONE',  ( -1.000000000000000000, 0.000000000000000000, 0.000000000000000000 ) ) ;
#197 =( NAMED_UNIT ( * ) PLANE_ANGLE_UNIT ( ) SI_UNIT ( $, .RADIAN. ) );
#198 =( NAMED_UNIT ( * ) SI_UNIT ( $, .STERADIAN. ) SOLID_ANGLE_UNIT ( ) );
#199 = PLANE ( 'NONE',  #368 ) ;
#200 = FILL_AREA_STYLE ('',( #84 ) ) ;
#201 = ORIENTED_EDGE ( 'NONE', *, *, #210, .T. ) ;
#202 = AXIS2_PLACEMENT_3D ( 'NONE', #238, #262, #211 ) ;
#203 = COLOUR_RGB ( '',1.000000000000000000, 0.000000000000000000, 0.000000000000000000 ) ;
#204 = ORIENTED_EDGE ( 'NONE', *, *, #356, .T. ) ;
#205 = DIRECTION ( 'NONE',  ( -1.000000000000000000, 0.000000000000000000, 0.000000000000000000 ) ) ;
#206 = CIRCLE ( 'NONE', #249, 0.3749999999999995559 ) ;
#207 = AXIS2_PLACEMENT_3D ( 'NONE', #370, #163, #226 ) ;
#208 = DIRECTION ( 'NONE',  ( 0.000000000000000000, 0.000000000000000000, -1.000000000000000000 ) ) ;
#209 = SURFACE_STYLE_FILL_AREA ( #353 ) ;
#210 = EDGE_CURVE ( 'NONE', #160, #324, #167, .T. ) ;
#211 = DIRECTION ( 'NONE',  ( -1.000000000000000000, 0.000000000000000000, 0.000000000000000000 ) ) ;
#212 = DIRECTION ( 'NONE',  ( -1.000000000000000000, 0.000000000000000000, 0.000000000000000000 ) ) ;
#213 = PRESENTATION_LAYER_ASSIGNMENT (  '', '', ( #51 ) ) ;
#214 = SURFACE_STYLE_USAGE ( .BOTH. , #277 ) ;
#215 = DIRECTION ( 'NONE',  ( 1.000000000000000000, 0.000000000000000000, 0.000000000000000000 ) ) ;
#216 = CARTESIAN_POINT ( 'NONE',  ( 3.673940397442059375E-16, 3.000000000000000444, 0.000000000000000000 ) ) ;
#217 = SURFACE_SIDE_STYLE ('',( #311 ) ) ;
#218 = ORIENTED_EDGE ( 'NONE', *, *, #78, .F. ) ;
#219 = PRODUCT_DEFINITION ( 'UNKNOWN', '', #298, #333 ) ;
#220 = CARTESIAN_POINT ( 'NONE',  ( 4.592425496802573602E-17, 0.000000000000000000, 0.3749999999999999445 ) ) ;
#221 = FILL_AREA_STYLE ('',( #14 ) ) ;
#222 = EDGE_LOOP ( 'NONE', ( #308, #112 ) ) ;
#223 = EDGE_CURVE ( 'NONE', #324, #252, #250, .T. ) ;
#224 = CARTESIAN_POINT ( 'NONE',  ( 0.000000000000000000, 0.000000000000000000, 0.000000000000000000 ) ) ;
#225 = ORIENTED_EDGE ( 'NONE', *, *, #178, .T. ) ;
#226 = DIRECTION ( 'NONE',  ( -1.000000000000000000, 0.000000000000000000, 0.000000000000000000 ) ) ;
#227 = ORIENTED_EDGE ( 'NONE', *, *, #325, .T. ) ;
#228 = DIRECTION ( 'NONE',  ( 0.000000000000000000, 0.000000000000000000, -1.000000000000000000 ) ) ;
#229 = SURFACE_SIDE_STYLE ('',( #26 ) ) ;
#230 = UNCERTAINTY_MEASURE_WITH_UNIT (LENGTH_MEASURE( 1.000000000000000082E-05 ), #49, 'distance_accuracy_value', 'NONE');
#231 = ORIENTED_EDGE ( 'NONE', *, *, #251, .F. ) ;
#232 = LENGTH_MEASURE_WITH_UNIT ( LENGTH_MEASURE( 0.02539999999999999897 ), #323 );
#233 = LENGTH_MEASURE_WITH_UNIT ( LENGTH_MEASURE( 0.02539999999999999897 ), #171 );
#234 = VECTOR ( 'NONE', #18, 39.37007874015748143 ) ;
#235 = AXIS2_PLACEMENT_3D ( 'NONE', #309, #240, #215 ) ;
#236 = DIRECTION ( 'NONE',  ( -0.000000000000000000, -1.000000000000000000, -0.000000000000000000 ) ) ;
#237 = EDGE_CURVE ( 'NONE', #165, #117, #43, .T. ) ;
#238 = CARTESIAN_POINT ( 'NONE',  ( 3.673940397442059375E-16, 3.000000000000000444, 0.000000000000000000 ) ) ;
#239 = DIRECTION ( 'NONE',  ( 0.000000000000000000, 0.000000000000000000, -1.000000000000000000 ) ) ;
#240 = DIRECTION ( 'NONE',  ( 0.000000000000000000, 0.000000000000000000, 1.000000000000000000 ) ) ;
#241 = COLOUR_RGB ( '',1.000000000000000000, 0.000000000000000000, 0.000000000000000000 ) ;
#242 = EDGE_CURVE ( 'NONE', #321, #160, #267, .T. ) ;
#243 = CARTESIAN_POINT ( 'NONE',  ( 0.3749999999999998890, 0.8749999999999997780, 4.592425496802568672E-17 ) ) ;
#244 =( NAMED_UNIT ( * ) SI_UNIT ( $, .STERADIAN. ) SOLID_ANGLE_UNIT ( ) );
#245 = DIRECTION ( 'NONE',  ( -0.000000000000000000, -1.000000000000000000, -0.000000000000000000 ) ) ;
#246 = FILL_AREA_STYLE_COLOUR ( '', #64 ) ;
#247 =( NAMED_UNIT ( * ) PLANE_ANGLE_UNIT ( ) SI_UNIT ( $, .RADIAN. ) );
#248 = ORIENTED_EDGE ( 'NONE', *, *, #223, .T. ) ;
#249 = AXIS2_PLACEMENT_3D ( 'NONE', #285, #318, #169 ) ;
#250 = CIRCLE ( 'NONE', #371, 0.3750000000000000555 ) ;
#251 = EDGE_CURVE ( 'NONE', #352, #321, #87, .T. ) ;
#252 = VERTEX_POINT ( 'NONE', #366 ) ;
#253 =( NAMED_UNIT ( * ) PLANE_ANGLE_UNIT ( ) SI_UNIT ( $, .RADIAN. ) );
#254 = SURFACE_STYLE_USAGE ( .BOTH. , #144 ) ;
#255 = ORIENTED_EDGE ( 'NONE', *, *, #136, .F. ) ;
#256 = PRESENTATION_LAYER_ASSIGNMENT (  '', '', ( #364 ) ) ;
#257 = DIMENSIONAL_EXPONENTS ( 1.000000000000000000, 0.000000000000000000, 0.000000000000000000, 0.000000000000000000, 0.000000000000000000, 0.000000000000000000, 0.000000000000000000 ) ;
#258 = PRESENTATION_STYLE_ASSIGNMENT (( #116 ) ) ;
#259 = ORIENTED_EDGE ( 'NONE', *, *, #242, .F. ) ;
#260 = LENGTH_MEASURE_WITH_UNIT ( LENGTH_MEASURE( 0.02539999999999999897 ), #283 );
#261 = PRESENTATION_STYLE_ASSIGNMENT (( #29 ) ) ;
#262 = DIRECTION ( 'NONE',  ( -1.234291971503516649E-16, 1.000000000000000000, -0.000000000000000000 ) ) ;
#263 = AXIS2_PLACEMENT_3D ( 'NONE', #42, #8, #239 ) ;
#264 = PRESENTATION_LAYER_ASSIGNMENT (  '', '', ( #73 ) ) ;
#265 = AXIS2_PLACEMENT_3D ( 'NONE', #129, #365, #104 ) ;
#266 = CARTESIAN_POINT ( 'NONE',  ( 0.3749999999999997780, 3.000000000000000444, 4.592425496802567439E-17 ) ) ;
#267 = LINE ( 'NONE', #220, #234 ) ;
#268 = DIRECTION ( 'NONE',  ( -0.000000000000000000, -1.000000000000000000, -0.000000000000000000 ) ) ;
#269 = APPLICATION_PROTOCOL_DEFINITION ( 'draft international standard', 'automotive_design', 1998, #2 ) ;
#270 = VECTOR ( 'NONE', #361, 39.37007874015748143 ) ;
#271 =( CONVERSION_BASED_UNIT ( 'INCH', #152 ) LENGTH_UNIT ( ) NAMED_UNIT ( #66 ) );
#272 = LENGTH_MEASURE_WITH_UNIT ( LENGTH_MEASURE( 0.02539999999999999897 ), #161 );
#273 = DIRECTION ( 'NONE',  ( -0.000000000000000000, -1.000000000000000000, -0.000000000000000000 ) ) ;
#274 = ADVANCED_FACE ( 'NONE', ( #45 ), #314, .T. ) ;
#275 = CARTESIAN_POINT ( 'NONE',  ( 0.000000000000000000, 0.3750000000000001110, 0.000000000000000000 ) ) ;
#276 = MECHANICAL_DESIGN_GEOMETRIC_PRESENTATION_REPRESENTATION (  '', ( #73 ), #119 ) ;
#277 = SURFACE_SIDE_STYLE ('',( #99 ) ) ;
#278 = PLANE ( 'NONE',  #265 ) ;
#279 = ADVANCED_FACE ( 'NONE', ( #340 ), #20, .T. ) ;
#280 = EDGE_LOOP ( 'NONE', ( #100, #138, #204, #1 ) ) ;
#281 = CIRCLE ( 'NONE', #302, 0.3749999999999999445 ) ;
#282 = MECHANICAL_DESIGN_GEOMETRIC_PRESENTATION_REPRESENTATION (  '', ( #297 ), #346 ) ;
#283 =( LENGTH_UNIT ( ) NAMED_UNIT ( * ) SI_UNIT ( $, .METRE. ) );
#284 = FILL_AREA_STYLE ('',( #164 ) ) ;
#285 = CARTESIAN_POINT ( 'NONE',  ( 3.673940397442059375E-16, 3.000000000000000444, 0.000000000000000000 ) ) ;
#286 = ADVANCED_FACE ( 'NONE', ( #77 ), #186, .T. ) ;
#287 = DIMENSIONAL_EXPONENTS ( 1.000000000000000000, 0.000000000000000000, 0.000000000000000000, 0.000000000000000000, 0.000000000000000000, 0.000000000000000000, 0.000000000000000000 ) ;
#288 = CARTESIAN_POINT ( 'NONE',  ( 0.3749999999999999445, 0.3750000000000001110, 0.000000000000000000 ) ) ;
#289 = VERTEX_POINT ( 'NONE', #288 ) ;
#290 = DIRECTION ( 'NONE',  ( -0.000000000000000000, -1.000000000000000000, -0.000000000000000000 ) ) ;
#291 = FACE_OUTER_BOUND ( 'NONE', #85, .T. ) ;
#292 = DIRECTION ( 'NONE',  ( -0.000000000000000000, -1.000000000000000000, -0.000000000000000000 ) ) ;
#293 = ADVANCED_FACE ( 'NONE', ( #342 ), #140, .T. ) ;
#294 = DIMENSIONAL_EXPONENTS ( 1.000000000000000000, 0.000000000000000000, 0.000000000000000000, 0.000000000000000000, 0.000000000000000000, 0.000000000000000000, 0.000000000000000000 ) ;
#295 = CARTESIAN_POINT ( 'NONE',  ( 0.000000000000000000, 0.3750000000000001110, -0.3749999999999999445 ) ) ;
#296 = CIRCLE ( 'NONE', #263, 0.3749999999999999445 ) ;
#297 = STYLED_ITEM ( 'NONE', ( #153 ), #320 ) ;
#298 = PRODUCT_DEFINITION_FORMATION_WITH_SPECIFIED_SOURCE ( 'ANY', '', #322, .NOT_KNOWN. ) ;
#299 = CARTESIAN_POINT ( 'NONE',  ( 6.296810836887032500E-16, 0.8749999999999997780, 0.000000000000000000 ) ) ;
#300 = FILL_AREA_STYLE_COLOUR ( '', #37 ) ;
#301 = DIRECTION ( 'NONE',  ( 0.000000000000000000, 0.000000000000000000, -1.000000000000000000 ) ) ;
#302 = AXIS2_PLACEMENT_3D ( 'NONE', #89, #292, #62 ) ;
#303 = AXIS2_PLACEMENT_3D ( 'NONE', #299, #34, #127 ) ;
#304 = DIRECTION ( 'NONE',  ( -1.234291971503516649E-16, 1.000000000000000000, -0.000000000000000000 ) ) ;
#305 = CIRCLE ( 'NONE', #191, 0.3749999999999999445 ) ;
#306 = CARTESIAN_POINT ( 'NONE',  ( -0.3749999999999992228, 3.000000000000000444, 0.000000000000000000 ) ) ;
#307 =( CONVERSION_BASED_UNIT ( 'INCH', #80 ) LENGTH_UNIT ( ) NAMED_UNIT ( #172 ) );
#308 = ORIENTED_EDGE ( 'NONE', *, *, #57, .T. ) ;
#309 = CARTESIAN_POINT ( 'NONE',  ( 0.000000000000000000, 0.000000000000000000, 0.000000000000000000 ) ) ;
#310 = ADVANCED_FACE ( 'NONE', ( #23 ), #52, .T. ) ;
#311 = SURFACE_STYLE_FILL_AREA ( #188 ) ;
#312 = STYLED_ITEM ( 'NONE', ( #261 ), #81 ) ;
#313 = AXIS2_PLACEMENT_3D ( 'NONE', #156, #273, #338 ) ;
#314 = SPHERICAL_SURFACE ( 'NONE', #126, 0.3750000000000000555 ) ;
#315 = DIRECTION ( 'NONE',  ( 1.000000000000000000, 0.000000000000000000, 0.000000000000000000 ) ) ;
#316 = VECTOR ( 'NONE', #123, 39.37007874015748143 ) ;
#317 = DIRECTION ( 'NONE',  ( 1.000000000000000000, 0.000000000000000000, 0.000000000000000000 ) ) ;
#318 = DIRECTION ( 'NONE',  ( -1.234291971503516649E-16, 1.000000000000000000, -0.000000000000000000 ) ) ;
#319 = SURFACE_STYLE_FILL_AREA ( #111 ) ;
#320 = MANIFOLD_SOLID_BREP ( 'Revolve - Cutting Edge', #94 ) ;
#321 = VERTEX_POINT ( 'NONE', #41 ) ;
#322 = PRODUCT ( '56632', '56632', '', ( #362 ) ) ;
#323 =( LENGTH_UNIT ( ) NAMED_UNIT ( * ) SI_UNIT ( $, .METRE. ) );
#324 = VERTEX_POINT ( 'NONE', #192 ) ;
#325 = EDGE_CURVE ( 'NONE', #117, #83, #344, .T. ) ;
#326 = ORIENTED_EDGE ( 'NONE', *, *, #356, .F. ) ;
#327 = DIMENSIONAL_EXPONENTS ( 1.000000000000000000, 0.000000000000000000, 0.000000000000000000, 0.000000000000000000, 0.000000000000000000, 0.000000000000000000, 0.000000000000000000 ) ;
#328 = DIRECTION ( 'NONE',  ( -1.000000000000000000, -1.234291971503516649E-16, 0.000000000000000000 ) ) ;
#329 = CARTESIAN_POINT ( 'NONE',  ( 0.000000000000000000, 0.3750000000000001110, 0.000000000000000000 ) ) ;
#330 = STYLED_ITEM ( 'NONE', ( #36 ), #190 ) ;
#331 = DIRECTION ( 'NONE',  ( -1.234291971503516649E-16, 1.000000000000000000, 0.000000000000000000 ) ) ;
#332 = DIRECTION ( 'NONE',  ( 1.000000000000000000, 0.000000000000000000, -1.224646799147353207E-16 ) ) ;
#333 = PRODUCT_DEFINITION_CONTEXT ( 'detailed design', #75, 'design' ) ;
#334 = FACE_OUTER_BOUND ( 'NONE', #55, .T. ) ;
#335 = CARTESIAN_POINT ( 'NONE',  ( 0.000000000000000000, 0.8749999999999997780, 0.000000000000000000 ) ) ;
#336 = SURFACE_STYLE_USAGE ( .BOTH. , #217 ) ;
#337 = FACE_OUTER_BOUND ( 'NONE', #222, .T. ) ;
#338 = DIRECTION ( 'NONE',  ( 0.000000000000000000, 0.000000000000000000, -1.000000000000000000 ) ) ;
#339 = ORIENTED_EDGE ( 'NONE', *, *, #103, .F. ) ;
#340 = FACE_OUTER_BOUND ( 'NONE', #148, .T. ) ;
#341 = DIRECTION ( 'NONE',  ( -0.000000000000000000, -1.000000000000000000, -0.000000000000000000 ) ) ;
#342 = FACE_OUTER_BOUND ( 'NONE', #115, .T. ) ;
#343 = ORIENTED_EDGE ( 'NONE', *, *, #251, .T. ) ;
#344 = LINE ( 'NONE', #187, #101 ) ;
#345 = ORIENTED_EDGE ( 'NONE', *, *, #143, .T. ) ;
#346 =( GEOMETRIC_REPRESENTATION_CONTEXT ( 3 ) GLOBAL_UNCERTAINTY_ASSIGNED_CONTEXT ( ( #173 ) ) GLOBAL_UNIT_ASSIGNED_CONTEXT ( ( #30, #6, #151 ) ) REPRESENTATION_CONTEXT ( 'NONE', 'WORKASPACE' ) );
#347 = SURFACE_STYLE_FILL_AREA ( #200 ) ;
#348 =( CONVERSION_BASED_UNIT ( 'INCH', #260 ) LENGTH_UNIT ( ) NAMED_UNIT ( #122 ) );
#349 = ORIENTED_EDGE ( 'NONE', *, *, #178, .F. ) ;
#350 = ADVANCED_FACE ( 'NONE', ( #337 ), #278, .F. ) ;
#351 = AXIS2_PLACEMENT_3D ( 'NONE', #166, #61, #196 ) ;
#352 = VERTEX_POINT ( 'NONE', #19 ) ;
#353 = FILL_AREA_STYLE ('',( #300 ) ) ;
#354 =( NAMED_UNIT ( * ) PLANE_ANGLE_UNIT ( ) SI_UNIT ( $, .RADIAN. ) );
#355 = LINE ( 'NONE', #150, #270 ) ;
#356 = EDGE_CURVE ( 'NONE', #106, #289, #305, .T. ) ;
#357 = AXIS2_PLACEMENT_3D ( 'NONE', #98, #236, #301 ) ;
#358 = UNCERTAINTY_MEASURE_WITH_UNIT (LENGTH_MEASURE( 1.000000000000000082E-05 ), #128, 'distance_accuracy_value', 'NONE');
#359 = SURFACE_SIDE_STYLE ('',( #209 ) ) ;
#360 = ADVANCED_BREP_SHAPE_REPRESENTATION ( '56632', ( #320, #190, #235 ), #17 ) ;
#361 = DIRECTION ( 'NONE',  ( -0.000000000000000000, -1.000000000000000000, -0.000000000000000000 ) ) ;
#362 = PRODUCT_CONTEXT ( 'NONE', #2, 'mechanical' ) ;
#363 = MECHANICAL_DESIGN_GEOMETRIC_PRESENTATION_REPRESENTATION (  '', ( #312 ), #175 ) ;
#364 = STYLED_ITEM ( 'NONE', ( #88 ), #293 ) ;
#365 = DIRECTION ( 'NONE',  ( 1.234291971503516649E-16, -1.000000000000000000, 0.000000000000000000 ) ) ;
#366 = CARTESIAN_POINT ( 'NONE',  ( -2.296212748401287726E-17, 0.000000000000000000, 0.000000000000000000 ) ) ;
#367 = ADVANCED_FACE ( 'NONE', ( #334 ), #76, .T. ) ;
#368 = AXIS2_PLACEMENT_3D ( 'NONE', #335, #183, #124 ) ;
#369 =( NAMED_UNIT ( * ) PLANE_ANGLE_UNIT ( ) SI_UNIT ( $, .RADIAN. ) );
#370 = CARTESIAN_POINT ( 'NONE',  ( 3.673940397442059375E-16, 3.000000000000000444, 0.000000000000000000 ) ) ;
#371 = AXIS2_PLACEMENT_3D ( 'NONE', #174, #96, #332 ) ;
#372 = ORIENTED_EDGE ( 'NONE', *, *, #107, .F. ) ;
#373 = UNCERTAINTY_MEASURE_WITH_UNIT (LENGTH_MEASURE( 1.000000000000000082E-05 ), #307, 'distance_accuracy_value', 'NONE');
ENDSEC;
END-ISO-10303-21;
