ISO-10303-21;
HEADER;
FILE_DESCRIPTION (( 'STEP AP214' ),
    '1' );
FILE_NAME ('59523.STEP',
    '2023-07-24T15:08:59',
    ( '' ),
    ( '' ),
    'SwSTEP 2.0',
    'SolidWorks 2023',
    '' );
FILE_SCHEMA (( 'AUTOMOTIVE_DESIGN' ));
ENDSEC;

DATA;
#1 = CIRCLE ( 'NONE', #322, 0.4999999999999995559 ) ;
#2 = VERTEX_POINT ( 'NONE', #183 ) ;
#3 = UNCERTAINTY_MEASURE_WITH_UNIT (LENGTH_MEASURE( 1.000000000000000082E-05 ), #240, 'distance_accuracy_value', 'NONE');
#4 = CARTESIAN_POINT ( 'NONE',  ( 0.000000000000000000, 0.000000000000000000, -4.500000000000000888 ) ) ;
#5 = ORIENTED_EDGE ( 'NONE', *, *, #15, .T. ) ;
#6 = CARTESIAN_POINT ( 'NONE',  ( 0.000000000000000000, 0.5000000000000000000, 0.000000000000000000 ) ) ;
#7 = FACE_OUTER_BOUND ( 'NONE', #63, .T. ) ;
#8 = EDGE_CURVE ( 'NONE', #69, #211, #149, .T. ) ;
#9 = SURFACE_SIDE_STYLE ('',( #182 ) ) ;
#10 = ORIENTED_EDGE ( 'NONE', *, *, #62, .F. ) ;
#11 = COLOUR_RGB ( '',1.000000000000000000, 0.000000000000000000, 0.000000000000000000 ) ;
#12 = COLOUR_RGB ( '',1.000000000000000000, 0.000000000000000000, 0.000000000000000000 ) ;
#13 =( NAMED_UNIT ( * ) PLANE_ANGLE_UNIT ( ) SI_UNIT ( $, .RADIAN. ) );
#14 = SURFACE_STYLE_USAGE ( .BOTH. , #178 ) ;
#15 = EDGE_CURVE ( 'NONE', #69, #33, #262, .T. ) ;
#16 =( NAMED_UNIT ( * ) SI_UNIT ( $, .STERADIAN. ) SOLID_ANGLE_UNIT ( ) );
#17 =( NAMED_UNIT ( * ) PLANE_ANGLE_UNIT ( ) SI_UNIT ( $, .RADIAN. ) );
#18 = CARTESIAN_POINT ( 'NONE',  ( -4.999999999999993783, 63.00000000000000000, 0.000000000000000000 ) ) ;
#19 = AXIS2_PLACEMENT_3D ( 'NONE', #307, #48, #138 ) ;
#20 = MECHANICAL_DESIGN_GEOMETRIC_PRESENTATION_REPRESENTATION (  '', ( #144 ), #284 ) ;
#21 = FACE_OUTER_BOUND ( 'NONE', #311, .T. ) ;
#22 =( NAMED_UNIT ( * ) PLANE_ANGLE_UNIT ( ) SI_UNIT ( $, .RADIAN. ) );
#23 = ADVANCED_FACE ( 'NONE', ( #346 ), #209, .T. ) ;
#24 = AXIS2_PLACEMENT_3D ( 'NONE', #225, #27, #25 ) ;
#25 = DIRECTION ( 'NONE',  ( 0.000000000000000000, 0.000000000000000000, -1.000000000000000000 ) ) ;
#26 = PRODUCT_RELATED_PRODUCT_CATEGORY ( 'part', '', ( #281 ) ) ;
#27 = DIRECTION ( 'NONE',  ( -0.000000000000000000, -1.000000000000000000, -0.000000000000000000 ) ) ;
#28 = FILL_AREA_STYLE_COLOUR ( '', #122 ) ;
#29 = CARTESIAN_POINT ( 'NONE',  ( 0.000000000000000000, 0.5000000000000000000, -5.000000000000000000 ) ) ;
#30 = AXIS2_PLACEMENT_3D ( 'NONE', #31, #315, #312 ) ;
#31 = CARTESIAN_POINT ( 'NONE',  ( 1.469576158976823750E-15, 63.00000000000000000, 0.000000000000000000 ) ) ;
#32 = ADVANCED_FACE ( 'NONE', ( #7 ), #366, .T. ) ;
#33 = VERTEX_POINT ( 'NONE', #297 ) ;
#34 = AXIS2_PLACEMENT_3D ( 'NONE', #256, #369, #367 ) ;
#35 = STYLED_ITEM ( 'NONE', ( #248 ), #355 ) ;
#36 = ORIENTED_EDGE ( 'NONE', *, *, #235, .F. ) ;
#37 = ORIENTED_EDGE ( 'NONE', *, *, #302, .T. ) ;
#38 = MANIFOLD_SOLID_BREP ( 'Revolve - Cutting Edge', #252 ) ;
#39 = FACE_OUTER_BOUND ( 'NONE', #169, .T. ) ;
#40 = ORIENTED_EDGE ( 'NONE', *, *, #180, .F. ) ;
#41 = CLOSED_SHELL ( 'NONE', ( #23, #290, #120, #365 ) ) ;
#42 = FILL_AREA_STYLE ('',( #267 ) ) ;
#43 = MECHANICAL_DESIGN_GEOMETRIC_PRESENTATION_REPRESENTATION (  '', ( #110 ), #230 ) ;
#44 = MECHANICAL_DESIGN_GEOMETRIC_PRESENTATION_REPRESENTATION (  '', ( #35 ), #349 ) ;
#45 = PRODUCT_DEFINITION_SHAPE ( 'NONE', 'NONE',  #350 ) ;
#46 = ORIENTED_EDGE ( 'NONE', *, *, #229, .F. ) ;
#47 = SURFACE_STYLE_FILL_AREA ( #361 ) ;
#48 = DIRECTION ( 'NONE',  ( -0.000000000000000000, -1.000000000000000000, -0.000000000000000000 ) ) ;
#49 = CIRCLE ( 'NONE', #154, 4.999999999999993783 ) ;
#50 =( GEOMETRIC_REPRESENTATION_CONTEXT ( 3 ) GLOBAL_UNCERTAINTY_ASSIGNED_CONTEXT ( ( #344 ) ) GLOBAL_UNIT_ASSIGNED_CONTEXT ( ( #127, #210, #324 ) ) REPRESENTATION_CONTEXT ( 'NONE', 'WORKASPACE' ) );
#51 = SURFACE_STYLE_FILL_AREA ( #102 ) ;
#52 = LINE ( 'NONE', #18, #161 ) ;
#53 = APPLICATION_PROTOCOL_DEFINITION ( 'draft international standard', 'automotive_design', 1998, #249 ) ;
#54 = AXIS2_PLACEMENT_3D ( 'NONE', #275, #358, #253 ) ;
#55 = SURFACE_SIDE_STYLE ('',( #223 ) ) ;
#56 =( NAMED_UNIT ( * ) SI_UNIT ( $, .STERADIAN. ) SOLID_ANGLE_UNIT ( ) );
#57 = CARTESIAN_POINT ( 'NONE',  ( 0.000000000000000000, 0.000000000000000000, 0.000000000000000000 ) ) ;
#58 = PRESENTATION_STYLE_ASSIGNMENT (( #313 ) ) ;
#59 = ORIENTED_EDGE ( 'NONE', *, *, #143, .T. ) ;
#60 = FILL_AREA_STYLE ('',( #115 ) ) ;
#61 = SURFACE_STYLE_FILL_AREA ( #227 ) ;
#62 = EDGE_CURVE ( 'NONE', #211, #294, #1, .T. ) ;
#63 = EDGE_LOOP ( 'NONE', ( #317, #152, #370, #36 ) ) ;
#64 = PRESENTATION_STYLE_ASSIGNMENT (( #273 ) ) ;
#65 = PRESENTATION_STYLE_ASSIGNMENT (( #347 ) ) ;
#66 = AXIS2_PLACEMENT_3D ( 'NONE', #185, #261, #150 ) ;
#67 = AXIS2_PLACEMENT_3D ( 'NONE', #6, #70, #179 ) ;
#68 = DIRECTION ( 'NONE',  ( -1.000000000000000000, 0.000000000000000000, 0.000000000000000000 ) ) ;
#69 = VERTEX_POINT ( 'NONE', #107 ) ;
#70 = DIRECTION ( 'NONE',  ( -0.000000000000000000, -1.000000000000000000, -0.000000000000000000 ) ) ;
#71 = EDGE_LOOP ( 'NONE', ( #40, #101, #266, #181 ) ) ;
#72 = DIRECTION ( 'NONE',  ( -9.135657442593541248E-17, 1.000000000000000000, 0.000000000000000000 ) ) ;
#73 = AXIS2_PLACEMENT_3D ( 'NONE', #203, #119, #259 ) ;
#74 = UNCERTAINTY_MEASURE_WITH_UNIT (LENGTH_MEASURE( 1.000000000000000082E-05 ), #251, 'distance_accuracy_value', 'NONE');
#75 = CARTESIAN_POINT ( 'NONE',  ( 5.000000000000000000, 63.00000000000000000, 0.000000000000000000 ) ) ;
#76 =( NAMED_UNIT ( * ) SI_UNIT ( $, .STERADIAN. ) SOLID_ANGLE_UNIT ( ) );
#77 = EDGE_CURVE ( 'NONE', #204, #2, #52, .T. ) ;
#78 = SURFACE_STYLE_USAGE ( .BOTH. , #328 ) ;
#79 = CIRCLE ( 'NONE', #184, 4.500000000000000888 ) ;
#80 = AXIS2_PLACEMENT_3D ( 'NONE', #108, #334, #82 ) ;
#81 = DIRECTION ( 'NONE',  ( 1.000000000000000000, 0.000000000000000000, 0.000000000000000000 ) ) ;
#82 = DIRECTION ( 'NONE',  ( 0.000000000000000000, 0.000000000000000000, -1.000000000000000000 ) ) ;
#83 = DIRECTION ( 'NONE',  ( 0.000000000000000000, -0.000000000000000000, 1.000000000000000000 ) ) ;
#84 = EDGE_CURVE ( 'NONE', #325, #292, #163, .T. ) ;
#85 = ORIENTED_EDGE ( 'NONE', *, *, #302, .F. ) ;
#86 = VECTOR ( 'NONE', #90, 1000.000000000000000 ) ;
#87 = PRESENTATION_STYLE_ASSIGNMENT (( #165 ) ) ;
#88 =( LENGTH_UNIT ( ) NAMED_UNIT ( * ) SI_UNIT ( .MILLI., .METRE. ) );
#89 = CIRCLE ( 'NONE', #24, 5.000000000000000000 ) ;
#90 = DIRECTION ( 'NONE',  ( -0.000000000000000000, -1.000000000000000000, -0.000000000000000000 ) ) ;
#91 =( NAMED_UNIT ( * ) SI_UNIT ( $, .STERADIAN. ) SOLID_ANGLE_UNIT ( ) );
#92 =( NAMED_UNIT ( * ) SI_UNIT ( $, .STERADIAN. ) SOLID_ANGLE_UNIT ( ) );
#93 = FACE_OUTER_BOUND ( 'NONE', #71, .T. ) ;
#94 = DIRECTION ( 'NONE',  ( -0.000000000000000000, -1.000000000000000000, -0.000000000000000000 ) ) ;
#95 = ADVANCED_FACE ( 'NONE', ( #364 ), #280, .T. ) ;
#96 = CIRCLE ( 'NONE', #30, 4.999999999999998224 ) ;
#97 = DIRECTION ( 'NONE',  ( -9.135657442593541248E-17, 1.000000000000000000, -0.000000000000000000 ) ) ;
#98 =( NAMED_UNIT ( * ) PLANE_ANGLE_UNIT ( ) SI_UNIT ( $, .RADIAN. ) );
#99 = ORIENTED_EDGE ( 'NONE', *, *, #8, .F. ) ;
#100 = CARTESIAN_POINT ( 'NONE',  ( 5.510910596163089556E-16, 0.5000000000000000000, 4.500000000000000888 ) ) ;
#101 = ORIENTED_EDGE ( 'NONE', *, *, #229, .T. ) ;
#102 = FILL_AREA_STYLE ('',( #360 ) ) ;
#103 = SURFACE_STYLE_USAGE ( .BOTH. , #160 ) ;
#104 = COLOUR_RGB ( '',1.000000000000000000, 0.000000000000000000, 0.000000000000000000 ) ;
#105 = UNCERTAINTY_MEASURE_WITH_UNIT (LENGTH_MEASURE( 1.000000000000000082E-05 ), #88, 'distance_accuracy_value', 'NONE');
#106 = CYLINDRICAL_SURFACE ( 'NONE', #80, 5.000000000000000000 ) ;
#107 = CARTESIAN_POINT ( 'NONE',  ( 0.000000000000000000, 15.00000000000000000, -5.000000000000000000 ) ) ;
#108 = CARTESIAN_POINT ( 'NONE',  ( 0.000000000000000000, 0.000000000000000000, 0.000000000000000000 ) ) ;
#109 = SURFACE_STYLE_USAGE ( .BOTH. , #158 ) ;
#110 = STYLED_ITEM ( 'NONE', ( #87 ), #268 ) ;
#111 =( GEOMETRIC_REPRESENTATION_CONTEXT ( 3 ) GLOBAL_UNCERTAINTY_ASSIGNED_CONTEXT ( ( #187 ) ) GLOBAL_UNIT_ASSIGNED_CONTEXT ( ( #330, #137, #190 ) ) REPRESENTATION_CONTEXT ( 'NONE', 'WORKASPACE' ) );
#112 = APPLICATION_PROTOCOL_DEFINITION ( 'draft international standard', 'automotive_design', 1998, #172 ) ;
#113 = EDGE_CURVE ( 'NONE', #325, #204, #304, .T. ) ;
#114 =( LENGTH_UNIT ( ) NAMED_UNIT ( * ) SI_UNIT ( .MILLI., .METRE. ) );
#115 = FILL_AREA_STYLE_COLOUR ( '', #271 ) ;
#116 = DIRECTION ( 'NONE',  ( 0.000000000000000000, 0.000000000000000000, -1.000000000000000000 ) ) ;
#117 = MECHANICAL_DESIGN_GEOMETRIC_PRESENTATION_REPRESENTATION (  '', ( #175 ), #316 ) ;
#118 = CIRCLE ( 'NONE', #363, 0.4999999999999995559 ) ;
#119 = DIRECTION ( 'NONE',  ( 0.000000000000000000, -1.000000000000000000, -0.000000000000000000 ) ) ;
#120 = ADVANCED_FACE ( 'NONE', ( #274 ), #134, .T. ) ;
#121 = CARTESIAN_POINT ( 'NONE',  ( 5.854691731421723944E-15, 15.00000000000000000, 0.000000000000000000 ) ) ;
#122 = COLOUR_RGB ( '',0.7921568627450980005, 0.8196078431372548767, 0.9333333333333333481 ) ;
#123 = UNCERTAINTY_MEASURE_WITH_UNIT (LENGTH_MEASURE( 1.000000000000000082E-05 ), #193, 'distance_accuracy_value', 'NONE');
#124 =( NAMED_UNIT ( * ) PLANE_ANGLE_UNIT ( ) SI_UNIT ( $, .RADIAN. ) );
#125 = DIRECTION ( 'NONE',  ( 0.000000000000000000, 0.000000000000000000, -1.000000000000000000 ) ) ;
#126 = CARTESIAN_POINT ( 'NONE',  ( 1.469576158976823750E-15, 63.00000000000000000, 0.000000000000000000 ) ) ;
#127 =( LENGTH_UNIT ( ) NAMED_UNIT ( * ) SI_UNIT ( .MILLI., .METRE. ) );
#128 = ORIENTED_EDGE ( 'NONE', *, *, #180, .T. ) ;
#129 = CYLINDRICAL_SURFACE ( 'NONE', #263, 5.000000000000000000 ) ;
#130 = CIRCLE ( 'NONE', #291, 4.500000000000000888 ) ;
#131 = CIRCLE ( 'NONE', #368, 4.999999999999998224 ) ;
#132 = ORIENTED_EDGE ( 'NONE', *, *, #77, .T. ) ;
#133 = ORIENTED_EDGE ( 'NONE', *, *, #84, .T. ) ;
#134 = CYLINDRICAL_SURFACE ( 'NONE', #245, 4.999999999999995559 ) ;
#135 = DIRECTION ( 'NONE',  ( -9.135657442593541248E-17, 1.000000000000000000, -0.000000000000000000 ) ) ;
#136 = PRESENTATION_LAYER_ASSIGNMENT (  '', '', ( #226 ) ) ;
#137 =( NAMED_UNIT ( * ) PLANE_ANGLE_UNIT ( ) SI_UNIT ( $, .RADIAN. ) );
#138 = DIRECTION ( 'NONE',  ( 0.000000000000000000, 0.000000000000000000, -1.000000000000000000 ) ) ;
#139 = FILL_AREA_STYLE_COLOUR ( '', #277 ) ;
#140 = PRESENTATION_LAYER_ASSIGNMENT (  '', '', ( #191 ) ) ;
#141 = DIRECTION ( 'NONE',  ( -1.000000000000000000, 0.000000000000000000, 0.000000000000000000 ) ) ;
#142 = ORIENTED_EDGE ( 'NONE', *, *, #113, .T. ) ;
#143 = EDGE_CURVE ( 'NONE', #204, #325, #49, .T. ) ;
#144 = STYLED_ITEM ( 'NONE', ( #64 ), #327 ) ;
#145 = CARTESIAN_POINT ( 'NONE',  ( 0.000000000000000000, 0.000000000000000000, 0.000000000000000000 ) ) ;
#146 = PLANE ( 'NONE',  #73 ) ;
#147 = MECHANICAL_DESIGN_GEOMETRIC_PRESENTATION_REPRESENTATION (  '', ( #191 ), #254 ) ;
#148 = CARTESIAN_POINT ( 'NONE',  ( 5.817072295949928412E-16, 0.000000000000000000, 4.500000000000000888 ) ) ;
#149 = LINE ( 'NONE', #348, #198 ) ;
#150 = DIRECTION ( 'NONE',  ( 0.000000000000000000, 0.000000000000000000, -1.000000000000000000 ) ) ;
#151 = FILL_AREA_STYLE_COLOUR ( '', #176 ) ;
#152 = ORIENTED_EDGE ( 'NONE', *, *, #264, .T. ) ;
#153 = CARTESIAN_POINT ( 'NONE',  ( 1.469576158976823750E-15, 63.00000000000000000, 0.000000000000000000 ) ) ;
#154 = AXIS2_PLACEMENT_3D ( 'NONE', #121, #343, #141 ) ;
#155 = SURFACE_STYLE_FILL_AREA ( #42 ) ;
#156 = DIRECTION ( 'NONE',  ( -1.000000000000000000, 0.000000000000000000, 0.000000000000000000 ) ) ;
#157 = CARTESIAN_POINT ( 'NONE',  ( 0.000000000000000000, 0.000000000000000000, 0.000000000000000000 ) ) ;
#158 = SURFACE_SIDE_STYLE ('',( #47 ) ) ;
#159 =( NAMED_UNIT ( * ) PLANE_ANGLE_UNIT ( ) SI_UNIT ( $, .RADIAN. ) );
#160 = SURFACE_SIDE_STYLE ('',( #189 ) ) ;
#161 = VECTOR ( 'NONE', #135, 1000.000000000000000 ) ;
#162 = CIRCLE ( 'NONE', #67, 5.000000000000000000 ) ;
#163 = LINE ( 'NONE', #301, #205 ) ;
#164 = PRESENTATION_LAYER_ASSIGNMENT (  '', '', ( #338 ) ) ;
#165 = SURFACE_STYLE_USAGE ( .BOTH. , #55 ) ;
#166 = ORIENTED_EDGE ( 'NONE', *, *, #113, .F. ) ;
#167 = EDGE_CURVE ( 'NONE', #294, #296, #130, .T. ) ;
#168 = LINE ( 'NONE', #283, #86 ) ;
#169 = EDGE_LOOP ( 'NONE', ( #37, #270, #352, #10 ) ) ;
#170 = CARTESIAN_POINT ( 'NONE',  ( 6.123233995736766282E-16, 0.5000000000000000000, 5.000000000000000000 ) ) ;
#171 = ORIENTED_EDGE ( 'NONE', *, *, #202, .T. ) ;
#172 = APPLICATION_CONTEXT ( 'automotive_design' ) ;
#173 = EDGE_LOOP ( 'NONE', ( #207, #46 ) ) ;
#174 = ORIENTED_EDGE ( 'NONE', *, *, #335, .F. ) ;
#175 = STYLED_ITEM ( 'NONE', ( #303 ), #38 ) ;
#176 = COLOUR_RGB ( '',1.000000000000000000, 0.000000000000000000, 0.000000000000000000 ) ;
#177 = CARTESIAN_POINT ( 'NONE',  ( 5.000000000000000000, 63.00000000000000000, 6.123233995736762338E-16 ) ) ;
#178 = SURFACE_SIDE_STYLE ('',( #155 ) ) ;
#179 = DIRECTION ( 'NONE',  ( 0.000000000000000000, 0.000000000000000000, -1.000000000000000000 ) ) ;
#180 = EDGE_CURVE ( 'NONE', #33, #224, #168, .T. ) ;
#181 = ORIENTED_EDGE ( 'NONE', *, *, #264, .F. ) ;
#182 = SURFACE_STYLE_FILL_AREA ( #269 ) ;
#183 = CARTESIAN_POINT ( 'NONE',  ( -4.999999999999996447, 63.00000000000000000, 0.000000000000000000 ) ) ;
#184 = AXIS2_PLACEMENT_3D ( 'NONE', #145, #341, #116 ) ;
#185 = CARTESIAN_POINT ( 'NONE',  ( 0.000000000000000000, 15.00000000000000000, 0.000000000000000000 ) ) ;
#186 = DIRECTION ( 'NONE',  ( 1.000000000000000000, 9.135657442593541248E-17, 0.000000000000000000 ) ) ;
#187 = UNCERTAINTY_MEASURE_WITH_UNIT (LENGTH_MEASURE( 1.000000000000000082E-05 ), #330, 'distance_accuracy_value', 'NONE');
#188 =( LENGTH_UNIT ( ) NAMED_UNIT ( * ) SI_UNIT ( .MILLI., .METRE. ) );
#189 = SURFACE_STYLE_FILL_AREA ( #329 ) ;
#190 =( NAMED_UNIT ( * ) SI_UNIT ( $, .STERADIAN. ) SOLID_ANGLE_UNIT ( ) );
#191 = STYLED_ITEM ( 'NONE', ( #243 ), #32 ) ;
#192 = PRESENTATION_LAYER_ASSIGNMENT (  '', '', ( #144 ) ) ;
#193 =( LENGTH_UNIT ( ) NAMED_UNIT ( * ) SI_UNIT ( .MILLI., .METRE. ) );
#194 =( NAMED_UNIT ( * ) SI_UNIT ( $, .STERADIAN. ) SOLID_ANGLE_UNIT ( ) );
#195 = DIRECTION ( 'NONE',  ( 0.000000000000000000, 0.000000000000000000, 1.000000000000000000 ) ) ;
#196 = CARTESIAN_POINT ( 'NONE',  ( 5.854691731421723944E-15, 15.00000000000000000, 0.000000000000000000 ) ) ;
#197 = PRODUCT_DEFINITION_CONTEXT ( 'detailed design', #249, 'design' ) ;
#198 = VECTOR ( 'NONE', #94, 1000.000000000000000 ) ;
#199 = DIRECTION ( 'NONE',  ( -0.000000000000000000, -1.000000000000000000, -0.000000000000000000 ) ) ;
#200 = AXIS2_PLACEMENT_3D ( 'NONE', #196, #309, #156 ) ;
#201 = EDGE_LOOP ( 'NONE', ( #241, #171 ) ) ;
#202 = EDGE_CURVE ( 'NONE', #292, #2, #96, .T. ) ;
#203 = CARTESIAN_POINT ( 'NONE',  ( 0.000000000000000000, 0.000000000000000000, 0.000000000000000000 ) ) ;
#204 = VERTEX_POINT ( 'NONE', #287 ) ;
#205 = VECTOR ( 'NONE', #247, 1000.000000000000000 ) ;
#206 = PRESENTATION_LAYER_ASSIGNMENT (  '', '', ( #35 ) ) ;
#207 = ORIENTED_EDGE ( 'NONE', *, *, #15, .F. ) ;
#208 = DIRECTION ( 'NONE',  ( -1.224646799147353454E-16, 0.000000000000000000, -1.000000000000000000 ) ) ;
#209 = CYLINDRICAL_SURFACE ( 'NONE', #220, 4.999999999999995559 ) ;
#210 =( NAMED_UNIT ( * ) PLANE_ANGLE_UNIT ( ) SI_UNIT ( $, .RADIAN. ) );
#211 = VERTEX_POINT ( 'NONE', #29 ) ;
#212 = EDGE_LOOP ( 'NONE', ( #321, #354 ) ) ;
#213 = SURFACE_STYLE_FILL_AREA ( #265 ) ;
#214 = ORIENTED_EDGE ( 'NONE', *, *, #84, .F. ) ;
#215 = PRESENTATION_LAYER_ASSIGNMENT (  '', '', ( #257 ) ) ;
#216 = DIRECTION ( 'NONE',  ( -1.000000000000000000, 0.000000000000000000, 0.000000000000000000 ) ) ;
#217 = DIRECTION ( 'NONE',  ( -9.135657442593541248E-17, 1.000000000000000000, -0.000000000000000000 ) ) ;
#218 = DIRECTION ( 'NONE',  ( 0.000000000000000000, 0.000000000000000000, 1.000000000000000000 ) ) ;
#219 = PRESENTATION_STYLE_ASSIGNMENT (( #109 ) ) ;
#220 = AXIS2_PLACEMENT_3D ( 'NONE', #126, #97, #68 ) ;
#221 = UNCERTAINTY_MEASURE_WITH_UNIT (LENGTH_MEASURE( 1.000000000000000082E-05 ), #114, 'distance_accuracy_value', 'NONE');
#222 = CARTESIAN_POINT ( 'NONE',  ( 0.000000000000000000, 15.00000000000000000, 0.000000000000000000 ) ) ;
#223 = SURFACE_STYLE_FILL_AREA ( #60 ) ;
#224 = VERTEX_POINT ( 'NONE', #170 ) ;
#225 = CARTESIAN_POINT ( 'NONE',  ( 0.000000000000000000, 0.5000000000000000000, 0.000000000000000000 ) ) ;
#226 = STYLED_ITEM ( 'NONE', ( #65 ), #298 ) ;
#227 = FILL_AREA_STYLE ('',( #28 ) ) ;
#228 = DIRECTION ( 'NONE',  ( 0.000000000000000000, 0.000000000000000000, -1.000000000000000000 ) ) ;
#229 = EDGE_CURVE ( 'NONE', #33, #69, #238, .T. ) ;
#230 =( GEOMETRIC_REPRESENTATION_CONTEXT ( 3 ) GLOBAL_UNCERTAINTY_ASSIGNED_CONTEXT ( ( #123 ) ) GLOBAL_UNIT_ASSIGNED_CONTEXT ( ( #193, #159, #56 ) ) REPRESENTATION_CONTEXT ( 'NONE', 'WORKASPACE' ) );
#231 = FILL_AREA_STYLE_COLOUR ( '', #12 ) ;
#232 = UNCERTAINTY_MEASURE_WITH_UNIT (LENGTH_MEASURE( 1.000000000000000082E-05 ), #188, 'distance_accuracy_value', 'NONE');
#233 = CARTESIAN_POINT ( 'NONE',  ( 5.854691731421723944E-15, 15.00000000000000000, 0.000000000000000000 ) ) ;
#234 = ORIENTED_EDGE ( 'NONE', *, *, #202, .F. ) ;
#235 = EDGE_CURVE ( 'NONE', #296, #294, #79, .T. ) ;
#236 = EDGE_LOOP ( 'NONE', ( #214, #142, #132, #234 ) ) ;
#237 = ADVANCED_BREP_SHAPE_REPRESENTATION ( '59523', ( #38, #289, #239 ), #111 ) ;
#238 = CIRCLE ( 'NONE', #34, 5.000000000000000000 ) ;
#239 = AXIS2_PLACEMENT_3D ( 'NONE', #157, #195, #81 ) ;
#240 =( LENGTH_UNIT ( ) NAMED_UNIT ( * ) SI_UNIT ( .MILLI., .METRE. ) );
#241 = ORIENTED_EDGE ( 'NONE', *, *, #335, .T. ) ;
#242 = SURFACE_SIDE_STYLE ('',( #213 ) ) ;
#243 = PRESENTATION_STYLE_ASSIGNMENT (( #14 ) ) ;
#244 = CARTESIAN_POINT ( 'NONE',  ( 1.469576158976823750E-15, 63.00000000000000000, 0.000000000000000000 ) ) ;
#245 = AXIS2_PLACEMENT_3D ( 'NONE', #244, #356, #285 ) ;
#246 = FACE_OUTER_BOUND ( 'NONE', #201, .T. ) ;
#247 = DIRECTION ( 'NONE',  ( -9.135657442593541248E-17, 1.000000000000000000, -0.000000000000000000 ) ) ;
#248 = PRESENTATION_STYLE_ASSIGNMENT (( #78 ) ) ;
#249 = APPLICATION_CONTEXT ( 'automotive_design' ) ;
#250 = PLANE ( 'NONE',  #272 ) ;
#251 =( LENGTH_UNIT ( ) NAMED_UNIT ( * ) SI_UNIT ( .MILLI., .METRE. ) );
#252 = CLOSED_SHELL ( 'NONE', ( #355, #327, #268, #32, #298, #95 ) ) ;
#253 = DIRECTION ( 'NONE',  ( 0.000000000000000000, 0.000000000000000000, -1.000000000000000000 ) ) ;
#254 =( GEOMETRIC_REPRESENTATION_CONTEXT ( 3 ) GLOBAL_UNCERTAINTY_ASSIGNED_CONTEXT ( ( #359 ) ) GLOBAL_UNIT_ASSIGNED_CONTEXT ( ( #323, #124, #92 ) ) REPRESENTATION_CONTEXT ( 'NONE', 'WORKASPACE' ) );
#255 =( GEOMETRIC_REPRESENTATION_CONTEXT ( 3 ) GLOBAL_UNCERTAINTY_ASSIGNED_CONTEXT ( ( #105 ) ) GLOBAL_UNIT_ASSIGNED_CONTEXT ( ( #88, #98, #353 ) ) REPRESENTATION_CONTEXT ( 'NONE', 'WORKASPACE' ) );
#256 = CARTESIAN_POINT ( 'NONE',  ( 0.000000000000000000, 15.00000000000000000, 0.000000000000000000 ) ) ;
#257 = STYLED_ITEM ( 'NONE', ( #219 ), #95 ) ;
#258 = COLOUR_RGB ( '',1.000000000000000000, 0.000000000000000000, 0.000000000000000000 ) ;
#259 = DIRECTION ( 'NONE',  ( 0.000000000000000000, 0.000000000000000000, -1.000000000000000000 ) ) ;
#260 = ORIENTED_EDGE ( 'NONE', *, *, #143, .F. ) ;
#261 = DIRECTION ( 'NONE',  ( -0.000000000000000000, -1.000000000000000000, -0.000000000000000000 ) ) ;
#262 = CIRCLE ( 'NONE', #66, 5.000000000000000000 ) ;
#263 = AXIS2_PLACEMENT_3D ( 'NONE', #319, #351, #125 ) ;
#264 = EDGE_CURVE ( 'NONE', #224, #211, #89, .T. ) ;
#265 = FILL_AREA_STYLE ('',( #231 ) ) ;
#266 = ORIENTED_EDGE ( 'NONE', *, *, #8, .T. ) ;
#267 = FILL_AREA_STYLE_COLOUR ( '', #104 ) ;
#268 = ADVANCED_FACE ( 'NONE', ( #342 ), #146, .T. ) ;
#269 = FILL_AREA_STYLE ('',( #151 ) ) ;
#270 = ORIENTED_EDGE ( 'NONE', *, *, #293, .T. ) ;
#271 = COLOUR_RGB ( '',1.000000000000000000, 0.000000000000000000, 0.000000000000000000 ) ;
#272 = AXIS2_PLACEMENT_3D ( 'NONE', #75, #300, #186 ) ;
#273 = SURFACE_STYLE_USAGE ( .BOTH. , #9 ) ;
#274 = FACE_OUTER_BOUND ( 'NONE', #236, .T. ) ;
#275 = CARTESIAN_POINT ( 'NONE',  ( 0.000000000000000000, 0.5000000000000000000, 0.000000000000000000 ) ) ;
#276 =( NAMED_UNIT ( * ) PLANE_ANGLE_UNIT ( ) SI_UNIT ( $, .RADIAN. ) );
#277 = COLOUR_RGB ( '',0.7921568627450980005, 0.8196078431372548767, 0.9333333333333333481 ) ;
#278 = TOROIDAL_SURFACE ( 'NONE', #54, 4.500000000000000888, 0.4999999999999997780 ) ;
#279 = FILL_AREA_STYLE_COLOUR ( '', #11 ) ;
#280 = PLANE ( 'NONE',  #357 ) ;
#281 = PRODUCT ( '59523', '59523', '', ( #306 ) ) ;
#282 =( GEOMETRIC_REPRESENTATION_CONTEXT ( 3 ) GLOBAL_UNCERTAINTY_ASSIGNED_CONTEXT ( ( #221 ) ) GLOBAL_UNIT_ASSIGNED_CONTEXT ( ( #114, #276, #76 ) ) REPRESENTATION_CONTEXT ( 'NONE', 'WORKASPACE' ) );
#283 = CARTESIAN_POINT ( 'NONE',  ( 6.123233995736766282E-16, 0.000000000000000000, 5.000000000000000000 ) ) ;
#284 =( GEOMETRIC_REPRESENTATION_CONTEXT ( 3 ) GLOBAL_UNCERTAINTY_ASSIGNED_CONTEXT ( ( #3 ) ) GLOBAL_UNIT_ASSIGNED_CONTEXT ( ( #240, #13, #91 ) ) REPRESENTATION_CONTEXT ( 'NONE', 'WORKASPACE' ) );
#285 = DIRECTION ( 'NONE',  ( -1.000000000000000000, 0.000000000000000000, 0.000000000000000000 ) ) ;
#286 = EDGE_LOOP ( 'NONE', ( #59, #133, #174, #314 ) ) ;
#287 = CARTESIAN_POINT ( 'NONE',  ( -4.999999999999987566, 15.00000000000000000, 0.000000000000000000 ) ) ;
#288 = PLANE ( 'NONE',  #305 ) ;
#289 = MANIFOLD_SOLID_BREP ( 'Revolve - Tool Body (Straight Shanked)', #41 ) ;
#290 = ADVANCED_FACE ( 'NONE', ( #345 ), #288, .F. ) ;
#291 = AXIS2_PLACEMENT_3D ( 'NONE', #57, #199, #228 ) ;
#292 = VERTEX_POINT ( 'NONE', #177 ) ;
#293 = EDGE_CURVE ( 'NONE', #224, #296, #118, .T. ) ;
#294 = VERTEX_POINT ( 'NONE', #4 ) ;
#295 = CARTESIAN_POINT ( 'NONE',  ( 5.000000000000000000, 15.00000000000000000, 6.123233995736762338E-16 ) ) ;
#296 = VERTEX_POINT ( 'NONE', #148 ) ;
#297 = CARTESIAN_POINT ( 'NONE',  ( 6.123233995736766282E-16, 15.00000000000000000, 5.000000000000000000 ) ) ;
#298 = ADVANCED_FACE ( 'NONE', ( #93 ), #129, .T. ) ;
#299 = DIRECTION ( 'NONE',  ( 1.000000000000000000, 0.000000000000000000, -1.224646799147353207E-16 ) ) ;
#300 = DIRECTION ( 'NONE',  ( 9.135657442593541248E-17, -1.000000000000000000, 0.000000000000000000 ) ) ;
#301 = CARTESIAN_POINT ( 'NONE',  ( 4.999999999999997335, 63.00000000000000000, 6.123233995736761352E-16 ) ) ;
#302 = EDGE_CURVE ( 'NONE', #211, #224, #162, .T. ) ;
#303 = PRESENTATION_STYLE_ASSIGNMENT (( #103 ) ) ;
#304 = CIRCLE ( 'NONE', #200, 4.999999999999993783 ) ;
#305 = AXIS2_PLACEMENT_3D ( 'NONE', #233, #72, #320 ) ;
#306 = PRODUCT_CONTEXT ( 'NONE', #172, 'mechanical' ) ;
#307 = CARTESIAN_POINT ( 'NONE',  ( 0.000000000000000000, 0.5000000000000000000, 0.000000000000000000 ) ) ;
#308 = SHAPE_DEFINITION_REPRESENTATION ( #45, #237 ) ;
#309 = DIRECTION ( 'NONE',  ( -9.135657442593541248E-17, 1.000000000000000000, -0.000000000000000000 ) ) ;
#310 = MECHANICAL_DESIGN_GEOMETRIC_PRESENTATION_REPRESENTATION (  '', ( #257 ), #282 ) ;
#311 = EDGE_LOOP ( 'NONE', ( #5, #128, #85, #99 ) ) ;
#312 = DIRECTION ( 'NONE',  ( -1.000000000000000000, 0.000000000000000000, 0.000000000000000000 ) ) ;
#313 = SURFACE_STYLE_USAGE ( .BOTH. , #339 ) ;
#314 = ORIENTED_EDGE ( 'NONE', *, *, #77, .F. ) ;
#315 = DIRECTION ( 'NONE',  ( -9.135657442593541248E-17, 1.000000000000000000, -0.000000000000000000 ) ) ;
#316 =( GEOMETRIC_REPRESENTATION_CONTEXT ( 3 ) GLOBAL_UNCERTAINTY_ASSIGNED_CONTEXT ( ( #74 ) ) GLOBAL_UNIT_ASSIGNED_CONTEXT ( ( #251, #22, #194 ) ) REPRESENTATION_CONTEXT ( 'NONE', 'WORKASPACE' ) );
#317 = ORIENTED_EDGE ( 'NONE', *, *, #293, .F. ) ;
#318 = PRODUCT_DEFINITION_FORMATION_WITH_SPECIFIED_SOURCE ( 'ANY', '', #281, .NOT_KNOWN. ) ;
#319 = CARTESIAN_POINT ( 'NONE',  ( 0.000000000000000000, 0.000000000000000000, 0.000000000000000000 ) ) ;
#320 = DIRECTION ( 'NONE',  ( -1.000000000000000000, -9.135657442593541248E-17, 0.000000000000000000 ) ) ;
#321 = ORIENTED_EDGE ( 'NONE', *, *, #167, .T. ) ;
#322 = AXIS2_PLACEMENT_3D ( 'NONE', #333, #331, #218 ) ;
#323 =( LENGTH_UNIT ( ) NAMED_UNIT ( * ) SI_UNIT ( .MILLI., .METRE. ) );
#324 =( NAMED_UNIT ( * ) SI_UNIT ( $, .STERADIAN. ) SOLID_ANGLE_UNIT ( ) );
#325 = VERTEX_POINT ( 'NONE', #295 ) ;
#326 = PRESENTATION_LAYER_ASSIGNMENT (  '', '', ( #175 ) ) ;
#327 = ADVANCED_FACE ( 'NONE', ( #39 ), #278, .T. ) ;
#328 = SURFACE_SIDE_STYLE ('',( #51 ) ) ;
#329 = FILL_AREA_STYLE ('',( #139 ) ) ;
#330 =( LENGTH_UNIT ( ) NAMED_UNIT ( * ) SI_UNIT ( .MILLI., .METRE. ) );
#331 = DIRECTION ( 'NONE',  ( -1.000000000000000000, 0.000000000000000000, 0.000000000000000000 ) ) ;
#332 = MECHANICAL_DESIGN_GEOMETRIC_PRESENTATION_REPRESENTATION (  '', ( #338 ), #255 ) ;
#333 = CARTESIAN_POINT ( 'NONE',  ( 0.000000000000000000, 0.5000000000000000000, -4.500000000000000888 ) ) ;
#334 = DIRECTION ( 'NONE',  ( -0.000000000000000000, -1.000000000000000000, -0.000000000000000000 ) ) ;
#335 = EDGE_CURVE ( 'NONE', #2, #292, #131, .T. ) ;
#336 = DIRECTION ( 'NONE',  ( 0.000000000000000000, 1.000000000000000000, 0.000000000000000000 ) ) ;
#337 = EDGE_LOOP ( 'NONE', ( #260, #166 ) ) ;
#338 = STYLED_ITEM ( 'NONE', ( #58 ), #289 ) ;
#339 = SURFACE_SIDE_STYLE ('',( #61 ) ) ;
#340 = MECHANICAL_DESIGN_GEOMETRIC_PRESENTATION_REPRESENTATION (  '', ( #226 ), #50 ) ;
#341 = DIRECTION ( 'NONE',  ( -0.000000000000000000, -1.000000000000000000, -0.000000000000000000 ) ) ;
#342 = FACE_OUTER_BOUND ( 'NONE', #212, .T. ) ;
#343 = DIRECTION ( 'NONE',  ( -9.135657442593541248E-17, 1.000000000000000000, -0.000000000000000000 ) ) ;
#344 = UNCERTAINTY_MEASURE_WITH_UNIT (LENGTH_MEASURE( 1.000000000000000082E-05 ), #127, 'distance_accuracy_value', 'NONE');
#345 = FACE_OUTER_BOUND ( 'NONE', #337, .T. ) ;
#346 = FACE_OUTER_BOUND ( 'NONE', #286, .T. ) ;
#347 = SURFACE_STYLE_USAGE ( .BOTH. , #242 ) ;
#348 = CARTESIAN_POINT ( 'NONE',  ( 0.000000000000000000, 0.000000000000000000, -5.000000000000000000 ) ) ;
#349 =( GEOMETRIC_REPRESENTATION_CONTEXT ( 3 ) GLOBAL_UNCERTAINTY_ASSIGNED_CONTEXT ( ( #232 ) ) GLOBAL_UNIT_ASSIGNED_CONTEXT ( ( #188, #17, #16 ) ) REPRESENTATION_CONTEXT ( 'NONE', 'WORKASPACE' ) );
#350 = PRODUCT_DEFINITION ( 'UNKNOWN', '', #318, #197 ) ;
#351 = DIRECTION ( 'NONE',  ( -0.000000000000000000, -1.000000000000000000, -0.000000000000000000 ) ) ;
#352 = ORIENTED_EDGE ( 'NONE', *, *, #167, .F. ) ;
#353 =( NAMED_UNIT ( * ) SI_UNIT ( $, .STERADIAN. ) SOLID_ANGLE_UNIT ( ) );
#354 = ORIENTED_EDGE ( 'NONE', *, *, #235, .T. ) ;
#355 = ADVANCED_FACE ( 'NONE', ( #21 ), #106, .T. ) ;
#356 = DIRECTION ( 'NONE',  ( -9.135657442593541248E-17, 1.000000000000000000, -0.000000000000000000 ) ) ;
#357 = AXIS2_PLACEMENT_3D ( 'NONE', #222, #336, #83 ) ;
#358 = DIRECTION ( 'NONE',  ( -0.000000000000000000, -1.000000000000000000, -0.000000000000000000 ) ) ;
#359 = UNCERTAINTY_MEASURE_WITH_UNIT (LENGTH_MEASURE( 1.000000000000000082E-05 ), #323, 'distance_accuracy_value', 'NONE');
#360 = FILL_AREA_STYLE_COLOUR ( '', #258 ) ;
#361 = FILL_AREA_STYLE ('',( #279 ) ) ;
#362 = PRESENTATION_LAYER_ASSIGNMENT (  '', '', ( #110 ) ) ;
#363 = AXIS2_PLACEMENT_3D ( 'NONE', #100, #299, #208 ) ;
#364 = FACE_OUTER_BOUND ( 'NONE', #173, .T. ) ;
#365 = ADVANCED_FACE ( 'NONE', ( #246 ), #250, .F. ) ;
#366 = TOROIDAL_SURFACE ( 'NONE', #19, 4.500000000000000888, 0.4999999999999997780 ) ;
#367 = DIRECTION ( 'NONE',  ( 0.000000000000000000, 0.000000000000000000, -1.000000000000000000 ) ) ;
#368 = AXIS2_PLACEMENT_3D ( 'NONE', #153, #217, #216 ) ;
#369 = DIRECTION ( 'NONE',  ( -0.000000000000000000, -1.000000000000000000, -0.000000000000000000 ) ) ;
#370 = ORIENTED_EDGE ( 'NONE', *, *, #62, .T. ) ;
ENDSEC;
END-ISO-10303-21;
