ISO-10303-21;
HEADER;
FILE_DESCRIPTION (( 'STEP AP214' ),
    '1' );
FILE_NAME ('Micro_KC-093-140-015.STEP',
    '2021-09-03T19:05:03',
    ( '' ),
    ( '' ),
    'SwSTEP 2.0',
    'SolidWorks 2020',
    '' );
FILE_SCHEMA (( 'AUTOMOTIVE_DESIGN' ));
ENDSEC;

DATA;
#1 = SURFACE_STYLE_FILL_AREA ( #320 ) ;
#2 = ORIENTED_EDGE ( 'NONE', *, *, #322, .T. ) ;
#3 = AXIS2_PLACEMENT_3D ( 'NONE', #244, #220, #277 ) ;
#4 = EDGE_CURVE ( 'NONE', #200, #54, #368, .T. ) ;
#5 = DIRECTION ( 'NONE',  ( -1.000000000000000000, 0.0000000000000000000, 0.0000000000000000000 ) ) ;
#6 = PLANE ( 'NONE',  #125 ) ;
#7 = UNCERTAINTY_MEASURE_WITH_UNIT (LENGTH_MEASURE( 1.000000000000000082E-05 ), #31, 'distance_accuracy_value', 'NONE');
#8 = FACE_OUTER_BOUND ( 'NONE', #240, .T. ) ;
#9 = PLANE ( 'NONE',  #70 ) ;
#10 = CARTESIAN_POINT ( 'NONE',  ( 0.0000000000000000000, 0.0000000000000000000, 0.0000000000000000000 ) ) ;
#11 = LINE ( 'NONE', #302, #250 ) ;
#12 = ADVANCED_FACE ( 'NONE', ( #57 ), #346, .T. ) ;
#13 = DIRECTION ( 'NONE',  ( 1.000000000000000000, 0.0000000000000000000, -0.0000000000000000000 ) ) ;
#14 = AXIS2_PLACEMENT_3D ( 'NONE', #278, #48, #109 ) ;
#15 = DIRECTION ( 'NONE',  ( -0.7071067811865493491, 8.659560562354955045E-17, 0.7071067811865454633 ) ) ;
#16 = CARTESIAN_POINT ( 'NONE',  ( 0.0000000000000000000, 0.0000000000000000000, 0.0000000000000000000 ) ) ;
#17 = EDGE_LOOP ( 'NONE', ( #128, #122, #291, #373 ) ) ;
#18 = CARTESIAN_POINT ( 'NONE',  ( -0.04689999999999999725, 0.0000000000000000000, 0.01499999999999999771 ) ) ;
#19 = ORIENTED_EDGE ( 'NONE', *, *, #43, .F. ) ;
#20 = CARTESIAN_POINT ( 'NONE',  ( 0.0000000000000000000, 0.0000000000000000000, 1.500000000000000222 ) ) ;
#21 = COLOUR_RGB ( '',0.7921568627450980005, 0.8196078431372548767, 0.9333333333333333481 ) ;
#22 = AXIS2_PLACEMENT_3D ( 'NONE', #288, #201, #363 ) ;
#23 =( CONVERSION_BASED_UNIT ( 'INCH', #87 ) LENGTH_UNIT ( ) NAMED_UNIT ( #102 ) );
#24 = EDGE_CURVE ( 'NONE', #65, #92, #316, .T. ) ;
#25 = EDGE_LOOP ( 'NONE', ( #211, #354, #267, #146 ) ) ;
#26 =( LENGTH_UNIT ( ) NAMED_UNIT ( * ) SI_UNIT ( $, .METRE. ) );
#27 = ORIENTED_EDGE ( 'NONE', *, *, #78, .T. ) ;
#28 = CONICAL_SURFACE ( 'NONE', #22, 0.02350000000000002781, 0.7853981633974510546 ) ;
#29 = DIRECTION ( 'NONE',  ( -0.0000000000000000000, -0.0000000000000000000, -1.000000000000000000 ) ) ;
#30 = EDGE_CURVE ( 'NONE', #65, #227, #141, .T. ) ;
#31 =( CONVERSION_BASED_UNIT ( 'INCH', #58 ) LENGTH_UNIT ( ) NAMED_UNIT ( #333 ) );
#32 = ORIENTED_EDGE ( 'NONE', *, *, #137, .T. ) ;
#33 = DIRECTION ( 'NONE',  ( -0.0000000000000000000, -0.0000000000000000000, -1.000000000000000000 ) ) ;
#34 = CIRCLE ( 'NONE', #3, 0.06250000000000000000 ) ;
#35 = STYLED_ITEM ( 'NONE', ( #123 ), #371 ) ;
#36 = EDGE_CURVE ( 'NONE', #126, #342, #348, .T. ) ;
#37 = DIRECTION ( 'NONE',  ( -1.000000000000000000, 0.0000000000000000000, 0.0000000000000000000 ) ) ;
#38 = CARTESIAN_POINT ( 'NONE',  ( 0.04750000000000064587, 6.735557395310482421E-18, 1.500000000000000222 ) ) ;
#39 = DIRECTION ( 'NONE',  ( -0.0000000000000000000, -0.0000000000000000000, -1.000000000000000000 ) ) ;
#40 = CONICAL_SURFACE ( 'NONE', #79, 0.04750000000000064587, 0.7853981633974457255 ) ;
#41 =( GEOMETRIC_REPRESENTATION_CONTEXT ( 3 ) GLOBAL_UNCERTAINTY_ASSIGNED_CONTEXT ( ( #216 ) ) GLOBAL_UNIT_ASSIGNED_CONTEXT ( ( #352, #152, #266 ) ) REPRESENTATION_CONTEXT ( 'NONE', 'WORKASPACE' ) );
#42 = DIRECTION ( 'NONE',  ( 1.000000000000000000, 0.0000000000000000000, 0.0000000000000000000 ) ) ;
#43 = EDGE_CURVE ( 'NONE', #76, #204, #219, .T. ) ;
#44 = FACE_OUTER_BOUND ( 'NONE', #297, .T. ) ;
#45 = FACE_OUTER_BOUND ( 'NONE', #17, .T. ) ;
#46 = ORIENTED_EDGE ( 'NONE', *, *, #78, .F. ) ;
#47 = VECTOR ( 'NONE', #15, 39.37007874015748854 ) ;
#48 = DIRECTION ( 'NONE',  ( 0.0000000000000000000, 0.0000000000000000000, -1.000000000000000000 ) ) ;
#49 = ORIENTED_EDGE ( 'NONE', *, *, #84, .T. ) ;
#50 = DIRECTION ( 'NONE',  ( -0.0000000000000000000, -0.0000000000000000000, -1.000000000000000000 ) ) ;
#51 = EDGE_CURVE ( 'NONE', #227, #310, #11, .T. ) ;
#52 = ORIENTED_EDGE ( 'NONE', *, *, #30, .F. ) ;
#53 = FACE_OUTER_BOUND ( 'NONE', #194, .T. ) ;
#54 = VERTEX_POINT ( 'NONE', #163 ) ;
#55 = ADVANCED_FACE ( 'NONE', ( #298 ), #222, .T. ) ;
#56 = CARTESIAN_POINT ( 'NONE',  ( 0.04689999999999999725, 0.0000000000000000000, 0.01499999999999999944 ) ) ;
#57 = FACE_OUTER_BOUND ( 'NONE', #25, .T. ) ;
#58 = LENGTH_MEASURE_WITH_UNIT ( LENGTH_MEASURE( 0.02539999999999999897 ), #64 );
#59 = EDGE_LOOP ( 'NONE', ( #319, #120, #374, #19 ) ) ;
#60 = ADVANCED_BREP_SHAPE_REPRESENTATION ( 'Micro_KC-093-140-015', ( #371, #304 ), #41 ) ;
#61 = DIRECTION ( 'NONE',  ( -0.0000000000000000000, -0.0000000000000000000, -1.000000000000000000 ) ) ;
#62 =( GEOMETRIC_REPRESENTATION_CONTEXT ( 3 ) GLOBAL_UNCERTAINTY_ASSIGNED_CONTEXT ( ( #263 ) ) GLOBAL_UNIT_ASSIGNED_CONTEXT ( ( #23, #184, #260 ) ) REPRESENTATION_CONTEXT ( 'NONE', 'WORKASPACE' ) );
#63 = ORIENTED_EDGE ( 'NONE', *, *, #231, .F. ) ;
#64 =( LENGTH_UNIT ( ) NAMED_UNIT ( * ) SI_UNIT ( $, .METRE. ) );
#65 = VERTEX_POINT ( 'NONE', #72 ) ;
#66 = DIRECTION ( 'NONE',  ( -1.000000000000000000, 0.0000000000000000000, 0.0000000000000000000 ) ) ;
#67 = CARTESIAN_POINT ( 'NONE',  ( 0.06250000000000000000, 7.654042494670956004E-18, 1.485000000000000764 ) ) ;
#68 = DIRECTION ( 'NONE',  ( -0.0000000000000000000, -0.0000000000000000000, -1.000000000000000000 ) ) ;
#69 = DIRECTION ( 'NONE',  ( -0.0000000000000000000, -0.0000000000000000000, -1.000000000000000000 ) ) ;
#70 = AXIS2_PLACEMENT_3D ( 'NONE', #56, #74, #114 ) ;
#71 =( NAMED_UNIT ( * ) PLANE_ANGLE_UNIT ( ) SI_UNIT ( $, .RADIAN. ) );
#72 = CARTESIAN_POINT ( 'NONE',  ( 0.02350000000000002781, 0.0000000000000000000, 0.1400000000000000133 ) ) ;
#73 = EDGE_CURVE ( 'NONE', #342, #204, #241, .T. ) ;
#74 = DIRECTION ( 'NONE',  ( 0.0000000000000000000, 0.0000000000000000000, 1.000000000000000000 ) ) ;
#75 = CARTESIAN_POINT ( 'NONE',  ( 0.0000000000000000000, 0.0000000000000000000, 0.01499999999999999771 ) ) ;
#76 = VERTEX_POINT ( 'NONE', #158 ) ;
#77 = AXIS2_PLACEMENT_3D ( 'NONE', #161, #132, #37 ) ;
#78 = EDGE_CURVE ( 'NONE', #242, #238, #156, .T. ) ;
#79 = AXIS2_PLACEMENT_3D ( 'NONE', #20, #199, #340 ) ;
#80 = CYLINDRICAL_SURFACE ( 'NONE', #162, 0.02350000000000001393 ) ;
#81 = ORIENTED_EDGE ( 'NONE', *, *, #223, .F. ) ;
#82 = CARTESIAN_POINT ( 'NONE',  ( -0.02350000000000000352, 0.0000000000000000000, 0.01500000000000000291 ) ) ;
#83 = DIRECTION ( 'NONE',  ( 1.000000000000000000, 0.0000000000000000000, 0.0000000000000000000 ) ) ;
#84 = EDGE_CURVE ( 'NONE', #92, #310, #274, .T. ) ;
#85 = PRODUCT_DEFINITION_SHAPE ( 'NONE', 'NONE',  #353 ) ;
#86 = ORIENTED_EDGE ( 'NONE', *, *, #322, .F. ) ;
#87 = LENGTH_MEASURE_WITH_UNIT ( LENGTH_MEASURE( 0.02539999999999999897 ), #154 );
#88 = CARTESIAN_POINT ( 'NONE',  ( 0.0000000000000000000, 0.0000000000000000000, 0.0000000000000000000 ) ) ;
#89 = LENGTH_MEASURE_WITH_UNIT ( LENGTH_MEASURE( 0.02539999999999999897 ), #26 );
#90 = DIRECTION ( 'NONE',  ( -0.0000000000000000000, -0.0000000000000000000, -1.000000000000000000 ) ) ;
#91 = ADVANCED_FACE ( 'NONE', ( #359 ), #276, .T. ) ;
#92 = VERTEX_POINT ( 'NONE', #133 ) ;
#93 = AXIS2_PLACEMENT_3D ( 'NONE', #16, #50, #108 ) ;
#94 = EDGE_LOOP ( 'NONE', ( #379, #289, #171, #155 ) ) ;
#95 = LINE ( 'NONE', #215, #351 ) ;
#96 = ADVANCED_FACE ( 'NONE', ( #8 ), #6, .F. ) ;
#97 = CARTESIAN_POINT ( 'NONE',  ( 0.0000000000000000000, 0.0000000000000000000, 0.1789999999999997982 ) ) ;
#98 = VECTOR ( 'NONE', #290, 39.37007874015748143 ) ;
#99 = MECHANICAL_DESIGN_GEOMETRIC_PRESENTATION_REPRESENTATION (  '', ( #127 ), #178 ) ;
#100 = DIRECTION ( 'NONE',  ( -0.0000000000000000000, -0.0000000000000000000, -1.000000000000000000 ) ) ;
#101 = CYLINDRICAL_SURFACE ( 'NONE', #167, 0.04690000000000001112 ) ;
#102 = DIMENSIONAL_EXPONENTS ( 1.000000000000000000, 0.0000000000000000000, 0.0000000000000000000, 0.0000000000000000000, 0.0000000000000000000, 0.0000000000000000000, 0.0000000000000000000 ) ;
#103 = ADVANCED_FACE ( 'NONE', ( #44 ), #101, .T. ) ;
#104 = DIRECTION ( 'NONE',  ( -1.000000000000000000, 0.0000000000000000000, 0.0000000000000000000 ) ) ;
#105 = AXIS2_PLACEMENT_3D ( 'NONE', #182, #29, #150 ) ;
#106 = VECTOR ( 'NONE', #264, 39.37007874015748143 ) ;
#107 = DIMENSIONAL_EXPONENTS ( 1.000000000000000000, 0.0000000000000000000, 0.0000000000000000000, 0.0000000000000000000, 0.0000000000000000000, 0.0000000000000000000, 0.0000000000000000000 ) ;
#108 = DIRECTION ( 'NONE',  ( -1.000000000000000000, 0.0000000000000000000, 0.0000000000000000000 ) ) ;
#109 = DIRECTION ( 'NONE',  ( 1.000000000000000000, 0.0000000000000000000, 0.0000000000000000000 ) ) ;
#110 = EDGE_CURVE ( 'NONE', #310, #92, #331, .T. ) ;
#111 = DIRECTION ( 'NONE',  ( -0.0000000000000000000, -0.0000000000000000000, -1.000000000000000000 ) ) ;
#112 = ORIENTED_EDGE ( 'NONE', *, *, #145, .T. ) ;
#113 = DIRECTION ( 'NONE',  ( 0.0000000000000000000, 0.0000000000000000000, 1.000000000000000000 ) ) ;
#114 = DIRECTION ( 'NONE',  ( 1.000000000000000000, 0.0000000000000000000, -0.0000000000000000000 ) ) ;
#115 = EDGE_CURVE ( 'NONE', #126, #76, #34, .T. ) ;
#116 = ORIENTED_EDGE ( 'NONE', *, *, #73, .T. ) ;
#117 = PRESENTATION_STYLE_ASSIGNMENT (( #349 ) ) ;
#118 = VECTOR ( 'NONE', #317, 39.37007874015748143 ) ;
#119 = CIRCLE ( 'NONE', #357, 0.04750000000000064587 ) ;
#120 = ORIENTED_EDGE ( 'NONE', *, *, #36, .T. ) ;
#121 = ORIENTED_EDGE ( 'NONE', *, *, #4, .F. ) ;
#122 = ORIENTED_EDGE ( 'NONE', *, *, #202, .T. ) ;
#123 = PRESENTATION_STYLE_ASSIGNMENT (( #345 ) ) ;
#124 = ADVANCED_FACE ( 'NONE', ( #217 ), #362, .T. ) ;
#125 = AXIS2_PLACEMENT_3D ( 'NONE', #360, #303, #13 ) ;
#126 = VERTEX_POINT ( 'NONE', #67 ) ;
#127 = STYLED_ITEM ( 'NONE', ( #117 ), #60 ) ;
#128 = ORIENTED_EDGE ( 'NONE', *, *, #305, .F. ) ;
#129 = DIRECTION ( 'NONE',  ( -1.000000000000000000, 0.0000000000000000000, 0.0000000000000000000 ) ) ;
#130 = DIRECTION ( 'NONE',  ( -0.0000000000000000000, -0.0000000000000000000, -1.000000000000000000 ) ) ;
#131 = PRESENTATION_LAYER_ASSIGNMENT (  '', '', ( #35 ) ) ;
#132 = DIRECTION ( 'NONE',  ( -0.0000000000000000000, -0.0000000000000000000, -1.000000000000000000 ) ) ;
#133 = CARTESIAN_POINT ( 'NONE',  ( 0.02350000000000000352, 2.877919977996280983E-18, 0.01500000000000000291 ) ) ;
#134 = LINE ( 'NONE', #334, #206 ) ;
#135 = AXIS2_PLACEMENT_3D ( 'NONE', #358, #68, #190 ) ;
#136 = CYLINDRICAL_SURFACE ( 'NONE', #315, 0.06250000000000000000 ) ;
#137 = EDGE_CURVE ( 'NONE', #65, #342, #95, .T. ) ;
#138 = DIRECTION ( 'NONE',  ( -1.000000000000000000, 0.0000000000000000000, 0.0000000000000000000 ) ) ;
#139 = VERTEX_POINT ( 'NONE', #38 ) ;
#140 = PLANE ( 'NONE',  #198 ) ;
#141 = CIRCLE ( 'NONE', #105, 0.02350000000000002781 ) ;
#142 = AXIS2_PLACEMENT_3D ( 'NONE', #88, #33, #377 ) ;
#143 = CIRCLE ( 'NONE', #262, 0.02350000000000002781 ) ;
#144 = CARTESIAN_POINT ( 'NONE',  ( 0.0000000000000000000, 0.0000000000000000000, 0.1400000000000000133 ) ) ;
#145 = EDGE_CURVE ( 'NONE', #344, #76, #160, .T. ) ;
#146 = ORIENTED_EDGE ( 'NONE', *, *, #73, .F. ) ;
#147 = AXIS2_PLACEMENT_3D ( 'NONE', #157, #61, #5 ) ;
#148 = SURFACE_STYLE_FILL_AREA ( #213 ) ;
#149 = CIRCLE ( 'NONE', #269, 0.04750000000000064587 ) ;
#150 = DIRECTION ( 'NONE',  ( -1.000000000000000000, 0.0000000000000000000, 0.0000000000000000000 ) ) ;
#151 = EDGE_CURVE ( 'NONE', #204, #342, #375, .T. ) ;
#152 =( NAMED_UNIT ( * ) PLANE_ANGLE_UNIT ( ) SI_UNIT ( $, .RADIAN. ) );
#153 = CARTESIAN_POINT ( 'NONE',  ( 0.06250000000000000000, 7.654042494670956004E-18, 1.500000000000000222 ) ) ;
#154 =( LENGTH_UNIT ( ) NAMED_UNIT ( * ) SI_UNIT ( $, .METRE. ) );
#155 = ORIENTED_EDGE ( 'NONE', *, *, #51, .F. ) ;
#156 = CIRCLE ( 'NONE', #361, 0.04689999999999999725 ) ;
#157 = CARTESIAN_POINT ( 'NONE',  ( 0.0000000000000000000, 0.0000000000000000000, 1.500000000000000222 ) ) ;
#158 = CARTESIAN_POINT ( 'NONE',  ( -0.06250000000000000000, 0.0000000000000000000, 1.485000000000000764 ) ) ;
#159 =( NAMED_UNIT ( * ) SI_UNIT ( $, .STERADIAN. ) SOLID_ANGLE_UNIT ( ) );
#160 = LINE ( 'NONE', #273, #286 ) ;
#161 = CARTESIAN_POINT ( 'NONE',  ( 0.0000000000000000000, 0.0000000000000000000, 0.0000000000000000000 ) ) ;
#162 = AXIS2_PLACEMENT_3D ( 'NONE', #309, #313, #138 ) ;
#163 = CARTESIAN_POINT ( 'NONE',  ( 0.04690000000000001806, 5.743593488001088307E-18, 0.0000000000000000000 ) ) ;
#164 = DIRECTION ( 'NONE',  ( -0.0000000000000000000, -0.0000000000000000000, -1.000000000000000000 ) ) ;
#165 = ADVANCED_FACE ( 'NONE', ( #323, #275 ), #9, .T. ) ;
#166 = DIRECTION ( 'NONE',  ( 0.0000000000000000000, 0.0000000000000000000, 1.000000000000000000 ) ) ;
#167 = AXIS2_PLACEMENT_3D ( 'NONE', #248, #164, #188 ) ;
#168 = CIRCLE ( 'NONE', #93, 0.04690000000000001806 ) ;
#169 = PRESENTATION_LAYER_ASSIGNMENT (  '', '', ( #127 ) ) ;
#170 = LINE ( 'NONE', #235, #98 ) ;
#171 = ORIENTED_EDGE ( 'NONE', *, *, #110, .F. ) ;
#172 = CARTESIAN_POINT ( 'NONE',  ( -0.06250000000000000000, 0.0000000000000000000, 0.1789999999999997982 ) ) ;
#173 = ORIENTED_EDGE ( 'NONE', *, *, #305, .T. ) ;
#174 = DIRECTION ( 'NONE',  ( 0.0000000000000000000, 0.0000000000000000000, 1.000000000000000000 ) ) ;
#175 = EDGE_LOOP ( 'NONE', ( #207, #49 ) ) ;
#176 = AXIS2_PLACEMENT_3D ( 'NONE', #300, #327, #129 ) ;
#177 = MECHANICAL_DESIGN_GEOMETRIC_PRESENTATION_REPRESENTATION (  '', ( #35 ), #62 ) ;
#178 =( GEOMETRIC_REPRESENTATION_CONTEXT ( 3 ) GLOBAL_UNCERTAINTY_ASSIGNED_CONTEXT ( ( #7 ) ) GLOBAL_UNIT_ASSIGNED_CONTEXT ( ( #31, #71, #159 ) ) REPRESENTATION_CONTEXT ( 'NONE', 'WORKASPACE' ) );
#179 = DIRECTION ( 'NONE',  ( 1.000000000000000000, 0.0000000000000000000, 0.0000000000000000000 ) ) ;
#180 = ORIENTED_EDGE ( 'NONE', *, *, #347, .F. ) ;
#181 = LINE ( 'NONE', #292, #106 ) ;
#182 = CARTESIAN_POINT ( 'NONE',  ( 0.0000000000000000000, 0.0000000000000000000, 0.1400000000000000133 ) ) ;
#183 = EDGE_LOOP ( 'NONE', ( #46, #81 ) ) ;
#184 =( NAMED_UNIT ( * ) PLANE_ANGLE_UNIT ( ) SI_UNIT ( $, .RADIAN. ) );
#185 = EDGE_LOOP ( 'NONE', ( #259, #236, #308, #294 ) ) ;
#186 = ORIENTED_EDGE ( 'NONE', *, *, #223, .T. ) ;
#187 = PRODUCT ( 'Micro_KC-093-140-015', 'Micro_KC-093-140-015', '', ( #299 ) ) ;
#188 = DIRECTION ( 'NONE',  ( -1.000000000000000000, 0.0000000000000000000, 0.0000000000000000000 ) ) ;
#189 = DIRECTION ( 'NONE',  ( 0.7071067811865493491, 0.0000000000000000000, 0.7071067811865454633 ) ) ;
#190 = DIRECTION ( 'NONE',  ( 1.000000000000000000, 0.0000000000000000000, 0.0000000000000000000 ) ) ;
#191 = AXIS2_PLACEMENT_3D ( 'NONE', #144, #174, #83 ) ;
#192 = CARTESIAN_POINT ( 'NONE',  ( 0.0000000000000000000, 0.0000000000000000000, 0.0000000000000000000 ) ) ;
#193 = DIRECTION ( 'NONE',  ( -0.0000000000000000000, -0.0000000000000000000, -1.000000000000000000 ) ) ;
#194 = EDGE_LOOP ( 'NONE', ( #63, #52, #32, #116 ) ) ;
#195 = CARTESIAN_POINT ( 'NONE',  ( -0.04750000000000064587, 0.0000000000000000000, 1.500000000000000222 ) ) ;
#196 = ORIENTED_EDGE ( 'NONE', *, *, #364, .T. ) ;
#197 = VECTOR ( 'NONE', #39, 39.37007874015748143 ) ;
#198 = AXIS2_PLACEMENT_3D ( 'NONE', #253, #166, #366 ) ;
#199 = DIRECTION ( 'NONE',  ( 0.0000000000000000000, 0.0000000000000000000, -1.000000000000000000 ) ) ;
#200 = VERTEX_POINT ( 'NONE', #307 ) ;
#201 = DIRECTION ( 'NONE',  ( 0.0000000000000000000, 0.0000000000000000000, 1.000000000000000000 ) ) ;
#202 = EDGE_CURVE ( 'NONE', #139, #126, #134, .T. ) ;
#203 = DIRECTION ( 'NONE',  ( -1.000000000000000000, 0.0000000000000000000, 0.0000000000000000000 ) ) ;
#204 = VERTEX_POINT ( 'NONE', #172 ) ;
#205 = APPLICATION_CONTEXT ( 'automotive_design' ) ;
#206 = VECTOR ( 'NONE', #233, 39.37007874015748143 ) ;
#207 = ORIENTED_EDGE ( 'NONE', *, *, #110, .T. ) ;
#208 = CARTESIAN_POINT ( 'NONE',  ( 0.02350000000000001393, 2.877919977996281753E-18, 0.0000000000000000000 ) ) ;
#209 = PRODUCT_DEFINITION_CONTEXT ( 'detailed design', #224, 'design' ) ;
#210 = FILL_AREA_STYLE_COLOUR ( '', #251 ) ;
#211 = ORIENTED_EDGE ( 'NONE', *, *, #36, .F. ) ;
#212 = AXIS2_PLACEMENT_3D ( 'NONE', #243, #326, #355 ) ;
#213 = FILL_AREA_STYLE ('',( #210 ) ) ;
#214 = ORIENTED_EDGE ( 'NONE', *, *, #364, .F. ) ;
#215 = CARTESIAN_POINT ( 'NONE',  ( 0.02350000000000002781, 0.0000000000000000000, 0.1400000000000000133 ) ) ;
#216 = UNCERTAINTY_MEASURE_WITH_UNIT (LENGTH_MEASURE( 1.000000000000000082E-05 ), #352, 'distance_accuracy_value', 'NONE');
#217 = FACE_OUTER_BOUND ( 'NONE', #281, .T. ) ;
#218 = CIRCLE ( 'NONE', #14, 0.06250000000000000000 ) ;
#219 = LINE ( 'NONE', #332, #197 ) ;
#220 = DIRECTION ( 'NONE',  ( 0.0000000000000000000, 0.0000000000000000000, -1.000000000000000000 ) ) ;
#221 = APPLICATION_PROTOCOL_DEFINITION ( 'draft international standard', 'automotive_design', 1998, #224 ) ;
#222 = CYLINDRICAL_SURFACE ( 'NONE', #77, 0.04690000000000001112 ) ;
#223 = EDGE_CURVE ( 'NONE', #238, #242, #325, .T. ) ;
#224 = APPLICATION_CONTEXT ( 'automotive_design' ) ;
#225 = DIRECTION ( 'NONE',  ( 1.000000000000000000, 0.0000000000000000000, 0.0000000000000000000 ) ) ;
#226 = LINE ( 'NONE', #282, #47 ) ;
#227 = VERTEX_POINT ( 'NONE', #312 ) ;
#228 = CARTESIAN_POINT ( 'NONE',  ( 0.0000000000000000000, 0.0000000000000000000, 1.500000000000000222 ) ) ;
#229 = AXIS2_PLACEMENT_3D ( 'NONE', #247, #329, #104 ) ;
#230 = AXIS2_PLACEMENT_3D ( 'NONE', #75, #193, #284 ) ;
#231 = EDGE_CURVE ( 'NONE', #227, #204, #226, .T. ) ;
#232 = FACE_OUTER_BOUND ( 'NONE', #185, .T. ) ;
#233 = DIRECTION ( 'NONE',  ( 0.7071067811865456854, 8.659560562354911904E-17, -0.7071067811865493491 ) ) ;
#234 = ORIENTED_EDGE ( 'NONE', *, *, #339, .F. ) ;
#235 = CARTESIAN_POINT ( 'NONE',  ( -0.04690000000000001112, 0.0000000000000000000, 0.0000000000000000000 ) ) ;
#236 = ORIENTED_EDGE ( 'NONE', *, *, #231, .T. ) ;
#237 = ADVANCED_FACE ( 'NONE', ( #45 ), #40, .T. ) ;
#238 = VERTEX_POINT ( 'NONE', #338 ) ;
#239 = SURFACE_SIDE_STYLE ('',( #148 ) ) ;
#240 = EDGE_LOOP ( 'NONE', ( #293, #2 ) ) ;
#241 = CIRCLE ( 'NONE', #324, 0.06250000000000000000 ) ;
#242 = VERTEX_POINT ( 'NONE', #18 ) ;
#243 = CARTESIAN_POINT ( 'NONE',  ( 0.0000000000000000000, 0.0000000000000000000, 1.500000000000000222 ) ) ;
#244 = CARTESIAN_POINT ( 'NONE',  ( 0.0000000000000000000, 0.0000000000000000000, 1.485000000000000764 ) ) ;
#245 = DIRECTION ( 'NONE',  ( -0.7071067811865456854, 0.0000000000000000000, -0.7071067811865493491 ) ) ;
#246 = SHAPE_DEFINITION_REPRESENTATION ( #85, #60 ) ;
#247 = CARTESIAN_POINT ( 'NONE',  ( 0.0000000000000000000, 0.0000000000000000000, 0.01500000000000000291 ) ) ;
#248 = CARTESIAN_POINT ( 'NONE',  ( 0.0000000000000000000, 0.0000000000000000000, 0.0000000000000000000 ) ) ;
#249 = FACE_OUTER_BOUND ( 'NONE', #59, .T. ) ;
#250 = VECTOR ( 'NONE', #100, 39.37007874015748143 ) ;
#251 = COLOUR_RGB ( '',0.7921568627450980005, 0.8196078431372548767, 0.9333333333333333481 ) ;
#252 = DIRECTION ( 'NONE',  ( 0.0000000000000000000, 0.0000000000000000000, 1.000000000000000000 ) ) ;
#253 = CARTESIAN_POINT ( 'NONE',  ( 0.0000000000000000000, 0.0000000000000000000, 1.500000000000000222 ) ) ;
#254 = EDGE_LOOP ( 'NONE', ( #214, #186, #296, #86 ) ) ;
#255 = CARTESIAN_POINT ( 'NONE',  ( 0.0000000000000000000, 0.0000000000000000000, 1.500000000000000222 ) ) ;
#256 = CLOSED_SHELL ( 'NONE', ( #258, #103, #341, #237, #295, #12, #271, #124, #287, #55, #91, #165, #96 ) ) ;
#257 = FACE_OUTER_BOUND ( 'NONE', #94, .T. ) ;
#258 = ADVANCED_FACE ( 'NONE', ( #257 ), #80, .T. ) ;
#259 = ORIENTED_EDGE ( 'NONE', *, *, #328, .F. ) ;
#260 =( NAMED_UNIT ( * ) SI_UNIT ( $, .STERADIAN. ) SOLID_ANGLE_UNIT ( ) );
#261 = ORIENTED_EDGE ( 'NONE', *, *, #84, .F. ) ;
#262 = AXIS2_PLACEMENT_3D ( 'NONE', #279, #111, #203 ) ;
#263 = UNCERTAINTY_MEASURE_WITH_UNIT (LENGTH_MEASURE( 1.000000000000000082E-05 ), #23, 'distance_accuracy_value', 'NONE');
#264 = DIRECTION ( 'NONE',  ( -0.0000000000000000000, -0.0000000000000000000, -1.000000000000000000 ) ) ;
#265 = ORIENTED_EDGE ( 'NONE', *, *, #202, .F. ) ;
#266 =( NAMED_UNIT ( * ) SI_UNIT ( $, .STERADIAN. ) SOLID_ANGLE_UNIT ( ) );
#267 = ORIENTED_EDGE ( 'NONE', *, *, #43, .T. ) ;
#268 = EDGE_LOOP ( 'NONE', ( #367, #283, #270, #261 ) ) ;
#269 = AXIS2_PLACEMENT_3D ( 'NONE', #255, #113, #225 ) ;
#270 = ORIENTED_EDGE ( 'NONE', *, *, #51, .T. ) ;
#271 = ADVANCED_FACE ( 'NONE', ( #311 ), #140, .T. ) ;
#272 = CARTESIAN_POINT ( 'NONE',  ( 0.0000000000000000000, 0.0000000000000000000, 0.01499999999999999771 ) ) ;
#273 = CARTESIAN_POINT ( 'NONE',  ( -0.04750000000000064587, 0.0000000000000000000, 1.500000000000000222 ) ) ;
#274 = CIRCLE ( 'NONE', #229, 0.02350000000000000352 ) ;
#275 = FACE_OUTER_BOUND ( 'NONE', #183, .T. ) ;
#276 = CYLINDRICAL_SURFACE ( 'NONE', #285, 0.02350000000000001393 ) ;
#277 = DIRECTION ( 'NONE',  ( 1.000000000000000000, 0.0000000000000000000, 0.0000000000000000000 ) ) ;
#278 = CARTESIAN_POINT ( 'NONE',  ( 0.0000000000000000000, 0.0000000000000000000, 1.485000000000000764 ) ) ;
#279 = CARTESIAN_POINT ( 'NONE',  ( 0.0000000000000000000, 0.0000000000000000000, 0.1400000000000000133 ) ) ;
#280 = EDGE_CURVE ( 'NONE', #76, #126, #218, .T. ) ;
#281 = EDGE_LOOP ( 'NONE', ( #265, #234, #112, #321 ) ) ;
#282 = CARTESIAN_POINT ( 'NONE',  ( -0.02350000000000002781, 2.877919977996283294E-18, 0.1400000000000000133 ) ) ;
#283 = ORIENTED_EDGE ( 'NONE', *, *, #30, .T. ) ;
#284 = DIRECTION ( 'NONE',  ( -1.000000000000000000, 0.0000000000000000000, 0.0000000000000000000 ) ) ;
#285 = AXIS2_PLACEMENT_3D ( 'NONE', #192, #306, #66 ) ;
#286 = VECTOR ( 'NONE', #245, 39.37007874015748143 ) ;
#287 = ADVANCED_FACE ( 'NONE', ( #53 ), #369, .T. ) ;
#288 = CARTESIAN_POINT ( 'NONE',  ( 0.0000000000000000000, 0.0000000000000000000, 0.1400000000000000133 ) ) ;
#289 = ORIENTED_EDGE ( 'NONE', *, *, #24, .T. ) ;
#290 = DIRECTION ( 'NONE',  ( -0.0000000000000000000, -0.0000000000000000000, -1.000000000000000000 ) ) ;
#291 = ORIENTED_EDGE ( 'NONE', *, *, #280, .F. ) ;
#292 = CARTESIAN_POINT ( 'NONE',  ( 0.04690000000000001112, 5.743593488001087536E-18, 0.0000000000000000000 ) ) ;
#293 = ORIENTED_EDGE ( 'NONE', *, *, #4, .T. ) ;
#294 = ORIENTED_EDGE ( 'NONE', *, *, #137, .F. ) ;
#295 = ADVANCED_FACE ( 'NONE', ( #249 ), #136, .T. ) ;
#296 = ORIENTED_EDGE ( 'NONE', *, *, #347, .T. ) ;
#297 = EDGE_LOOP ( 'NONE', ( #27, #196, #121, #180 ) ) ;
#298 = FACE_OUTER_BOUND ( 'NONE', #254, .T. ) ;
#299 = PRODUCT_CONTEXT ( 'NONE', #205, 'mechanical' ) ;
#300 = CARTESIAN_POINT ( 'NONE',  ( 0.0000000000000000000, 0.0000000000000000000, 0.01500000000000000291 ) ) ;
#301 = DIRECTION ( 'NONE',  ( 0.0000000000000000000, 0.0000000000000000000, 1.000000000000000000 ) ) ;
#302 = CARTESIAN_POINT ( 'NONE',  ( -0.02350000000000001393, 0.0000000000000000000, 0.0000000000000000000 ) ) ;
#303 = DIRECTION ( 'NONE',  ( 0.0000000000000000000, 0.0000000000000000000, 1.000000000000000000 ) ) ;
#304 = AXIS2_PLACEMENT_3D ( 'NONE', #10, #301, #330 ) ;
#305 = EDGE_CURVE ( 'NONE', #139, #344, #149, .T. ) ;
#306 = DIRECTION ( 'NONE',  ( -0.0000000000000000000, -0.0000000000000000000, -1.000000000000000000 ) ) ;
#307 = CARTESIAN_POINT ( 'NONE',  ( -0.04690000000000001806, 0.0000000000000000000, 0.0000000000000000000 ) ) ;
#308 = ORIENTED_EDGE ( 'NONE', *, *, #151, .T. ) ;
#309 = CARTESIAN_POINT ( 'NONE',  ( 0.0000000000000000000, 0.0000000000000000000, 0.0000000000000000000 ) ) ;
#310 = VERTEX_POINT ( 'NONE', #82 ) ;
#311 = FACE_OUTER_BOUND ( 'NONE', #350, .T. ) ;
#312 = CARTESIAN_POINT ( 'NONE',  ( -0.02350000000000002781, 5.265981236333620997E-18, 0.1400000000000000133 ) ) ;
#313 = DIRECTION ( 'NONE',  ( -0.0000000000000000000, -0.0000000000000000000, -1.000000000000000000 ) ) ;
#314 = VECTOR ( 'NONE', #90, 39.37007874015748143 ) ;
#315 = AXIS2_PLACEMENT_3D ( 'NONE', #336, #337, #370 ) ;
#316 = LINE ( 'NONE', #208, #118 ) ;
#317 = DIRECTION ( 'NONE',  ( -0.0000000000000000000, -0.0000000000000000000, -1.000000000000000000 ) ) ;
#318 = ORIENTED_EDGE ( 'NONE', *, *, #339, .T. ) ;
#319 = ORIENTED_EDGE ( 'NONE', *, *, #280, .T. ) ;
#320 = FILL_AREA_STYLE ('',( #372 ) ) ;
#321 = ORIENTED_EDGE ( 'NONE', *, *, #115, .F. ) ;
#322 = EDGE_CURVE ( 'NONE', #54, #200, #168, .T. ) ;
#323 = FACE_BOUND ( 'NONE', #175, .T. ) ;
#324 = AXIS2_PLACEMENT_3D ( 'NONE', #97, #69, #42 ) ;
#325 = CIRCLE ( 'NONE', #230, 0.04689999999999999725 ) ;
#326 = DIRECTION ( 'NONE',  ( 0.0000000000000000000, 0.0000000000000000000, -1.000000000000000000 ) ) ;
#327 = DIRECTION ( 'NONE',  ( -0.0000000000000000000, -0.0000000000000000000, -1.000000000000000000 ) ) ;
#328 = EDGE_CURVE ( 'NONE', #227, #65, #143, .T. ) ;
#329 = DIRECTION ( 'NONE',  ( -0.0000000000000000000, -0.0000000000000000000, -1.000000000000000000 ) ) ;
#330 = DIRECTION ( 'NONE',  ( 1.000000000000000000, 0.0000000000000000000, 0.0000000000000000000 ) ) ;
#331 = CIRCLE ( 'NONE', #176, 0.02350000000000000352 ) ;
#332 = CARTESIAN_POINT ( 'NONE',  ( -0.06250000000000000000, 0.0000000000000000000, 1.500000000000000222 ) ) ;
#333 = DIMENSIONAL_EXPONENTS ( 1.000000000000000000, 0.0000000000000000000, 0.0000000000000000000, 0.0000000000000000000, 0.0000000000000000000, 0.0000000000000000000, 0.0000000000000000000 ) ;
#334 = CARTESIAN_POINT ( 'NONE',  ( 0.04750000000000064587, 5.817072295950006528E-18, 1.500000000000000222 ) ) ;
#335 = PRODUCT_RELATED_PRODUCT_CATEGORY ( 'part', '', ( #187 ) ) ;
#336 = CARTESIAN_POINT ( 'NONE',  ( 0.0000000000000000000, 0.0000000000000000000, 1.500000000000000222 ) ) ;
#337 = DIRECTION ( 'NONE',  ( -0.0000000000000000000, -0.0000000000000000000, -1.000000000000000000 ) ) ;
#338 = CARTESIAN_POINT ( 'NONE',  ( 0.04689999999999999725, 5.743593488001087536E-18, 0.01499999999999999771 ) ) ;
#339 = EDGE_CURVE ( 'NONE', #344, #139, #119, .T. ) ;
#340 = DIRECTION ( 'NONE',  ( -1.000000000000000000, 0.0000000000000000000, 0.0000000000000000000 ) ) ;
#341 = ADVANCED_FACE ( 'NONE', ( #232 ), #28, .T. ) ;
#342 = VERTEX_POINT ( 'NONE', #365 ) ;
#343 = SURFACE_SIDE_STYLE ('',( #1 ) ) ;
#344 = VERTEX_POINT ( 'NONE', #195 ) ;
#345 = SURFACE_STYLE_USAGE ( .BOTH. , #343 ) ;
#346 = CYLINDRICAL_SURFACE ( 'NONE', #147, 0.06250000000000000000 ) ;
#347 = EDGE_CURVE ( 'NONE', #242, #200, #170, .T. ) ;
#348 = LINE ( 'NONE', #153, #314 ) ;
#349 = SURFACE_STYLE_USAGE ( .BOTH. , #239 ) ;
#350 = EDGE_LOOP ( 'NONE', ( #318, #173 ) ) ;
#351 = VECTOR ( 'NONE', #189, 39.37007874015748854 ) ;
#352 =( CONVERSION_BASED_UNIT ( 'INCH', #89 ) LENGTH_UNIT ( ) NAMED_UNIT ( #107 ) );
#353 = PRODUCT_DEFINITION ( 'UNKNOWN', '', #376, #209 ) ;
#354 = ORIENTED_EDGE ( 'NONE', *, *, #115, .T. ) ;
#355 = DIRECTION ( 'NONE',  ( -1.000000000000000000, 0.0000000000000000000, 0.0000000000000000000 ) ) ;
#356 = DIRECTION ( 'NONE',  ( -1.000000000000000000, 0.0000000000000000000, 0.0000000000000000000 ) ) ;
#357 = AXIS2_PLACEMENT_3D ( 'NONE', #228, #252, #179 ) ;
#358 = CARTESIAN_POINT ( 'NONE',  ( 0.0000000000000000000, 0.0000000000000000000, 0.1789999999999997982 ) ) ;
#359 = FACE_OUTER_BOUND ( 'NONE', #268, .T. ) ;
#360 = CARTESIAN_POINT ( 'NONE',  ( 0.0000000000000000000, 0.0000000000000000000, 0.0000000000000000000 ) ) ;
#361 = AXIS2_PLACEMENT_3D ( 'NONE', #272, #130, #356 ) ;
#362 = CONICAL_SURFACE ( 'NONE', #212, 0.04750000000000064587, 0.7853981633974457255 ) ;
#363 = DIRECTION ( 'NONE',  ( 1.000000000000000000, 0.0000000000000000000, 0.0000000000000000000 ) ) ;
#364 = EDGE_CURVE ( 'NONE', #238, #54, #181, .T. ) ;
#365 = CARTESIAN_POINT ( 'NONE',  ( 0.06250000000000000000, 7.654042494670956004E-18, 0.1789999999999997982 ) ) ;
#366 = DIRECTION ( 'NONE',  ( 1.000000000000000000, 0.0000000000000000000, -0.0000000000000000000 ) ) ;
#367 = ORIENTED_EDGE ( 'NONE', *, *, #24, .F. ) ;
#368 = CIRCLE ( 'NONE', #142, 0.04690000000000001806 ) ;
#369 = CONICAL_SURFACE ( 'NONE', #191, 0.02350000000000002781, 0.7853981633974510546 ) ;
#370 = DIRECTION ( 'NONE',  ( -1.000000000000000000, 0.0000000000000000000, 0.0000000000000000000 ) ) ;
#371 = MANIFOLD_SOLID_BREP ( 'Cut-Revolve1', #256 ) ;
#372 = FILL_AREA_STYLE_COLOUR ( '', #21 ) ;
#373 = ORIENTED_EDGE ( 'NONE', *, *, #145, .F. ) ;
#374 = ORIENTED_EDGE ( 'NONE', *, *, #151, .F. ) ;
#375 = CIRCLE ( 'NONE', #135, 0.06250000000000000000 ) ;
#376 = PRODUCT_DEFINITION_FORMATION_WITH_SPECIFIED_SOURCE ( 'ANY', '', #187, .NOT_KNOWN. ) ;
#377 = DIRECTION ( 'NONE',  ( -1.000000000000000000, 0.0000000000000000000, 0.0000000000000000000 ) ) ;
#378 = APPLICATION_PROTOCOL_DEFINITION ( 'draft international standard', 'automotive_design', 1998, #205 ) ;
#379 = ORIENTED_EDGE ( 'NONE', *, *, #328, .T. ) ;
ENDSEC;
END-ISO-10303-21;
