ISO-10303-21;
HEADER;
FILE_DESCRIPTION (( 'STEP AP214' ),
    '1' );
FILE_NAME ('17045.STEP',
    '2023-06-30T21:51:59',
    ( '' ),
    ( '' ),
    'SwSTEP 2.0',
    'SolidWorks 2023',
    '' );
FILE_SCHEMA (( 'AUTOMOTIVE_DESIGN' ));
ENDSEC;

DATA;
#1 = CARTESIAN_POINT ( 'NONE',  ( -6.123233995736766036E-17, 2.500000000000000000, 0.000000000000000000 ) ) ;
#2 = CARTESIAN_POINT ( 'NONE',  ( 0.000000000000000000, 0.5000000000000000000, 0.000000000000000000 ) ) ;
#3 = MECHANICAL_DESIGN_GEOMETRIC_PRESENTATION_REPRESENTATION (  '', ( #150 ), #59 ) ;
#4 = CARTESIAN_POINT ( 'NONE',  ( -6.123233995736766036E-17, 2.500000000000000000, 0.000000000000000000 ) ) ;
#5 = ORIENTED_EDGE ( 'NONE', *, *, #254, .T. ) ;
#6 = ADVANCED_FACE ( 'NONE', ( #9 ), #321, .T. ) ;
#7 = CARTESIAN_POINT ( 'NONE',  ( 0.06249999999999996531, 0.06250000000000001388, 0.000000000000000000 ) ) ;
#8 = ORIENTED_EDGE ( 'NONE', *, *, #243, .T. ) ;
#9 = FACE_OUTER_BOUND ( 'NONE', #178, .T. ) ;
#10 = SURFACE_STYLE_USAGE ( .BOTH. , #153 ) ;
#11 = ORIENTED_EDGE ( 'NONE', *, *, #312, .F. ) ;
#12 = PRESENTATION_STYLE_ASSIGNMENT (( #10 ) ) ;
#13 = EDGE_LOOP ( 'NONE', ( #114, #211, #96, #230 ) ) ;
#14 = CIRCLE ( 'NONE', #347, 0.06249999999999995143 ) ;
#15 = DIRECTION ( 'NONE',  ( 1.224646799147353207E-16, -0.000000000000000000, 1.000000000000000000 ) ) ;
#16 =( NAMED_UNIT ( * ) SI_UNIT ( $, .STERADIAN. ) SOLID_ANGLE_UNIT ( ) );
#17 = DIRECTION ( 'NONE',  ( 1.000000000000000000, 0.000000000000000000, 0.000000000000000000 ) ) ;
#18 = AXIS2_PLACEMENT_3D ( 'NONE', #252, #201, #69 ) ;
#19 =( NAMED_UNIT ( * ) PLANE_ANGLE_UNIT ( ) SI_UNIT ( $, .RADIAN. ) );
#20 = DIRECTION ( 'NONE',  ( -0.000000000000000000, -1.000000000000000000, -0.000000000000000000 ) ) ;
#21 = EDGE_CURVE ( 'NONE', #75, #73, #145, .T. ) ;
#22 = CARTESIAN_POINT ( 'NONE',  ( 7.654042494670949841E-18, 0.5000000000000000000, 0.06249999999999993755 ) ) ;
#23 =( LENGTH_UNIT ( ) NAMED_UNIT ( * ) SI_UNIT ( $, .METRE. ) );
#24 = APPLICATION_PROTOCOL_DEFINITION ( 'draft international standard', 'automotive_design', 1998, #31 ) ;
#25 = SURFACE_STYLE_FILL_AREA ( #128 ) ;
#26 = CIRCLE ( 'NONE', #232, 0.06249999999999997918 ) ;
#27 = DIMENSIONAL_EXPONENTS ( 1.000000000000000000, 0.000000000000000000, 0.000000000000000000, 0.000000000000000000, 0.000000000000000000, 0.000000000000000000, 0.000000000000000000 ) ;
#28 = SURFACE_STYLE_USAGE ( .BOTH. , #64 ) ;
#29 = APPLICATION_PROTOCOL_DEFINITION ( 'draft international standard', 'automotive_design', 1998, #169 ) ;
#30 =( LENGTH_UNIT ( ) NAMED_UNIT ( * ) SI_UNIT ( $, .METRE. ) );
#31 = APPLICATION_CONTEXT ( 'automotive_design' ) ;
#32 = CARTESIAN_POINT ( 'NONE',  ( 0.000000000000000000, 0.06250000000000001388, 0.000000000000000000 ) ) ;
#33 = VECTOR ( 'NONE', #226, 39.37007874015748143 ) ;
#34 = FILL_AREA_STYLE_COLOUR ( '', #122 ) ;
#35 = CARTESIAN_POINT ( 'NONE',  ( 0.000000000000000000, 0.06250000000000001388, 0.000000000000000000 ) ) ;
#36 = FACE_OUTER_BOUND ( 'NONE', #13, .T. ) ;
#37 = DIRECTION ( 'NONE',  ( -1.000000000000000000, 0.000000000000000000, 0.000000000000000000 ) ) ;
#38 =( GEOMETRIC_REPRESENTATION_CONTEXT ( 3 ) GLOBAL_UNCERTAINTY_ASSIGNED_CONTEXT ( ( #339 ) ) GLOBAL_UNIT_ASSIGNED_CONTEXT ( ( #240, #51, #16 ) ) REPRESENTATION_CONTEXT ( 'NONE', 'WORKASPACE' ) );
#39 = DIRECTION ( 'NONE',  ( -1.224646799147352961E-16, 1.000000000000000000, 0.000000000000000000 ) ) ;
#40 = ORIENTED_EDGE ( 'NONE', *, *, #203, .T. ) ;
#41 = CIRCLE ( 'NONE', #329, 0.06250000000000000000 ) ;
#42 = PRODUCT ( '17045', '17045', '', ( #332 ) ) ;
#43 = SURFACE_SIDE_STYLE ('',( #263 ) ) ;
#44 = FILL_AREA_STYLE_COLOUR ( '', #108 ) ;
#45 = PRESENTATION_LAYER_ASSIGNMENT (  '', '', ( #366 ) ) ;
#46 = VERTEX_POINT ( 'NONE', #162 ) ;
#47 = PRESENTATION_LAYER_ASSIGNMENT (  '', '', ( #322 ) ) ;
#48 = CARTESIAN_POINT ( 'NONE',  ( 0.06249999999999993755, 0.5000000000000001110, 7.654042494670949841E-18 ) ) ;
#49 = VERTEX_POINT ( 'NONE', #189 ) ;
#50 = CARTESIAN_POINT ( 'NONE',  ( 1.836970198721029194E-16, 0.5000000000000001110, 0.000000000000000000 ) ) ;
#51 =( NAMED_UNIT ( * ) PLANE_ANGLE_UNIT ( ) SI_UNIT ( $, .RADIAN. ) );
#52 = AXIS2_PLACEMENT_3D ( 'NONE', #2, #74, #361 ) ;
#53 = PLANE ( 'NONE',  #112 ) ;
#54 =( LENGTH_UNIT ( ) NAMED_UNIT ( * ) SI_UNIT ( $, .METRE. ) );
#55 = LENGTH_MEASURE_WITH_UNIT ( LENGTH_MEASURE( 0.02539999999999999897 ), #30 );
#56 = PRESENTATION_STYLE_ASSIGNMENT (( #303 ) ) ;
#57 = LENGTH_MEASURE_WITH_UNIT ( LENGTH_MEASURE( 0.02539999999999999897 ), #251 );
#58 = CARTESIAN_POINT ( 'NONE',  ( 0.06249999999999981959, 2.500000000000000000, 7.654042494670943678E-18 ) ) ;
#59 =( GEOMETRIC_REPRESENTATION_CONTEXT ( 3 ) GLOBAL_UNCERTAINTY_ASSIGNED_CONTEXT ( ( #186 ) ) GLOBAL_UNIT_ASSIGNED_CONTEXT ( ( #244, #118, #294 ) ) REPRESENTATION_CONTEXT ( 'NONE', 'WORKASPACE' ) );
#60 = VECTOR ( 'NONE', #213, 39.37007874015748143 ) ;
#61 = DIRECTION ( 'NONE',  ( -0.000000000000000000, -1.000000000000000000, -0.000000000000000000 ) ) ;
#62 = FILL_AREA_STYLE ('',( #369 ) ) ;
#63 = PRESENTATION_STYLE_ASSIGNMENT (( #349 ) ) ;
#64 = SURFACE_SIDE_STYLE ('',( #188 ) ) ;
#65 = MANIFOLD_SOLID_BREP ( 'Revolve - Cutting Edge', #368 ) ;
#66 = DIRECTION ( 'NONE',  ( -0.000000000000000000, -1.000000000000000000, -0.000000000000000000 ) ) ;
#67 = PRESENTATION_LAYER_ASSIGNMENT (  '', '', ( #106 ) ) ;
#68 = DIRECTION ( 'NONE',  ( -1.224646799147352961E-16, 1.000000000000000000, -0.000000000000000000 ) ) ;
#69 = DIRECTION ( 'NONE',  ( 0.000000000000000000, 0.000000000000000000, -1.000000000000000000 ) ) ;
#70 = CARTESIAN_POINT ( 'NONE',  ( 1.836970198721029441E-16, 0.5000000000000000000, 0.000000000000000000 ) ) ;
#71 = CIRCLE ( 'NONE', #179, 0.06249999999999993755 ) ;
#72 = ORIENTED_EDGE ( 'NONE', *, *, #148, .T. ) ;
#73 = VERTEX_POINT ( 'NONE', #185 ) ;
#74 = DIRECTION ( 'NONE',  ( -0.000000000000000000, -1.000000000000000000, -0.000000000000000000 ) ) ;
#75 = VERTEX_POINT ( 'NONE', #299 ) ;
#76 = FILL_AREA_STYLE ('',( #184 ) ) ;
#77 = ORIENTED_EDGE ( 'NONE', *, *, #300, .F. ) ;
#78 = CARTESIAN_POINT ( 'NONE',  ( 1.836970198721029194E-16, 0.5000000000000001110, 0.000000000000000000 ) ) ;
#79 = CARTESIAN_POINT ( 'NONE',  ( -7.654042494670957545E-18, 0.06250000000000001388, 0.000000000000000000 ) ) ;
#80 = CIRCLE ( 'NONE', #111, 0.06250000000000000000 ) ;
#81 = DIRECTION ( 'NONE',  ( 1.224646799147352961E-16, -1.000000000000000000, 0.000000000000000000 ) ) ;
#82 = DIMENSIONAL_EXPONENTS ( 1.000000000000000000, 0.000000000000000000, 0.000000000000000000, 0.000000000000000000, 0.000000000000000000, 0.000000000000000000, 0.000000000000000000 ) ;
#83 =( NAMED_UNIT ( * ) SI_UNIT ( $, .STERADIAN. ) SOLID_ANGLE_UNIT ( ) );
#84 = CARTESIAN_POINT ( 'NONE',  ( 0.06249999999999993755, 2.500000000000000000, 7.654042494670949841E-18 ) ) ;
#85 = COLOUR_RGB ( '',0.7921568627450980005, 0.8196078431372548767, 0.9333333333333333481 ) ;
#86 = DIRECTION ( 'NONE',  ( 0.000000000000000000, -0.000000000000000000, 1.000000000000000000 ) ) ;
#87 = DIRECTION ( 'NONE',  ( -1.000000000000000000, 0.000000000000000000, 0.000000000000000000 ) ) ;
#88 = PRODUCT_DEFINITION ( 'UNKNOWN', '', #348, #277 ) ;
#89 = CARTESIAN_POINT ( 'NONE',  ( -6.123233995736766036E-17, 2.500000000000000000, 0.000000000000000000 ) ) ;
#90 = VERTEX_POINT ( 'NONE', #104 ) ;
#91 =( GEOMETRIC_REPRESENTATION_CONTEXT ( 3 ) GLOBAL_UNCERTAINTY_ASSIGNED_CONTEXT ( ( #167 ) ) GLOBAL_UNIT_ASSIGNED_CONTEXT ( ( #132, #345, #83 ) ) REPRESENTATION_CONTEXT ( 'NONE', 'WORKASPACE' ) );
#92 = VECTOR ( 'NONE', #363, 39.37007874015748143 ) ;
#93 = ORIENTED_EDGE ( 'NONE', *, *, #212, .F. ) ;
#94 = EDGE_LOOP ( 'NONE', ( #359, #295, #324, #152 ) ) ;
#95 = DIRECTION ( 'NONE',  ( -1.000000000000000000, 0.000000000000000000, 0.000000000000000000 ) ) ;
#96 = ORIENTED_EDGE ( 'NONE', *, *, #342, .T. ) ;
#97 = ORIENTED_EDGE ( 'NONE', *, *, #140, .T. ) ;
#98 = CLOSED_SHELL ( 'NONE', ( #245, #310, #265, #135 ) ) ;
#99 = MECHANICAL_DESIGN_GEOMETRIC_PRESENTATION_REPRESENTATION (  '', ( #195 ), #360 ) ;
#100 = CARTESIAN_POINT ( 'NONE',  ( 0.000000000000000000, 0.000000000000000000, 0.000000000000000000 ) ) ;
#101 =( CONVERSION_BASED_UNIT ( 'INCH', #55 ) LENGTH_UNIT ( ) NAMED_UNIT ( #27 ) );
#102 = AXIS2_PLACEMENT_3D ( 'NONE', #78, #328, #95 ) ;
#103 = LINE ( 'NONE', #58, #60 ) ;
#104 = CARTESIAN_POINT ( 'NONE',  ( -0.06249999999999956285, 0.5000000000000001110, 0.000000000000000000 ) ) ;
#105 = CARTESIAN_POINT ( 'NONE',  ( -7.654042494670957545E-18, 0.06250000000000001388, 0.000000000000000000 ) ) ;
#106 = STYLED_ITEM ( 'NONE', ( #12 ), #319 ) ;
#107 =( NAMED_UNIT ( * ) PLANE_ANGLE_UNIT ( ) SI_UNIT ( $, .RADIAN. ) );
#108 = COLOUR_RGB ( '',1.000000000000000000, 0.000000000000000000, 0.000000000000000000 ) ;
#109 =( NAMED_UNIT ( * ) PLANE_ANGLE_UNIT ( ) SI_UNIT ( $, .RADIAN. ) );
#110 = FILL_AREA_STYLE ('',( #143 ) ) ;
#111 = AXIS2_PLACEMENT_3D ( 'NONE', #4, #68, #87 ) ;
#112 = AXIS2_PLACEMENT_3D ( 'NONE', #220, #81, #337 ) ;
#113 = VERTEX_POINT ( 'NONE', #340 ) ;
#114 = ORIENTED_EDGE ( 'NONE', *, *, #116, .F. ) ;
#115 = AXIS2_PLACEMENT_3D ( 'NONE', #229, #194, #284 ) ;
#116 = EDGE_CURVE ( 'NONE', #293, #323, #103, .T. ) ;
#117 = ORIENTED_EDGE ( 'NONE', *, *, #227, .F. ) ;
#118 =( NAMED_UNIT ( * ) PLANE_ANGLE_UNIT ( ) SI_UNIT ( $, .RADIAN. ) );
#119 = ORIENTED_EDGE ( 'NONE', *, *, #292, .T. ) ;
#120 = ORIENTED_EDGE ( 'NONE', *, *, #177, .T. ) ;
#121 = LENGTH_MEASURE_WITH_UNIT ( LENGTH_MEASURE( 0.02539999999999999897 ), #296 );
#122 = COLOUR_RGB ( '',1.000000000000000000, 0.000000000000000000, 0.000000000000000000 ) ;
#123 = DIRECTION ( 'NONE',  ( 1.000000000000000000, 0.000000000000000000, -1.224646799147353454E-16 ) ) ;
#124 = MECHANICAL_DESIGN_GEOMETRIC_PRESENTATION_REPRESENTATION (  '', ( #275 ), #372 ) ;
#125 = SURFACE_SIDE_STYLE ('',( #247 ) ) ;
#126 = DIRECTION ( 'NONE',  ( -0.000000000000000000, -1.000000000000000000, -0.000000000000000000 ) ) ;
#127 = UNCERTAINTY_MEASURE_WITH_UNIT (LENGTH_MEASURE( 1.000000000000000082E-05 ), #101, 'distance_accuracy_value', 'NONE');
#128 = FILL_AREA_STYLE ('',( #158 ) ) ;
#129 = MECHANICAL_DESIGN_GEOMETRIC_PRESENTATION_REPRESENTATION (  '', ( #366 ), #287 ) ;
#130 = LENGTH_MEASURE_WITH_UNIT ( LENGTH_MEASURE( 0.02539999999999999897 ), #191 );
#131 =( LENGTH_UNIT ( ) NAMED_UNIT ( * ) SI_UNIT ( $, .METRE. ) );
#132 =( CONVERSION_BASED_UNIT ( 'INCH', #221 ) LENGTH_UNIT ( ) NAMED_UNIT ( #364 ) );
#133 = UNCERTAINTY_MEASURE_WITH_UNIT (LENGTH_MEASURE( 1.000000000000000082E-05 ), #161, 'distance_accuracy_value', 'NONE');
#134 = CYLINDRICAL_SURFACE ( 'NONE', #341, 0.06249999999999988204 ) ;
#135 = ADVANCED_FACE ( 'NONE', ( #222 ), #53, .F. ) ;
#136 = DIRECTION ( 'NONE',  ( 0.000000000000000000, 1.000000000000000000, 0.000000000000000000 ) ) ;
#137 =( LENGTH_UNIT ( ) NAMED_UNIT ( * ) SI_UNIT ( $, .METRE. ) );
#138 = PRESENTATION_LAYER_ASSIGNMENT (  '', '', ( #150 ) ) ;
#139 = CARTESIAN_POINT ( 'NONE',  ( -7.654042494670957545E-18, 0.06250000000000001388, 0.000000000000000000 ) ) ;
#140 = EDGE_CURVE ( 'NONE', #90, #293, #344, .T. ) ;
#141 = DIRECTION ( 'NONE',  ( 0.000000000000000000, 0.000000000000000000, -1.000000000000000000 ) ) ;
#142 = DIRECTION ( 'NONE',  ( -1.000000000000000000, 0.000000000000000000, 0.000000000000000000 ) ) ;
#143 = FILL_AREA_STYLE_COLOUR ( '', #225 ) ;
#144 = DIRECTION ( 'NONE',  ( 0.000000000000000000, 0.000000000000000000, 1.000000000000000000 ) ) ;
#145 = CIRCLE ( 'NONE', #242, 0.06249999999999997918 ) ;
#146 = VERTEX_POINT ( 'NONE', #22 ) ;
#147 = SURFACE_STYLE_USAGE ( .BOTH. , #43 ) ;
#148 = EDGE_CURVE ( 'NONE', #323, #49, #41, .T. ) ;
#149 = FILL_AREA_STYLE ('',( #44 ) ) ;
#150 = STYLED_ITEM ( 'NONE', ( #236 ), #280 ) ;
#151 = EDGE_CURVE ( 'NONE', #46, #75, #259, .T. ) ;
#152 = ORIENTED_EDGE ( 'NONE', *, *, #300, .T. ) ;
#153 = SURFACE_SIDE_STYLE ('',( #182 ) ) ;
#154 = EDGE_LOOP ( 'NONE', ( #235, #120, #5, #40 ) ) ;
#155 = DIRECTION ( 'NONE',  ( -1.000000000000000000, -1.224646799147352961E-16, 0.000000000000000000 ) ) ;
#156 = DIRECTION ( 'NONE',  ( -1.224646799147352961E-16, 1.000000000000000000, -0.000000000000000000 ) ) ;
#157 = ADVANCED_FACE ( 'NONE', ( #166 ), #173, .T. ) ;
#158 = FILL_AREA_STYLE_COLOUR ( '', #85 ) ;
#159 = CARTESIAN_POINT ( 'NONE',  ( 0.000000000000000000, 0.06250000000000001388, -0.06249999999999995143 ) ) ;
#160 =( NAMED_UNIT ( * ) PLANE_ANGLE_UNIT ( ) SI_UNIT ( $, .RADIAN. ) );
#161 =( CONVERSION_BASED_UNIT ( 'INCH', #370 ) LENGTH_UNIT ( ) NAMED_UNIT ( #315 ) );
#162 = CARTESIAN_POINT ( 'NONE',  ( 7.654042494670951382E-18, 0.06250000000000001388, 0.06249999999999995143 ) ) ;
#163 =( NAMED_UNIT ( * ) SI_UNIT ( $, .STERADIAN. ) SOLID_ANGLE_UNIT ( ) );
#164 = AXIS2_PLACEMENT_3D ( 'NONE', #288, #126, #202 ) ;
#165 = PRESENTATION_LAYER_ASSIGNMENT (  '', '', ( #195 ) ) ;
#166 = FACE_OUTER_BOUND ( 'NONE', #176, .T. ) ;
#167 = UNCERTAINTY_MEASURE_WITH_UNIT (LENGTH_MEASURE( 1.000000000000000082E-05 ), #132, 'distance_accuracy_value', 'NONE');
#168 = SURFACE_STYLE_FILL_AREA ( #110 ) ;
#169 = APPLICATION_CONTEXT ( 'automotive_design' ) ;
#170 = DIMENSIONAL_EXPONENTS ( 1.000000000000000000, 0.000000000000000000, 0.000000000000000000, 0.000000000000000000, 0.000000000000000000, 0.000000000000000000, 0.000000000000000000 ) ;
#171 = CYLINDRICAL_SURFACE ( 'NONE', #115, 0.06249999999999988204 ) ;
#172 = DIRECTION ( 'NONE',  ( -1.000000000000000000, 0.000000000000000000, 0.000000000000000000 ) ) ;
#173 = CYLINDRICAL_SURFACE ( 'NONE', #264, 0.06249999999999995143 ) ;
#174 = PRESENTATION_LAYER_ASSIGNMENT (  '', '', ( #326 ) ) ;
#175 = AXIS2_PLACEMENT_3D ( 'NONE', #50, #156, #187 ) ;
#176 = EDGE_LOOP ( 'NONE', ( #117, #119, #330, #327, #238 ) ) ;
#177 = EDGE_CURVE ( 'NONE', #75, #291, #14, .T. ) ;
#178 = EDGE_LOOP ( 'NONE', ( #354, #262, #77, #260, #93 ) ) ;
#179 = AXIS2_PLACEMENT_3D ( 'NONE', #268, #20, #210 ) ;
#180 = SURFACE_STYLE_USAGE ( .BOTH. , #125 ) ;
#181 = EDGE_LOOP ( 'NONE', ( #8, #72 ) ) ;
#182 = SURFACE_STYLE_FILL_AREA ( #76 ) ;
#183 = ORIENTED_EDGE ( 'NONE', *, *, #282, .F. ) ;
#184 = FILL_AREA_STYLE_COLOUR ( '', #257 ) ;
#185 = CARTESIAN_POINT ( 'NONE',  ( -3.827021247335479543E-18, 3.414809992080329023E-17, 0.000000000000000000 ) ) ;
#186 = UNCERTAINTY_MEASURE_WITH_UNIT (LENGTH_MEASURE( 1.000000000000000082E-05 ), #244, 'distance_accuracy_value', 'NONE');
#187 = DIRECTION ( 'NONE',  ( -1.000000000000000000, 0.000000000000000000, 0.000000000000000000 ) ) ;
#188 = SURFACE_STYLE_FILL_AREA ( #250 ) ;
#189 = CARTESIAN_POINT ( 'NONE',  ( -0.06250000000000005551, 2.500000000000000000, 0.000000000000000000 ) ) ;
#190 = DIRECTION ( 'NONE',  ( 0.000000000000000000, 0.000000000000000000, 1.000000000000000000 ) ) ;
#191 =( LENGTH_UNIT ( ) NAMED_UNIT ( * ) SI_UNIT ( $, .METRE. ) );
#192 =( CONVERSION_BASED_UNIT ( 'INCH', #57 ) LENGTH_UNIT ( ) NAMED_UNIT ( #346 ) );
#193 = CIRCLE ( 'NONE', #164, 0.06249999999999995143 ) ;
#194 = DIRECTION ( 'NONE',  ( -1.224646799147352961E-16, 1.000000000000000000, -0.000000000000000000 ) ) ;
#195 = STYLED_ITEM ( 'NONE', ( #269 ), #65 ) ;
#196 =( CONVERSION_BASED_UNIT ( 'INCH', #318 ) LENGTH_UNIT ( ) NAMED_UNIT ( #170 ) );
#197 = FACE_OUTER_BOUND ( 'NONE', #154, .T. ) ;
#198 = DIMENSIONAL_EXPONENTS ( 1.000000000000000000, 0.000000000000000000, 0.000000000000000000, 0.000000000000000000, 0.000000000000000000, 0.000000000000000000, 0.000000000000000000 ) ;
#199 = CIRCLE ( 'NONE', #102, 0.06249999999999975020 ) ;
#200 = LINE ( 'NONE', #314, #205 ) ;
#201 = DIRECTION ( 'NONE',  ( -0.000000000000000000, -1.000000000000000000, -0.000000000000000000 ) ) ;
#202 = DIRECTION ( 'NONE',  ( 0.000000000000000000, 0.000000000000000000, -1.000000000000000000 ) ) ;
#203 = EDGE_CURVE ( 'NONE', #357, #73, #26, .T. ) ;
#204 = EDGE_LOOP ( 'NONE', ( #352, #11 ) ) ;
#205 = VECTOR ( 'NONE', #66, 39.37007874015748143 ) ;
#206 = EDGE_LOOP ( 'NONE', ( #183, #231 ) ) ;
#207 = FACE_OUTER_BOUND ( 'NONE', #206, .T. ) ;
#208 = ORIENTED_EDGE ( 'NONE', *, *, #342, .F. ) ;
#209 = CIRCLE ( 'NONE', #52, 0.06249999999999993755 ) ;
#210 = DIRECTION ( 'NONE',  ( 0.000000000000000000, 0.000000000000000000, -1.000000000000000000 ) ) ;
#211 = ORIENTED_EDGE ( 'NONE', *, *, #312, .T. ) ;
#212 = EDGE_CURVE ( 'NONE', #113, #291, #258, .T. ) ;
#213 = DIRECTION ( 'NONE',  ( -1.224646799147352961E-16, 1.000000000000000000, -0.000000000000000000 ) ) ;
#214 = SURFACE_STYLE_FILL_AREA ( #62 ) ;
#215 = AXIS2_PLACEMENT_3D ( 'NONE', #70, #39, #155 ) ;
#216 = UNCERTAINTY_MEASURE_WITH_UNIT (LENGTH_MEASURE( 1.000000000000000082E-05 ), #196, 'distance_accuracy_value', 'NONE');
#217 =( NAMED_UNIT ( * ) SI_UNIT ( $, .STERADIAN. ) SOLID_ANGLE_UNIT ( ) );
#218 = SPHERICAL_SURFACE ( 'NONE', #301, 0.06249999999999997918 ) ;
#219 =( NAMED_UNIT ( * ) PLANE_ANGLE_UNIT ( ) SI_UNIT ( $, .RADIAN. ) );
#220 = CARTESIAN_POINT ( 'NONE',  ( 0.06249999999999993755, 2.500000000000000000, 0.000000000000000000 ) ) ;
#221 = LENGTH_MEASURE_WITH_UNIT ( LENGTH_MEASURE( 0.02539999999999999897 ), #131 );
#222 = FACE_OUTER_BOUND ( 'NONE', #181, .T. ) ;
#223 = MECHANICAL_DESIGN_GEOMETRIC_PRESENTATION_REPRESENTATION (  '', ( #326 ), #91 ) ;
#224 = SURFACE_SIDE_STYLE ('',( #168 ) ) ;
#225 = COLOUR_RGB ( '',1.000000000000000000, 0.000000000000000000, 0.000000000000000000 ) ;
#226 = DIRECTION ( 'NONE',  ( -0.000000000000000000, -1.000000000000000000, -0.000000000000000000 ) ) ;
#227 = EDGE_CURVE ( 'NONE', #146, #46, #200, .T. ) ;
#228 = FILL_AREA_STYLE_COLOUR ( '', #333 ) ;
#229 = CARTESIAN_POINT ( 'NONE',  ( -6.123233995736766036E-17, 2.500000000000000000, 0.000000000000000000 ) ) ;
#230 = ORIENTED_EDGE ( 'NONE', *, *, #148, .F. ) ;
#231 = ORIENTED_EDGE ( 'NONE', *, *, #292, .F. ) ;
#232 = AXIS2_PLACEMENT_3D ( 'NONE', #105, #286, #37 ) ;
#233 = ORIENTED_EDGE ( 'NONE', *, *, #116, .T. ) ;
#234 = CARTESIAN_POINT ( 'NONE',  ( -7.654042494670957545E-18, 0.06250000000000001388, 0.000000000000000000 ) ) ;
#235 = ORIENTED_EDGE ( 'NONE', *, *, #21, .F. ) ;
#236 = PRESENTATION_STYLE_ASSIGNMENT (( #180 ) ) ;
#237 = PRODUCT_DEFINITION_SHAPE ( 'NONE', 'NONE',  #88 ) ;
#238 = ORIENTED_EDGE ( 'NONE', *, *, #151, .F. ) ;
#239 = COLOUR_RGB ( '',1.000000000000000000, 0.000000000000000000, 0.000000000000000000 ) ;
#240 =( CONVERSION_BASED_UNIT ( 'INCH', #121 ) LENGTH_UNIT ( ) NAMED_UNIT ( #198 ) );
#241 = SURFACE_SIDE_STYLE ('',( #25 ) ) ;
#242 = AXIS2_PLACEMENT_3D ( 'NONE', #79, #15, #123 ) ;
#243 = EDGE_CURVE ( 'NONE', #49, #323, #80, .T. ) ;
#244 =( CONVERSION_BASED_UNIT ( 'INCH', #358 ) LENGTH_UNIT ( ) NAMED_UNIT ( #270 ) );
#245 = ADVANCED_FACE ( 'NONE', ( #278 ), #171, .T. ) ;
#246 = DIRECTION ( 'NONE',  ( -0.000000000000000000, -1.000000000000000000, -0.000000000000000000 ) ) ;
#247 = SURFACE_STYLE_FILL_AREA ( #325 ) ;
#248 = DIRECTION ( 'NONE',  ( 0.000000000000000000, 0.000000000000000000, 1.000000000000000000 ) ) ;
#249 = MECHANICAL_DESIGN_GEOMETRIC_PRESENTATION_REPRESENTATION (  '', ( #322 ), #274 ) ;
#250 = FILL_AREA_STYLE ('',( #34 ) ) ;
#251 =( LENGTH_UNIT ( ) NAMED_UNIT ( * ) SI_UNIT ( $, .METRE. ) );
#252 = CARTESIAN_POINT ( 'NONE',  ( 0.000000000000000000, 0.06250000000000001388, 0.000000000000000000 ) ) ;
#253 = UNCERTAINTY_MEASURE_WITH_UNIT (LENGTH_MEASURE( 1.000000000000000082E-05 ), #192, 'distance_accuracy_value', 'NONE');
#254 = EDGE_CURVE ( 'NONE', #291, #357, #367, .T. ) ;
#255 = DIRECTION ( 'NONE',  ( 0.000000000000000000, 0.000000000000000000, -1.000000000000000000 ) ) ;
#256 = FACE_OUTER_BOUND ( 'NONE', #94, .T. ) ;
#257 = COLOUR_RGB ( '',0.7921568627450980005, 0.8196078431372548767, 0.9333333333333333481 ) ;
#258 = LINE ( 'NONE', #351, #33 ) ;
#259 = CIRCLE ( 'NONE', #18, 0.06249999999999995143 ) ;
#260 = ORIENTED_EDGE ( 'NONE', *, *, #254, .F. ) ;
#261 = ADVANCED_BREP_SHAPE_REPRESENTATION ( '17045', ( #65, #319, #373 ), #353 ) ;
#262 = ORIENTED_EDGE ( 'NONE', *, *, #227, .T. ) ;
#263 = SURFACE_STYLE_FILL_AREA ( #149 ) ;
#264 = AXIS2_PLACEMENT_3D ( 'NONE', #285, #343, #371 ) ;
#265 = ADVANCED_FACE ( 'NONE', ( #36 ), #134, .T. ) ;
#266 = PLANE ( 'NONE',  #215 ) ;
#267 = PRESENTATION_STYLE_ASSIGNMENT (( #147 ) ) ;
#268 = CARTESIAN_POINT ( 'NONE',  ( 0.000000000000000000, 0.5000000000000000000, 0.000000000000000000 ) ) ;
#269 = PRESENTATION_STYLE_ASSIGNMENT (( #305 ) ) ;
#270 = DIMENSIONAL_EXPONENTS ( 1.000000000000000000, 0.000000000000000000, 0.000000000000000000, 0.000000000000000000, 0.000000000000000000, 0.000000000000000000, 0.000000000000000000 ) ;
#271 = CARTESIAN_POINT ( 'NONE',  ( 0.000000000000000000, 0.000000000000000000, 0.000000000000000000 ) ) ;
#272 = AXIS2_PLACEMENT_3D ( 'NONE', #336, #136, #86 ) ;
#273 =( CONVERSION_BASED_UNIT ( 'INCH', #130 ) LENGTH_UNIT ( ) NAMED_UNIT ( #82 ) );
#274 =( GEOMETRIC_REPRESENTATION_CONTEXT ( 3 ) GLOBAL_UNCERTAINTY_ASSIGNED_CONTEXT ( ( #127 ) ) GLOBAL_UNIT_ASSIGNED_CONTEXT ( ( #101, #19, #217 ) ) REPRESENTATION_CONTEXT ( 'NONE', 'WORKASPACE' ) );
#275 = STYLED_ITEM ( 'NONE', ( #63 ), #157 ) ;
#276 = PRESENTATION_STYLE_ASSIGNMENT (( #28 ) ) ;
#277 = PRODUCT_DEFINITION_CONTEXT ( 'detailed design', #169, 'design' ) ;
#278 = FACE_OUTER_BOUND ( 'NONE', #290, .T. ) ;
#279 = DIRECTION ( 'NONE',  ( -1.224646799147352961E-16, 1.000000000000000000, -0.000000000000000000 ) ) ;
#280 = ADVANCED_FACE ( 'NONE', ( #256 ), #356, .T. ) ;
#281 = CARTESIAN_POINT ( 'NONE',  ( -0.06249999999999993755, 2.500000000000000000, 0.000000000000000000 ) ) ;
#282 = EDGE_CURVE ( 'NONE', #113, #146, #209, .T. ) ;
#283 = AXIS2_PLACEMENT_3D ( 'NONE', #35, #61, #255 ) ;
#284 = DIRECTION ( 'NONE',  ( -1.000000000000000000, 0.000000000000000000, 0.000000000000000000 ) ) ;
#285 = CARTESIAN_POINT ( 'NONE',  ( 0.000000000000000000, 0.000000000000000000, 0.000000000000000000 ) ) ;
#286 = DIRECTION ( 'NONE',  ( 0.000000000000000000, 0.000000000000000000, -1.000000000000000000 ) ) ;
#287 =( GEOMETRIC_REPRESENTATION_CONTEXT ( 3 ) GLOBAL_UNCERTAINTY_ASSIGNED_CONTEXT ( ( #133 ) ) GLOBAL_UNIT_ASSIGNED_CONTEXT ( ( #161, #107, #163 ) ) REPRESENTATION_CONTEXT ( 'NONE', 'WORKASPACE' ) );
#288 = CARTESIAN_POINT ( 'NONE',  ( 0.000000000000000000, 0.06250000000000001388, 0.000000000000000000 ) ) ;
#289 = PRESENTATION_LAYER_ASSIGNMENT (  '', '', ( #275 ) ) ;
#290 = EDGE_LOOP ( 'NONE', ( #97, #233, #355, #208 ) ) ;
#291 = VERTEX_POINT ( 'NONE', #159 ) ;
#292 = EDGE_CURVE ( 'NONE', #146, #113, #71, .T. ) ;
#293 = VERTEX_POINT ( 'NONE', #48 ) ;
#294 =( NAMED_UNIT ( * ) SI_UNIT ( $, .STERADIAN. ) SOLID_ANGLE_UNIT ( ) );
#295 = ORIENTED_EDGE ( 'NONE', *, *, #21, .T. ) ;
#296 =( LENGTH_UNIT ( ) NAMED_UNIT ( * ) SI_UNIT ( $, .METRE. ) );
#297 =( NAMED_UNIT ( * ) SI_UNIT ( $, .STERADIAN. ) SOLID_ANGLE_UNIT ( ) );
#298 =( NAMED_UNIT ( * ) SI_UNIT ( $, .STERADIAN. ) SOLID_ANGLE_UNIT ( ) );
#299 = CARTESIAN_POINT ( 'NONE',  ( -0.06249999999999996531, 0.06250000000000001388, 7.654042494670952923E-18 ) ) ;
#300 = EDGE_CURVE ( 'NONE', #357, #46, #193, .T. ) ;
#301 = AXIS2_PLACEMENT_3D ( 'NONE', #139, #190, #334 ) ;
#302 = DIRECTION ( 'NONE',  ( 1.000000000000000000, 0.000000000000000000, 0.000000000000000000 ) ) ;
#303 = SURFACE_STYLE_USAGE ( .BOTH. , #304 ) ;
#304 = SURFACE_SIDE_STYLE ('',( #214 ) ) ;
#305 = SURFACE_STYLE_USAGE ( .BOTH. , #241 ) ;
#306 = AXIS2_PLACEMENT_3D ( 'NONE', #234, #144, #302 ) ;
#307 = LINE ( 'NONE', #281, #92 ) ;
#308 = DIRECTION ( 'NONE',  ( -0.000000000000000000, -1.000000000000000000, -0.000000000000000000 ) ) ;
#309 = AXIS2_PLACEMENT_3D ( 'NONE', #271, #246, #362 ) ;
#310 = ADVANCED_FACE ( 'NONE', ( #320 ), #266, .F. ) ;
#311 =( NAMED_UNIT ( * ) SI_UNIT ( $, .STERADIAN. ) SOLID_ANGLE_UNIT ( ) );
#312 = EDGE_CURVE ( 'NONE', #293, #90, #199, .T. ) ;
#313 = PLANE ( 'NONE',  #272 ) ;
#314 = CARTESIAN_POINT ( 'NONE',  ( 7.654042494670951382E-18, 0.000000000000000000, 0.06249999999999995143 ) ) ;
#315 = DIMENSIONAL_EXPONENTS ( 1.000000000000000000, 0.000000000000000000, 0.000000000000000000, 0.000000000000000000, 0.000000000000000000, 0.000000000000000000, 0.000000000000000000 ) ;
#316 = MECHANICAL_DESIGN_GEOMETRIC_PRESENTATION_REPRESENTATION (  '', ( #106 ), #38 ) ;
#317 = DIRECTION ( 'NONE',  ( -1.224646799147352961E-16, 1.000000000000000000, -0.000000000000000000 ) ) ;
#318 = LENGTH_MEASURE_WITH_UNIT ( LENGTH_MEASURE( 0.02539999999999999897 ), #137 );
#319 = MANIFOLD_SOLID_BREP ( 'Revolve - Tool Body (Straight Shanked)', #98 ) ;
#320 = FACE_OUTER_BOUND ( 'NONE', #204, .T. ) ;
#321 = CYLINDRICAL_SURFACE ( 'NONE', #309, 0.06249999999999995143 ) ;
#322 = STYLED_ITEM ( 'NONE', ( #267 ), #6 ) ;
#323 = VERTEX_POINT ( 'NONE', #84 ) ;
#324 = ORIENTED_EDGE ( 'NONE', *, *, #203, .F. ) ;
#325 = FILL_AREA_STYLE ('',( #228 ) ) ;
#326 = STYLED_ITEM ( 'NONE', ( #276 ), #335 ) ;
#327 = ORIENTED_EDGE ( 'NONE', *, *, #177, .F. ) ;
#328 = DIRECTION ( 'NONE',  ( -1.224646799147352961E-16, 1.000000000000000000, -0.000000000000000000 ) ) ;
#329 = AXIS2_PLACEMENT_3D ( 'NONE', #89, #279, #172 ) ;
#330 = ORIENTED_EDGE ( 'NONE', *, *, #212, .T. ) ;
#331 = ADVANCED_FACE ( 'NONE', ( #207 ), #313, .T. ) ;
#332 = PRODUCT_CONTEXT ( 'NONE', #31, 'mechanical' ) ;
#333 = COLOUR_RGB ( '',1.000000000000000000, 0.000000000000000000, 0.000000000000000000 ) ;
#334 = DIRECTION ( 'NONE',  ( 1.000000000000000000, 0.000000000000000000, 0.000000000000000000 ) ) ;
#335 = ADVANCED_FACE ( 'NONE', ( #197 ), #218, .T. ) ;
#336 = CARTESIAN_POINT ( 'NONE',  ( 0.000000000000000000, 0.5000000000000000000, 0.000000000000000000 ) ) ;
#337 = DIRECTION ( 'NONE',  ( 1.000000000000000000, 1.224646799147352961E-16, 0.000000000000000000 ) ) ;
#338 = SHAPE_DEFINITION_REPRESENTATION ( #237, #261 ) ;
#339 = UNCERTAINTY_MEASURE_WITH_UNIT (LENGTH_MEASURE( 1.000000000000000082E-05 ), #240, 'distance_accuracy_value', 'NONE');
#340 = CARTESIAN_POINT ( 'NONE',  ( 0.000000000000000000, 0.5000000000000000000, -0.06249999999999993755 ) ) ;
#341 = AXIS2_PLACEMENT_3D ( 'NONE', #1, #317, #142 ) ;
#342 = EDGE_CURVE ( 'NONE', #90, #49, #307, .T. ) ;
#343 = DIRECTION ( 'NONE',  ( -0.000000000000000000, -1.000000000000000000, -0.000000000000000000 ) ) ;
#344 = CIRCLE ( 'NONE', #175, 0.06249999999999975020 ) ;
#345 =( NAMED_UNIT ( * ) PLANE_ANGLE_UNIT ( ) SI_UNIT ( $, .RADIAN. ) );
#346 = DIMENSIONAL_EXPONENTS ( 1.000000000000000000, 0.000000000000000000, 0.000000000000000000, 0.000000000000000000, 0.000000000000000000, 0.000000000000000000, 0.000000000000000000 ) ;
#347 = AXIS2_PLACEMENT_3D ( 'NONE', #32, #308, #141 ) ;
#348 = PRODUCT_DEFINITION_FORMATION_WITH_SPECIFIED_SOURCE ( 'ANY', '', #42, .NOT_KNOWN. ) ;
#349 = SURFACE_STYLE_USAGE ( .BOTH. , #224 ) ;
#350 = PRODUCT_RELATED_PRODUCT_CATEGORY ( 'part', '', ( #42 ) ) ;
#351 = CARTESIAN_POINT ( 'NONE',  ( 0.000000000000000000, 0.000000000000000000, -0.06249999999999995143 ) ) ;
#352 = ORIENTED_EDGE ( 'NONE', *, *, #140, .F. ) ;
#353 =( GEOMETRIC_REPRESENTATION_CONTEXT ( 3 ) GLOBAL_UNCERTAINTY_ASSIGNED_CONTEXT ( ( #253 ) ) GLOBAL_UNIT_ASSIGNED_CONTEXT ( ( #192, #219, #298 ) ) REPRESENTATION_CONTEXT ( 'NONE', 'WORKASPACE' ) );
#354 = ORIENTED_EDGE ( 'NONE', *, *, #282, .T. ) ;
#355 = ORIENTED_EDGE ( 'NONE', *, *, #243, .F. ) ;
#356 = SPHERICAL_SURFACE ( 'NONE', #306, 0.06249999999999997918 ) ;
#357 = VERTEX_POINT ( 'NONE', #7 ) ;
#358 = LENGTH_MEASURE_WITH_UNIT ( LENGTH_MEASURE( 0.02539999999999999897 ), #54 );
#359 = ORIENTED_EDGE ( 'NONE', *, *, #151, .T. ) ;
#360 =( GEOMETRIC_REPRESENTATION_CONTEXT ( 3 ) GLOBAL_UNCERTAINTY_ASSIGNED_CONTEXT ( ( #365 ) ) GLOBAL_UNIT_ASSIGNED_CONTEXT ( ( #273, #160, #297 ) ) REPRESENTATION_CONTEXT ( 'NONE', 'WORKASPACE' ) );
#361 = DIRECTION ( 'NONE',  ( 0.000000000000000000, 0.000000000000000000, -1.000000000000000000 ) ) ;
#362 = DIRECTION ( 'NONE',  ( 0.000000000000000000, 0.000000000000000000, -1.000000000000000000 ) ) ;
#363 = DIRECTION ( 'NONE',  ( -1.224646799147352961E-16, 1.000000000000000000, -0.000000000000000000 ) ) ;
#364 = DIMENSIONAL_EXPONENTS ( 1.000000000000000000, 0.000000000000000000, 0.000000000000000000, 0.000000000000000000, 0.000000000000000000, 0.000000000000000000, 0.000000000000000000 ) ;
#365 = UNCERTAINTY_MEASURE_WITH_UNIT (LENGTH_MEASURE( 1.000000000000000082E-05 ), #273, 'distance_accuracy_value', 'NONE');
#366 = STYLED_ITEM ( 'NONE', ( #56 ), #331 ) ;
#367 = CIRCLE ( 'NONE', #283, 0.06249999999999995143 ) ;
#368 = CLOSED_SHELL ( 'NONE', ( #280, #6, #331, #157, #335 ) ) ;
#369 = FILL_AREA_STYLE_COLOUR ( '', #239 ) ;
#370 = LENGTH_MEASURE_WITH_UNIT ( LENGTH_MEASURE( 0.02539999999999999897 ), #23 );
#371 = DIRECTION ( 'NONE',  ( 0.000000000000000000, 0.000000000000000000, -1.000000000000000000 ) ) ;
#372 =( GEOMETRIC_REPRESENTATION_CONTEXT ( 3 ) GLOBAL_UNCERTAINTY_ASSIGNED_CONTEXT ( ( #216 ) ) GLOBAL_UNIT_ASSIGNED_CONTEXT ( ( #196, #109, #311 ) ) REPRESENTATION_CONTEXT ( 'NONE', 'WORKASPACE' ) );
#373 = AXIS2_PLACEMENT_3D ( 'NONE', #100, #248, #17 ) ;
ENDSEC;
END-ISO-10303-21;
