ISO-10303-21;
HEADER;
FILE_DESCRIPTION (( 'STEP AP214' ),
    '1' );
FILE_NAME ('81551.STEP',
    '2023-06-23T01:40:07',
    ( '' ),
    ( '' ),
    'SwSTEP 2.0',
    'SolidWorks 2023',
    '' );
FILE_SCHEMA (( 'AUTOMOTIVE_DESIGN' ));
ENDSEC;

DATA;
#1 = FILL_AREA_STYLE ('',( #210 ) ) ;
#2 =( NAMED_UNIT ( * ) PLANE_ANGLE_UNIT ( ) SI_UNIT ( $, .RADIAN. ) );
#3 = EDGE_LOOP ( 'NONE', ( #250, #53 ) ) ;
#4 = CARTESIAN_POINT ( 'NONE',  ( 0.000000000000000000, 0.000000000000000000, -0.06250000000000001388 ) ) ;
#5 = PLANE ( 'NONE',  #18 ) ;
#6 = DIRECTION ( 'NONE',  ( 0.000000000000000000, -1.000000000000000000, -0.000000000000000000 ) ) ;
#7 = AXIS2_PLACEMENT_3D ( 'NONE', #190, #270, #119 ) ;
#8 = ORIENTED_EDGE ( 'NONE', *, *, #13, .T. ) ;
#9 = LENGTH_MEASURE_WITH_UNIT ( LENGTH_MEASURE( 0.02539999999999999897 ), #63 );
#10 = ORIENTED_EDGE ( 'NONE', *, *, #21, .F. ) ;
#11 = EDGE_LOOP ( 'NONE', ( #216, #202, #47, #30 ) ) ;
#12 = STYLED_ITEM ( 'NONE', ( #243 ), #200 ) ;
#13 = EDGE_CURVE ( 'NONE', #180, #290, #76, .T. ) ;
#14 = EDGE_LOOP ( 'NONE', ( #49, #222, #101, #204 ) ) ;
#15 = FILL_AREA_STYLE ('',( #292 ) ) ;
#16 = DIRECTION ( 'NONE',  ( -1.632862398863137527E-16, -1.000000000000000000, 0.000000000000000000 ) ) ;
#17 = DIRECTION ( 'NONE',  ( 0.000000000000000000, 0.000000000000000000, -1.000000000000000000 ) ) ;
#18 = AXIS2_PLACEMENT_3D ( 'NONE', #285, #91, #191 ) ;
#19 = CARTESIAN_POINT ( 'NONE',  ( 0.000000000000000000, 0.000000000000000000, 0.000000000000000000 ) ) ;
#20 =( NAMED_UNIT ( * ) PLANE_ANGLE_UNIT ( ) SI_UNIT ( $, .RADIAN. ) );
#21 = EDGE_CURVE ( 'NONE', #180, #66, #232, .T. ) ;
#22 = AXIS2_PLACEMENT_3D ( 'NONE', #93, #161, #43 ) ;
#23 = EDGE_LOOP ( 'NONE', ( #89, #73 ) ) ;
#24 =( GEOMETRIC_REPRESENTATION_CONTEXT ( 3 ) GLOBAL_UNCERTAINTY_ASSIGNED_CONTEXT ( ( #218 ) ) GLOBAL_UNIT_ASSIGNED_CONTEXT ( ( #60, #155, #109 ) ) REPRESENTATION_CONTEXT ( 'NONE', 'WORKASPACE' ) );
#25 = EDGE_LOOP ( 'NONE', ( #176, #269 ) ) ;
#26 = DIRECTION ( 'NONE',  ( -0.000000000000000000, -1.000000000000000000, -0.000000000000000000 ) ) ;
#27 = DIRECTION ( 'NONE',  ( -0.000000000000000000, -1.000000000000000000, -0.000000000000000000 ) ) ;
#28 = CIRCLE ( 'NONE', #134, 0.06250000000000001388 ) ;
#29 = PRESENTATION_STYLE_ASSIGNMENT (( #251 ) ) ;
#30 = ORIENTED_EDGE ( 'NONE', *, *, #153, .F. ) ;
#31 = VERTEX_POINT ( 'NONE', #124 ) ;
#32 =( GEOMETRIC_REPRESENTATION_CONTEXT ( 3 ) GLOBAL_UNCERTAINTY_ASSIGNED_CONTEXT ( ( #236 ) ) GLOBAL_UNIT_ASSIGNED_CONTEXT ( ( #260, #299, #81 ) ) REPRESENTATION_CONTEXT ( 'NONE', 'WORKASPACE' ) );
#33 = LENGTH_MEASURE_WITH_UNIT ( LENGTH_MEASURE( 0.02539999999999999897 ), #142 );
#34 = EDGE_CURVE ( 'NONE', #272, #117, #28, .T. ) ;
#35 = VERTEX_POINT ( 'NONE', #52 ) ;
#36 = SURFACE_STYLE_USAGE ( .BOTH. , #256 ) ;
#37 =( GEOMETRIC_REPRESENTATION_CONTEXT ( 3 ) GLOBAL_UNCERTAINTY_ASSIGNED_CONTEXT ( ( #257 ) ) GLOBAL_UNIT_ASSIGNED_CONTEXT ( ( #225, #149, #230 ) ) REPRESENTATION_CONTEXT ( 'NONE', 'WORKASPACE' ) );
#38 = PRESENTATION_STYLE_ASSIGNMENT (( #36 ) ) ;
#39 = CARTESIAN_POINT ( 'NONE',  ( 0.000000000000000000, 0.000000000000000000, 0.000000000000000000 ) ) ;
#40 = COLOUR_RGB ( '',1.000000000000000000, 0.000000000000000000, 0.000000000000000000 ) ;
#41 =( NAMED_UNIT ( * ) PLANE_ANGLE_UNIT ( ) SI_UNIT ( $, .RADIAN. ) );
#42 =( LENGTH_UNIT ( ) NAMED_UNIT ( * ) SI_UNIT ( $, .METRE. ) );
#43 = DIRECTION ( 'NONE',  ( -1.000000000000000000, 0.000000000000000000, 0.000000000000000000 ) ) ;
#44 = CARTESIAN_POINT ( 'NONE',  ( 7.654042494670959086E-18, 0.6250000000000000000, 0.06250000000000001388 ) ) ;
#45 = COLOUR_RGB ( '',1.000000000000000000, 0.000000000000000000, 0.000000000000000000 ) ;
#46 = FILL_AREA_STYLE ('',( #266 ) ) ;
#47 = ORIENTED_EDGE ( 'NONE', *, *, #242, .T. ) ;
#48 =( NAMED_UNIT ( * ) SI_UNIT ( $, .STERADIAN. ) SOLID_ANGLE_UNIT ( ) );
#49 = ORIENTED_EDGE ( 'NONE', *, *, #300, .F. ) ;
#50 = DIRECTION ( 'NONE',  ( 1.632862398863137527E-16, 1.000000000000000000, -0.000000000000000000 ) ) ;
#51 = CYLINDRICAL_SURFACE ( 'NONE', #217, 0.06249999999999986122 ) ;
#52 = CARTESIAN_POINT ( 'NONE',  ( 7.654042494670959086E-18, 0.000000000000000000, 0.06250000000000001388 ) ) ;
#53 = ORIENTED_EDGE ( 'NONE', *, *, #34, .F. ) ;
#54 = ADVANCED_FACE ( 'NONE', ( #102 ), #51, .T. ) ;
#55 = FILL_AREA_STYLE ('',( #259 ) ) ;
#56 = APPLICATION_CONTEXT ( 'automotive_design' ) ;
#57 = FILL_AREA_STYLE ('',( #80 ) ) ;
#58 = MECHANICAL_DESIGN_GEOMETRIC_PRESENTATION_REPRESENTATION (  '', ( #262 ), #229 ) ;
#59 = AXIS2_PLACEMENT_3D ( 'NONE', #39, #126, #281 ) ;
#60 =( CONVERSION_BASED_UNIT ( 'INCH', #212 ) LENGTH_UNIT ( ) NAMED_UNIT ( #131 ) );
#61 = DIRECTION ( 'NONE',  ( 0.000000000000000000, 0.000000000000000000, -1.000000000000000000 ) ) ;
#62 = ADVANCED_FACE ( 'NONE', ( #231 ), #235, .F. ) ;
#63 =( LENGTH_UNIT ( ) NAMED_UNIT ( * ) SI_UNIT ( $, .METRE. ) );
#64 = EDGE_CURVE ( 'NONE', #117, #272, #86, .T. ) ;
#65 = FACE_OUTER_BOUND ( 'NONE', #11, .T. ) ;
#66 = VERTEX_POINT ( 'NONE', #228 ) ;
#67 = AXIS2_PLACEMENT_3D ( 'NONE', #265, #160, #88 ) ;
#68 = CARTESIAN_POINT ( 'NONE',  ( 0.000000000000000000, 0.000000000000000000, 0.000000000000000000 ) ) ;
#69 = DIMENSIONAL_EXPONENTS ( 1.000000000000000000, 0.000000000000000000, 0.000000000000000000, 0.000000000000000000, 0.000000000000000000, 0.000000000000000000, 0.000000000000000000 ) ;
#70 = COLOUR_RGB ( '',0.7921568627450980005, 0.8196078431372548767, 0.9333333333333333481 ) ;
#71 = CARTESIAN_POINT ( 'NONE',  ( 0.000000000000000000, 0.6250000000000000000, 0.000000000000000000 ) ) ;
#72 = LENGTH_MEASURE_WITH_UNIT ( LENGTH_MEASURE( 0.02539999999999999897 ), #144 );
#73 = ORIENTED_EDGE ( 'NONE', *, *, #263, .F. ) ;
#74 = FACE_OUTER_BOUND ( 'NONE', #14, .T. ) ;
#75 = DIRECTION ( 'NONE',  ( -1.000000000000000000, 0.000000000000000000, 0.000000000000000000 ) ) ;
#76 = CIRCLE ( 'NONE', #118, 0.06250000000000001388 ) ;
#77 = PRESENTATION_LAYER_ASSIGNMENT (  '', '', ( #223 ) ) ;
#78 = EDGE_LOOP ( 'NONE', ( #189, #132, #123, #94 ) ) ;
#79 = APPLICATION_PROTOCOL_DEFINITION ( 'draft international standard', 'automotive_design', 1998, #56 ) ;
#80 = FILL_AREA_STYLE_COLOUR ( '', #70 ) ;
#81 =( NAMED_UNIT ( * ) SI_UNIT ( $, .STERADIAN. ) SOLID_ANGLE_UNIT ( ) );
#82 = SURFACE_STYLE_FILL_AREA ( #57 ) ;
#83 = PRESENTATION_STYLE_ASSIGNMENT (( #84 ) ) ;
#84 = SURFACE_STYLE_USAGE ( .BOTH. , #156 ) ;
#85 = UNCERTAINTY_MEASURE_WITH_UNIT (LENGTH_MEASURE( 1.000000000000000082E-05 ), #174, 'distance_accuracy_value', 'NONE');
#86 = CIRCLE ( 'NONE', #127, 0.06250000000000001388 ) ;
#87 = MECHANICAL_DESIGN_GEOMETRIC_PRESENTATION_REPRESENTATION (  '', ( #107 ), #238 ) ;
#88 = DIRECTION ( 'NONE',  ( 0.000000000000000000, -0.000000000000000000, 1.000000000000000000 ) ) ;
#89 = ORIENTED_EDGE ( 'NONE', *, *, #13, .F. ) ;
#90 = SURFACE_SIDE_STYLE ('',( #247 ) ) ;
#91 = DIRECTION ( 'NONE',  ( 1.632862398863137527E-16, 1.000000000000000000, -0.000000000000000000 ) ) ;
#92 = AXIS2_PLACEMENT_3D ( 'NONE', #253, #146, #280 ) ;
#93 = CARTESIAN_POINT ( 'NONE',  ( 3.061616997868383141E-16, 2.500000000000000000, 0.000000000000000000 ) ) ;
#94 = ORIENTED_EDGE ( 'NONE', *, *, #242, .F. ) ;
#95 = ADVANCED_FACE ( 'NONE', ( #74 ), #175, .T. ) ;
#96 = CARTESIAN_POINT ( 'NONE',  ( 0.06250000000000002776, 0.6250000000000000000, 7.654042494670951382E-18 ) ) ;
#97 = DIRECTION ( 'NONE',  ( 1.632862398863137527E-16, 1.000000000000000000, -0.000000000000000000 ) ) ;
#98 = PRODUCT_DEFINITION ( 'UNKNOWN', '', #172, #244 ) ;
#99 = DIRECTION ( 'NONE',  ( -1.000000000000000000, 0.000000000000000000, 0.000000000000000000 ) ) ;
#100 = VECTOR ( 'NONE', #50, 39.37007874015748143 ) ;
#101 = ORIENTED_EDGE ( 'NONE', *, *, #21, .T. ) ;
#102 = FACE_OUTER_BOUND ( 'NONE', #139, .T. ) ;
#103 = SURFACE_SIDE_STYLE ('',( #171 ) ) ;
#104 = CARTESIAN_POINT ( 'NONE',  ( 0.000000000000000000, 0.6250000000000000000, 0.000000000000000000 ) ) ;
#105 = DIRECTION ( 'NONE',  ( -0.000000000000000000, -1.000000000000000000, -0.000000000000000000 ) ) ;
#106 = AXIS2_PLACEMENT_3D ( 'NONE', #115, #6, #221 ) ;
#107 = STYLED_ITEM ( 'NONE', ( #29 ), #301 ) ;
#108 = DIRECTION ( 'NONE',  ( 0.000000000000000000, 0.000000000000000000, -1.000000000000000000 ) ) ;
#109 =( NAMED_UNIT ( * ) SI_UNIT ( $, .STERADIAN. ) SOLID_ANGLE_UNIT ( ) );
#110 = CLOSED_SHELL ( 'NONE', ( #145, #226, #278, #213 ) ) ;
#111 = AXIS2_PLACEMENT_3D ( 'NONE', #129, #182, #61 ) ;
#112 =( LENGTH_UNIT ( ) NAMED_UNIT ( * ) SI_UNIT ( $, .METRE. ) );
#113 = DIMENSIONAL_EXPONENTS ( 1.000000000000000000, 0.000000000000000000, 0.000000000000000000, 0.000000000000000000, 0.000000000000000000, 0.000000000000000000, 0.000000000000000000 ) ;
#114 = CIRCLE ( 'NONE', #111, 0.06250000000000001388 ) ;
#115 = CARTESIAN_POINT ( 'NONE',  ( 0.000000000000000000, 0.000000000000000000, 0.000000000000000000 ) ) ;
#116 = FILL_AREA_STYLE ('',( #268 ) ) ;
#117 = VERTEX_POINT ( 'NONE', #150 ) ;
#118 = AXIS2_PLACEMENT_3D ( 'NONE', #71, #97, #75 ) ;
#119 = DIRECTION ( 'NONE',  ( -1.000000000000000000, 0.000000000000000000, 0.000000000000000000 ) ) ;
#120 = DIRECTION ( 'NONE',  ( 0.000000000000000000, 0.000000000000000000, -1.000000000000000000 ) ) ;
#121 = ORIENTED_EDGE ( 'NONE', *, *, #286, .T. ) ;
#122 = DIRECTION ( 'NONE',  ( -0.000000000000000000, -1.000000000000000000, -0.000000000000000000 ) ) ;
#123 = ORIENTED_EDGE ( 'NONE', *, *, #140, .F. ) ;
#124 = CARTESIAN_POINT ( 'NONE',  ( 0.000000000000000000, 0.000000000000000000, -0.06250000000000001388 ) ) ;
#125 = DIRECTION ( 'NONE',  ( 1.632862398863137527E-16, 1.000000000000000000, -0.000000000000000000 ) ) ;
#126 = DIRECTION ( 'NONE',  ( 0.000000000000000000, 0.000000000000000000, 1.000000000000000000 ) ) ;
#127 = AXIS2_PLACEMENT_3D ( 'NONE', #104, #122, #17 ) ;
#128 = SHAPE_DEFINITION_REPRESENTATION ( #162, #136 ) ;
#129 = CARTESIAN_POINT ( 'NONE',  ( 0.000000000000000000, 0.000000000000000000, 0.000000000000000000 ) ) ;
#130 = PRESENTATION_LAYER_ASSIGNMENT (  '', '', ( #262 ) ) ;
#131 = DIMENSIONAL_EXPONENTS ( 1.000000000000000000, 0.000000000000000000, 0.000000000000000000, 0.000000000000000000, 0.000000000000000000, 0.000000000000000000, 0.000000000000000000 ) ;
#132 = ORIENTED_EDGE ( 'NONE', *, *, #220, .T. ) ;
#133 = CYLINDRICAL_SURFACE ( 'NONE', #258, 0.06250000000000001388 ) ;
#134 = AXIS2_PLACEMENT_3D ( 'NONE', #293, #173, #276 ) ;
#135 = LINE ( 'NONE', #194, #192 ) ;
#136 = ADVANCED_BREP_SHAPE_REPRESENTATION ( '81551', ( #301, #200, #59 ), #208 ) ;
#137 = PRESENTATION_STYLE_ASSIGNMENT (( #288 ) ) ;
#138 =( NAMED_UNIT ( * ) SI_UNIT ( $, .STERADIAN. ) SOLID_ANGLE_UNIT ( ) );
#139 = EDGE_LOOP ( 'NONE', ( #8, #148, #227, #10 ) ) ;
#140 = EDGE_CURVE ( 'NONE', #31, #35, #287, .T. ) ;
#141 = SURFACE_STYLE_FILL_AREA ( #46 ) ;
#142 =( LENGTH_UNIT ( ) NAMED_UNIT ( * ) SI_UNIT ( $, .METRE. ) );
#143 = CARTESIAN_POINT ( 'NONE',  ( 3.061616997868383141E-16, 2.500000000000000000, 0.000000000000000000 ) ) ;
#144 =( LENGTH_UNIT ( ) NAMED_UNIT ( * ) SI_UNIT ( $, .METRE. ) );
#145 = ADVANCED_FACE ( 'NONE', ( #297 ), #239, .T. ) ;
#146 = DIRECTION ( 'NONE',  ( 1.632862398863137527E-16, 1.000000000000000000, -0.000000000000000000 ) ) ;
#147 = CIRCLE ( 'NONE', #22, 0.06249999999999970857 ) ;
#148 = ORIENTED_EDGE ( 'NONE', *, *, #300, .T. ) ;
#149 =( NAMED_UNIT ( * ) PLANE_ANGLE_UNIT ( ) SI_UNIT ( $, .RADIAN. ) );
#150 = CARTESIAN_POINT ( 'NONE',  ( 0.000000000000000000, 0.6250000000000000000, -0.06250000000000001388 ) ) ;
#151 = UNCERTAINTY_MEASURE_WITH_UNIT (LENGTH_MEASURE( 1.000000000000000082E-05 ), #163, 'distance_accuracy_value', 'NONE');
#152 = SURFACE_STYLE_FILL_AREA ( #55 ) ;
#153 = EDGE_CURVE ( 'NONE', #35, #31, #114, .T. ) ;
#154 = PRESENTATION_LAYER_ASSIGNMENT (  '', '', ( #187 ) ) ;
#155 =( NAMED_UNIT ( * ) PLANE_ANGLE_UNIT ( ) SI_UNIT ( $, .RADIAN. ) );
#156 = SURFACE_SIDE_STYLE ('',( #184 ) ) ;
#157 = SURFACE_SIDE_STYLE ('',( #82 ) ) ;
#158 = VECTOR ( 'NONE', #198, 39.37007874015748143 ) ;
#159 = MECHANICAL_DESIGN_GEOMETRIC_PRESENTATION_REPRESENTATION (  '', ( #187 ), #279 ) ;
#160 = DIRECTION ( 'NONE',  ( 0.000000000000000000, 1.000000000000000000, 0.000000000000000000 ) ) ;
#161 = DIRECTION ( 'NONE',  ( 1.632862398863137527E-16, 1.000000000000000000, -0.000000000000000000 ) ) ;
#162 = PRODUCT_DEFINITION_SHAPE ( 'NONE', 'NONE',  #98 ) ;
#163 =( CONVERSION_BASED_UNIT ( 'INCH', #214 ) LENGTH_UNIT ( ) NAMED_UNIT ( #113 ) );
#164 = UNCERTAINTY_MEASURE_WITH_UNIT (LENGTH_MEASURE( 1.000000000000000082E-05 ), #307, 'distance_accuracy_value', 'NONE');
#165 = DIMENSIONAL_EXPONENTS ( 1.000000000000000000, 0.000000000000000000, 0.000000000000000000, 0.000000000000000000, 0.000000000000000000, 0.000000000000000000, 0.000000000000000000 ) ;
#166 = MECHANICAL_DESIGN_GEOMETRIC_PRESENTATION_REPRESENTATION (  '', ( #246 ), #32 ) ;
#167 = AXIS2_PLACEMENT_3D ( 'NONE', #277, #274, #99 ) ;
#168 =( CONVERSION_BASED_UNIT ( 'INCH', #9 ) LENGTH_UNIT ( ) NAMED_UNIT ( #69 ) );
#169 = DIRECTION ( 'NONE',  ( -0.000000000000000000, -1.000000000000000000, -0.000000000000000000 ) ) ;
#170 = MECHANICAL_DESIGN_GEOMETRIC_PRESENTATION_REPRESENTATION (  '', ( #223 ), #37 ) ;
#171 = SURFACE_STYLE_FILL_AREA ( #15 ) ;
#172 = PRODUCT_DEFINITION_FORMATION_WITH_SPECIFIED_SOURCE ( 'ANY', '', #304, .NOT_KNOWN. ) ;
#173 = DIRECTION ( 'NONE',  ( -0.000000000000000000, -1.000000000000000000, -0.000000000000000000 ) ) ;
#174 =( CONVERSION_BASED_UNIT ( 'INCH', #72 ) LENGTH_UNIT ( ) NAMED_UNIT ( #195 ) );
#175 = CYLINDRICAL_SURFACE ( 'NONE', #92, 0.06249999999999986122 ) ;
#176 = ORIENTED_EDGE ( 'NONE', *, *, #140, .T. ) ;
#177 = VECTOR ( 'NONE', #27, 39.37007874015748143 ) ;
#178 = EDGE_LOOP ( 'NONE', ( #248, #121 ) ) ;
#179 = CLOSED_SHELL ( 'NONE', ( #54, #273, #95, #62 ) ) ;
#180 = VERTEX_POINT ( 'NONE', #282 ) ;
#181 =( LENGTH_UNIT ( ) NAMED_UNIT ( * ) SI_UNIT ( $, .METRE. ) );
#182 = DIRECTION ( 'NONE',  ( -0.000000000000000000, -1.000000000000000000, -0.000000000000000000 ) ) ;
#183 = CIRCLE ( 'NONE', #167, 0.06249999999999970857 ) ;
#184 = SURFACE_STYLE_FILL_AREA ( #1 ) ;
#185 = APPLICATION_PROTOCOL_DEFINITION ( 'draft international standard', 'automotive_design', 1998, #233 ) ;
#186 =( LENGTH_UNIT ( ) NAMED_UNIT ( * ) SI_UNIT ( $, .METRE. ) );
#187 = STYLED_ITEM ( 'NONE', ( #83 ), #213 ) ;
#188 = FACE_OUTER_BOUND ( 'NONE', #23, .T. ) ;
#189 = ORIENTED_EDGE ( 'NONE', *, *, #64, .T. ) ;
#190 = CARTESIAN_POINT ( 'NONE',  ( 0.000000000000000000, 0.6250000000000000000, 0.000000000000000000 ) ) ;
#191 = DIRECTION ( 'NONE',  ( -1.000000000000000000, 1.632862398863137527E-16, 0.000000000000000000 ) ) ;
#192 = VECTOR ( 'NONE', #26, 39.37007874015748143 ) ;
#193 = PRESENTATION_LAYER_ASSIGNMENT (  '', '', ( #107 ) ) ;
#194 = CARTESIAN_POINT ( 'NONE',  ( 7.654042494670959086E-18, 0.000000000000000000, 0.06250000000000001388 ) ) ;
#195 = DIMENSIONAL_EXPONENTS ( 1.000000000000000000, 0.000000000000000000, 0.000000000000000000, 0.000000000000000000, 0.000000000000000000, 0.000000000000000000, 0.000000000000000000 ) ;
#196 = PRESENTATION_STYLE_ASSIGNMENT (( #275 ) ) ;
#197 = LINE ( 'NONE', #289, #100 ) ;
#198 = DIRECTION ( 'NONE',  ( 1.632862398863137527E-16, 1.000000000000000000, -0.000000000000000000 ) ) ;
#199 = COLOUR_RGB ( '',1.000000000000000000, 0.000000000000000000, 0.000000000000000000 ) ;
#200 = MANIFOLD_SOLID_BREP ( 'Revolve - Tool Body (Straight Shanked)', #179 ) ;
#201 = CARTESIAN_POINT ( 'NONE',  ( 0.06250000000000002776, 2.500000000000000000, 7.654042494670951382E-18 ) ) ;
#202 = ORIENTED_EDGE ( 'NONE', *, *, #34, .T. ) ;
#203 = DIRECTION ( 'NONE',  ( -1.000000000000000000, 0.000000000000000000, 0.000000000000000000 ) ) ;
#204 = ORIENTED_EDGE ( 'NONE', *, *, #286, .F. ) ;
#205 = UNCERTAINTY_MEASURE_WITH_UNIT (LENGTH_MEASURE( 1.000000000000000082E-05 ), #168, 'distance_accuracy_value', 'NONE');
#206 =( NAMED_UNIT ( * ) SI_UNIT ( $, .STERADIAN. ) SOLID_ANGLE_UNIT ( ) );
#207 = AXIS2_PLACEMENT_3D ( 'NONE', #255, #105, #209 ) ;
#208 =( GEOMETRIC_REPRESENTATION_CONTEXT ( 3 ) GLOBAL_UNCERTAINTY_ASSIGNED_CONTEXT ( ( #164 ) ) GLOBAL_UNIT_ASSIGNED_CONTEXT ( ( #307, #41, #206 ) ) REPRESENTATION_CONTEXT ( 'NONE', 'WORKASPACE' ) );
#209 = DIRECTION ( 'NONE',  ( 0.000000000000000000, 0.000000000000000000, -1.000000000000000000 ) ) ;
#210 = FILL_AREA_STYLE_COLOUR ( '', #45 ) ;
#211 =( NAMED_UNIT ( * ) SI_UNIT ( $, .STERADIAN. ) SOLID_ANGLE_UNIT ( ) );
#212 = LENGTH_MEASURE_WITH_UNIT ( LENGTH_MEASURE( 0.02539999999999999897 ), #112 );
#213 = ADVANCED_FACE ( 'NONE', ( #309 ), #241, .T. ) ;
#214 = LENGTH_MEASURE_WITH_UNIT ( LENGTH_MEASURE( 0.02539999999999999897 ), #186 );
#215 = AXIS2_PLACEMENT_3D ( 'NONE', #19, #306, #108 ) ;
#216 = ORIENTED_EDGE ( 'NONE', *, *, #220, .F. ) ;
#217 = AXIS2_PLACEMENT_3D ( 'NONE', #143, #125, #203 ) ;
#218 = UNCERTAINTY_MEASURE_WITH_UNIT (LENGTH_MEASURE( 1.000000000000000082E-05 ), #60, 'distance_accuracy_value', 'NONE');
#219 = LINE ( 'NONE', #4, #177 ) ;
#220 = EDGE_CURVE ( 'NONE', #272, #35, #135, .T. ) ;
#221 = DIRECTION ( 'NONE',  ( 0.000000000000000000, 0.000000000000000000, -1.000000000000000000 ) ) ;
#222 = ORIENTED_EDGE ( 'NONE', *, *, #263, .T. ) ;
#223 = STYLED_ITEM ( 'NONE', ( #196 ), #278 ) ;
#224 = FACE_OUTER_BOUND ( 'NONE', #3, .T. ) ;
#225 =( CONVERSION_BASED_UNIT ( 'INCH', #33 ) LENGTH_UNIT ( ) NAMED_UNIT ( #284 ) );
#226 = ADVANCED_FACE ( 'NONE', ( #224 ), #264, .T. ) ;
#227 = ORIENTED_EDGE ( 'NONE', *, *, #234, .F. ) ;
#228 = CARTESIAN_POINT ( 'NONE',  ( -0.06249999999999940326, 2.500000000000000000, 0.000000000000000000 ) ) ;
#229 =( GEOMETRIC_REPRESENTATION_CONTEXT ( 3 ) GLOBAL_UNCERTAINTY_ASSIGNED_CONTEXT ( ( #205 ) ) GLOBAL_UNIT_ASSIGNED_CONTEXT ( ( #168, #245, #138 ) ) REPRESENTATION_CONTEXT ( 'NONE', 'WORKASPACE' ) );
#230 =( NAMED_UNIT ( * ) SI_UNIT ( $, .STERADIAN. ) SOLID_ANGLE_UNIT ( ) );
#231 = FACE_OUTER_BOUND ( 'NONE', #178, .T. ) ;
#232 = LINE ( 'NONE', #294, #158 ) ;
#233 = APPLICATION_CONTEXT ( 'automotive_design' ) ;
#234 = EDGE_CURVE ( 'NONE', #66, #295, #147, .T. ) ;
#235 = PLANE ( 'NONE',  #237 ) ;
#236 = UNCERTAINTY_MEASURE_WITH_UNIT (LENGTH_MEASURE( 1.000000000000000082E-05 ), #260, 'distance_accuracy_value', 'NONE');
#237 = AXIS2_PLACEMENT_3D ( 'NONE', #252, #16, #254 ) ;
#238 =( GEOMETRIC_REPRESENTATION_CONTEXT ( 3 ) GLOBAL_UNCERTAINTY_ASSIGNED_CONTEXT ( ( #85 ) ) GLOBAL_UNIT_ASSIGNED_CONTEXT ( ( #174, #20, #211 ) ) REPRESENTATION_CONTEXT ( 'NONE', 'WORKASPACE' ) );
#239 = CYLINDRICAL_SURFACE ( 'NONE', #215, 0.06250000000000001388 ) ;
#240 = PRODUCT_CONTEXT ( 'NONE', #56, 'mechanical' ) ;
#241 = PLANE ( 'NONE',  #106 ) ;
#242 = EDGE_CURVE ( 'NONE', #117, #31, #219, .T. ) ;
#243 = PRESENTATION_STYLE_ASSIGNMENT (( #261 ) ) ;
#244 = PRODUCT_DEFINITION_CONTEXT ( 'detailed design', #233, 'design' ) ;
#245 =( NAMED_UNIT ( * ) PLANE_ANGLE_UNIT ( ) SI_UNIT ( $, .RADIAN. ) );
#246 = STYLED_ITEM ( 'NONE', ( #38 ), #145 ) ;
#247 = SURFACE_STYLE_FILL_AREA ( #116 ) ;
#248 = ORIENTED_EDGE ( 'NONE', *, *, #234, .T. ) ;
#249 = SURFACE_SIDE_STYLE ('',( #141 ) ) ;
#250 = ORIENTED_EDGE ( 'NONE', *, *, #64, .F. ) ;
#251 = SURFACE_STYLE_USAGE ( .BOTH. , #103 ) ;
#252 = CARTESIAN_POINT ( 'NONE',  ( 0.06250000000000001388, 2.500000000000000000, 0.000000000000000000 ) ) ;
#253 = CARTESIAN_POINT ( 'NONE',  ( 3.061616997868383141E-16, 2.500000000000000000, 0.000000000000000000 ) ) ;
#254 = DIRECTION ( 'NONE',  ( 1.000000000000000000, -1.632862398863137527E-16, 0.000000000000000000 ) ) ;
#255 = CARTESIAN_POINT ( 'NONE',  ( 0.000000000000000000, 0.000000000000000000, 0.000000000000000000 ) ) ;
#256 = SURFACE_SIDE_STYLE ('',( #152 ) ) ;
#257 = UNCERTAINTY_MEASURE_WITH_UNIT (LENGTH_MEASURE( 1.000000000000000082E-05 ), #225, 'distance_accuracy_value', 'NONE');
#258 = AXIS2_PLACEMENT_3D ( 'NONE', #68, #169, #120 ) ;
#259 = FILL_AREA_STYLE_COLOUR ( '', #291 ) ;
#260 =( CONVERSION_BASED_UNIT ( 'INCH', #302 ) LENGTH_UNIT ( ) NAMED_UNIT ( #271 ) );
#261 = SURFACE_STYLE_USAGE ( .BOTH. , #157 ) ;
#262 = STYLED_ITEM ( 'NONE', ( #137 ), #226 ) ;
#263 = EDGE_CURVE ( 'NONE', #290, #180, #283, .T. ) ;
#264 = PLANE ( 'NONE',  #67 ) ;
#265 = CARTESIAN_POINT ( 'NONE',  ( 0.000000000000000000, 0.6250000000000000000, 0.000000000000000000 ) ) ;
#266 = FILL_AREA_STYLE_COLOUR ( '', #40 ) ;
#267 = PRESENTATION_LAYER_ASSIGNMENT (  '', '', ( #246 ) ) ;
#268 = FILL_AREA_STYLE_COLOUR ( '', #199 ) ;
#269 = ORIENTED_EDGE ( 'NONE', *, *, #153, .T. ) ;
#270 = DIRECTION ( 'NONE',  ( 1.632862398863137527E-16, 1.000000000000000000, -0.000000000000000000 ) ) ;
#271 = DIMENSIONAL_EXPONENTS ( 1.000000000000000000, 0.000000000000000000, 0.000000000000000000, 0.000000000000000000, 0.000000000000000000, 0.000000000000000000, 0.000000000000000000 ) ;
#272 = VERTEX_POINT ( 'NONE', #44 ) ;
#273 = ADVANCED_FACE ( 'NONE', ( #188 ), #5, .F. ) ;
#274 = DIRECTION ( 'NONE',  ( 1.632862398863137527E-16, 1.000000000000000000, -0.000000000000000000 ) ) ;
#275 = SURFACE_STYLE_USAGE ( .BOTH. , #249 ) ;
#276 = DIRECTION ( 'NONE',  ( 0.000000000000000000, 0.000000000000000000, -1.000000000000000000 ) ) ;
#277 = CARTESIAN_POINT ( 'NONE',  ( 3.061616997868383141E-16, 2.500000000000000000, 0.000000000000000000 ) ) ;
#278 = ADVANCED_FACE ( 'NONE', ( #65 ), #133, .T. ) ;
#279 =( GEOMETRIC_REPRESENTATION_CONTEXT ( 3 ) GLOBAL_UNCERTAINTY_ASSIGNED_CONTEXT ( ( #151 ) ) GLOBAL_UNIT_ASSIGNED_CONTEXT ( ( #163, #2, #48 ) ) REPRESENTATION_CONTEXT ( 'NONE', 'WORKASPACE' ) );
#280 = DIRECTION ( 'NONE',  ( -1.000000000000000000, 0.000000000000000000, 0.000000000000000000 ) ) ;
#281 = DIRECTION ( 'NONE',  ( 1.000000000000000000, 0.000000000000000000, 0.000000000000000000 ) ) ;
#282 = CARTESIAN_POINT ( 'NONE',  ( -0.06250000000000001388, 0.6250000000000000000, 0.000000000000000000 ) ) ;
#283 = CIRCLE ( 'NONE', #7, 0.06250000000000001388 ) ;
#284 = DIMENSIONAL_EXPONENTS ( 1.000000000000000000, 0.000000000000000000, 0.000000000000000000, 0.000000000000000000, 0.000000000000000000, 0.000000000000000000, 0.000000000000000000 ) ;
#285 = CARTESIAN_POINT ( 'NONE',  ( 8.331998792565876739E-34, 0.6250000000000000000, 0.000000000000000000 ) ) ;
#286 = EDGE_CURVE ( 'NONE', #295, #66, #183, .T. ) ;
#287 = CIRCLE ( 'NONE', #207, 0.06250000000000001388 ) ;
#288 = SURFACE_STYLE_USAGE ( .BOTH. , #90 ) ;
#289 = CARTESIAN_POINT ( 'NONE',  ( 0.06250000000000016653, 2.500000000000000000, 7.654042494670940597E-18 ) ) ;
#290 = VERTEX_POINT ( 'NONE', #96 ) ;
#291 = COLOUR_RGB ( '',1.000000000000000000, 0.000000000000000000, 0.000000000000000000 ) ;
#292 = FILL_AREA_STYLE_COLOUR ( '', #305 ) ;
#293 = CARTESIAN_POINT ( 'NONE',  ( 0.000000000000000000, 0.6250000000000000000, 0.000000000000000000 ) ) ;
#294 = CARTESIAN_POINT ( 'NONE',  ( -0.06249999999999955591, 2.500000000000000000, 0.000000000000000000 ) ) ;
#295 = VERTEX_POINT ( 'NONE', #201 ) ;
#296 = PRESENTATION_LAYER_ASSIGNMENT (  '', '', ( #12 ) ) ;
#297 = FACE_OUTER_BOUND ( 'NONE', #78, .T. ) ;
#298 = LENGTH_MEASURE_WITH_UNIT ( LENGTH_MEASURE( 0.02539999999999999897 ), #181 );
#299 =( NAMED_UNIT ( * ) PLANE_ANGLE_UNIT ( ) SI_UNIT ( $, .RADIAN. ) );
#300 = EDGE_CURVE ( 'NONE', #290, #295, #197, .T. ) ;
#301 = MANIFOLD_SOLID_BREP ( 'Revolve - Cutting Edge', #110 ) ;
#302 = LENGTH_MEASURE_WITH_UNIT ( LENGTH_MEASURE( 0.02539999999999999897 ), #42 );
#303 = MECHANICAL_DESIGN_GEOMETRIC_PRESENTATION_REPRESENTATION (  '', ( #12 ), #24 ) ;
#304 = PRODUCT ( '81551', '81551', '', ( #240 ) ) ;
#305 = COLOUR_RGB ( '',0.7921568627450980005, 0.8196078431372548767, 0.9333333333333333481 ) ;
#306 = DIRECTION ( 'NONE',  ( -0.000000000000000000, -1.000000000000000000, -0.000000000000000000 ) ) ;
#307 =( CONVERSION_BASED_UNIT ( 'INCH', #298 ) LENGTH_UNIT ( ) NAMED_UNIT ( #165 ) );
#308 = PRODUCT_RELATED_PRODUCT_CATEGORY ( 'part', '', ( #304 ) ) ;
#309 = FACE_OUTER_BOUND ( 'NONE', #25, .T. ) ;
ENDSEC;
END-ISO-10303-21;
