ISO-10303-21;
HEADER;
FILE_DESCRIPTION (( 'STEP AP214' ),
    '1' );
FILE_NAME ('Micro_SME-028-2X.STEP',
    '2021-09-02T11:28:32',
    ( '' ),
    ( '' ),
    'SwSTEP 2.0',
    'SolidWorks 2020',
    '' );
FILE_SCHEMA (( 'AUTOMOTIVE_DESIGN' ));
ENDSEC;

DATA;
#1 = SURFACE_STYLE_FILL_AREA ( #3 ) ;
#2 = FACE_OUTER_BOUND ( 'NONE', #224, .T. ) ;
#3 = FILL_AREA_STYLE ('',( #234 ) ) ;
#4 = FACE_OUTER_BOUND ( 'NONE', #199, .T. ) ;
#5 = PRODUCT_DEFINITION ( 'UNKNOWN', '', #48, #95 ) ;
#6 = PRESENTATION_LAYER_ASSIGNMENT (  '', '', ( #125 ) ) ;
#7 = CARTESIAN_POINT ( 'NONE',  ( 0.0000000000000000000, 0.0000000000000000000, 1.500000000000000222 ) ) ;
#8 = EDGE_CURVE ( 'NONE', #60, #287, #183, .T. ) ;
#9 = CARTESIAN_POINT ( 'NONE',  ( 0.0000000000000000000, 0.0000000000000000000, 0.0000000000000000000 ) ) ;
#10 = ORIENTED_EDGE ( 'NONE', *, *, #70, .F. ) ;
#11 = SURFACE_SIDE_STYLE ('',( #30 ) ) ;
#12 = VERTEX_POINT ( 'NONE', #213 ) ;
#13 = ADVANCED_FACE ( 'NONE', ( #2 ), #293, .T. ) ;
#14 = CARTESIAN_POINT ( 'NONE',  ( -0.01398599999999999670, 0.0000000000000000000, 3.425582026574977098E-18 ) ) ;
#15 = EDGE_LOOP ( 'NONE', ( #173, #107, #285, #34 ) ) ;
#16 = DIRECTION ( 'NONE',  ( -1.000000000000000000, 0.0000000000000000000, 0.0000000000000000000 ) ) ;
#17 = ORIENTED_EDGE ( 'NONE', *, *, #208, .F. ) ;
#18 = CARTESIAN_POINT ( 'NONE',  ( 0.0000000000000000000, 0.0000000000000000000, 0.0000000000000000000 ) ) ;
#19 = ORIENTED_EDGE ( 'NONE', *, *, #140, .T. ) ;
#20 = CIRCLE ( 'NONE', #31, 0.01398599999999999670 ) ;
#21 = DIRECTION ( 'NONE',  ( 0.0000000000000000000, 0.0000000000000000000, 1.000000000000000000 ) ) ;
#22 = MECHANICAL_DESIGN_GEOMETRIC_PRESENTATION_REPRESENTATION (  '', ( #125 ), #53 ) ;
#23 = FACE_OUTER_BOUND ( 'NONE', #272, .T. ) ;
#24 =( LENGTH_UNIT ( ) NAMED_UNIT ( * ) SI_UNIT ( $, .METRE. ) );
#25 = EDGE_CURVE ( 'NONE', #152, #229, #193, .T. ) ;
#26 = VECTOR ( 'NONE', #221, 39.37007874015748143 ) ;
#27 = PRESENTATION_STYLE_ASSIGNMENT (( #96 ) ) ;
#28 = PRODUCT_RELATED_PRODUCT_CATEGORY ( 'part', '', ( #291 ) ) ;
#29 = DIRECTION ( 'NONE',  ( -1.000000000000000000, 0.0000000000000000000, 0.0000000000000000000 ) ) ;
#30 = SURFACE_STYLE_FILL_AREA ( #264 ) ;
#31 = AXIS2_PLACEMENT_3D ( 'NONE', #54, #218, #124 ) ;
#32 = COLOUR_RGB ( '',0.7921568627450980005, 0.8196078431372548767, 0.9333333333333333481 ) ;
#33 = CARTESIAN_POINT ( 'NONE',  ( 0.0000000000000000000, 0.0000000000000000000, 1.500000000000000222 ) ) ;
#34 = ORIENTED_EDGE ( 'NONE', *, *, #299, .T. ) ;
#35 = CARTESIAN_POINT ( 'NONE',  ( -0.06249999999999997918, 0.0000000000000000000, 0.3171365661969321459 ) ) ;
#36 = PRESENTATION_LAYER_ASSIGNMENT (  '', '', ( #57 ) ) ;
#37 = ORIENTED_EDGE ( 'NONE', *, *, #52, .T. ) ;
#38 = CYLINDRICAL_SURFACE ( 'NONE', #118, 0.06250000000000002776 ) ;
#39 = CARTESIAN_POINT ( 'NONE',  ( 0.0000000000000000000, 0.0000000000000000000, 1.500000000000000222 ) ) ;
#40 = DIRECTION ( 'NONE',  ( 1.000000000000000000, 0.0000000000000000000, -0.0000000000000000000 ) ) ;
#41 = VERTEX_POINT ( 'NONE', #56 ) ;
#42 = DIRECTION ( 'NONE',  ( -1.000000000000000000, 0.0000000000000000000, 1.224646799147353700E-16 ) ) ;
#43 = ORIENTED_EDGE ( 'NONE', *, *, #49, .T. ) ;
#44 = DIRECTION ( 'NONE',  ( 1.000000000000000000, 0.0000000000000000000, -0.0000000000000000000 ) ) ;
#45 = FACE_OUTER_BOUND ( 'NONE', #263, .T. ) ;
#46 =( NAMED_UNIT ( * ) PLANE_ANGLE_UNIT ( ) SI_UNIT ( $, .RADIAN. ) );
#47 = VECTOR ( 'NONE', #84, 39.37007874015748143 ) ;
#48 = PRODUCT_DEFINITION_FORMATION_WITH_SPECIFIED_SOURCE ( 'ANY', '', #291, .NOT_KNOWN. ) ;
#49 = EDGE_CURVE ( 'NONE', #129, #83, #82, .T. ) ;
#50 = DIRECTION ( 'NONE',  ( 1.000000000000000000, 0.0000000000000000000, 0.0000000000000000000 ) ) ;
#51 = LINE ( 'NONE', #150, #94 ) ;
#52 = EDGE_CURVE ( 'NONE', #287, #60, #88, .T. ) ;
#53 =( GEOMETRIC_REPRESENTATION_CONTEXT ( 3 ) GLOBAL_UNCERTAINTY_ASSIGNED_CONTEXT ( ( #216 ) ) GLOBAL_UNIT_ASSIGNED_CONTEXT ( ( #284, #238, #261 ) ) REPRESENTATION_CONTEXT ( 'NONE', 'WORKASPACE' ) );
#54 = CARTESIAN_POINT ( 'NONE',  ( 2.097564032030875475E-34, 0.0000000000000000000, 1.712791013287488549E-18 ) ) ;
#55 = ORIENTED_EDGE ( 'NONE', *, *, #208, .T. ) ;
#56 = CARTESIAN_POINT ( 'NONE',  ( 0.01398599999999999670, 1.712791013287488164E-18, 0.0000000000000000000 ) ) ;
#57 = STYLED_ITEM ( 'NONE', ( #27 ), #255 ) ;
#58 = DIRECTION ( 'NONE',  ( -1.224646799147353700E-16, -0.0000000000000000000, -1.000000000000000000 ) ) ;
#59 = EDGE_CURVE ( 'NONE', #60, #129, #51, .T. ) ;
#60 = VERTEX_POINT ( 'NONE', #283 ) ;
#61 = CARTESIAN_POINT ( 'NONE',  ( 3.883802806856557845E-17, 0.0000000000000000000, 0.3171365661969321459 ) ) ;
#62 = VECTOR ( 'NONE', #153, 39.37007874015748143 ) ;
#63 = ORIENTED_EDGE ( 'NONE', *, *, #111, .T. ) ;
#64 = ADVANCED_FACE ( 'NONE', ( #171 ), #169, .T. ) ;
#65 = CARTESIAN_POINT ( 'NONE',  ( 2.097564032030875475E-34, 0.0000000000000000000, 1.712791013287488549E-18 ) ) ;
#66 = CIRCLE ( 'NONE', #166, 0.06250000000000002776 ) ;
#67 = ORIENTED_EDGE ( 'NONE', *, *, #136, .T. ) ;
#68 = DIRECTION ( 'NONE',  ( -0.1736481776669311916, 2.126576849575783316E-17, 0.9848077530122080203 ) ) ;
#69 = CARTESIAN_POINT ( 'NONE',  ( 5.143516556418886718E-18, 0.0000000000000000000, 0.04200000000000000955 ) ) ;
#70 = EDGE_CURVE ( 'NONE', #246, #41, #73, .T. ) ;
#71 = DIMENSIONAL_EXPONENTS ( 1.000000000000000000, 0.0000000000000000000, 0.0000000000000000000, 0.0000000000000000000, 0.0000000000000000000, 0.0000000000000000000, 0.0000000000000000000 ) ;
#72 = PRODUCT_CONTEXT ( 'NONE', #135, 'mechanical' ) ;
#73 = LINE ( 'NONE', #240, #62 ) ;
#74 = CARTESIAN_POINT ( 'NONE',  ( 5.143516556418886718E-18, 0.0000000000000000000, 0.04200000000000000955 ) ) ;
#75 = DIRECTION ( 'NONE',  ( -0.7071067811865462405, 0.0000000000000000000, -0.7071067811865486830 ) ) ;
#76 = ADVANCED_FACE ( 'NONE', ( #164 ), #217, .T. ) ;
#77 = ADVANCED_FACE ( 'NONE', ( #4 ), #198, .T. ) ;
#78 = DIRECTION ( 'NONE',  ( -0.0000000000000000000, -0.0000000000000000000, -1.000000000000000000 ) ) ;
#79 = MANIFOLD_SOLID_BREP ( 'Cut-Revolve1', #81 ) ;
#80 = ORIENTED_EDGE ( 'NONE', *, *, #186, .T. ) ;
#81 = CLOSED_SHELL ( 'NONE', ( #77, #109, #13, #275, #258, #225, #76, #64, #245, #172 ) ) ;
#82 = LINE ( 'NONE', #191, #26 ) ;
#83 = VERTEX_POINT ( 'NONE', #35 ) ;
#84 = DIRECTION ( 'NONE',  ( 0.1736481776669313859, 0.0000000000000000000, 0.9848077530122077983 ) ) ;
#85 = EDGE_LOOP ( 'NONE', ( #67, #205 ) ) ;
#86 = LINE ( 'NONE', #177, #243 ) ;
#87 = ORIENTED_EDGE ( 'NONE', *, *, #186, .F. ) ;
#88 = CIRCLE ( 'NONE', #141, 0.04750000000000064587 ) ;
#89 = CARTESIAN_POINT ( 'NONE',  ( 0.01398600000000000537, 0.0000000000000000000, 0.04200000000000000955 ) ) ;
#90 = AXIS2_PLACEMENT_3D ( 'NONE', #179, #58, #16 ) ;
#91 = FACE_OUTER_BOUND ( 'NONE', #105, .T. ) ;
#92 = DIRECTION ( 'NONE',  ( 0.0000000000000000000, 0.0000000000000000000, -1.000000000000000000 ) ) ;
#93 = AXIS2_PLACEMENT_3D ( 'NONE', #39, #131, #211 ) ;
#94 = VECTOR ( 'NONE', #75, 39.37007874015748854 ) ;
#95 = PRODUCT_DEFINITION_CONTEXT ( 'detailed design', #265, 'design' ) ;
#96 = SURFACE_STYLE_USAGE ( .BOTH. , #189 ) ;
#97 = DIRECTION ( 'NONE',  ( -1.000000000000000000, 0.0000000000000000000, 0.0000000000000000000 ) ) ;
#98 = DIRECTION ( 'NONE',  ( -1.000000000000000000, 0.0000000000000000000, 1.224646799147353700E-16 ) ) ;
#99 = DIRECTION ( 'NONE',  ( -1.224646799147353700E-16, -0.0000000000000000000, -1.000000000000000000 ) ) ;
#100 = CIRCLE ( 'NONE', #148, 0.06250000000000002776 ) ;
#101 = EDGE_CURVE ( 'NONE', #41, #274, #20, .T. ) ;
#102 = DIRECTION ( 'NONE',  ( 1.000000000000000000, 0.0000000000000000000, 0.0000000000000000000 ) ) ;
#103 = ORIENTED_EDGE ( 'NONE', *, *, #49, .F. ) ;
#104 = FACE_OUTER_BOUND ( 'NONE', #295, .T. ) ;
#105 = EDGE_LOOP ( 'NONE', ( #10, #63, #134, #289 ) ) ;
#106 = CARTESIAN_POINT ( 'NONE',  ( 0.06250000000000002776, 7.654042494670959086E-18, 1.485000000000000764 ) ) ;
#107 = ORIENTED_EDGE ( 'NONE', *, *, #111, .F. ) ;
#108 = CARTESIAN_POINT ( 'NONE',  ( 0.06250000000000006939, 7.654042494670963708E-18, 0.3171365661969321459 ) ) ;
#109 = ADVANCED_FACE ( 'NONE', ( #104 ), #256, .T. ) ;
#110 = DIRECTION ( 'NONE',  ( 0.0000000000000000000, 0.0000000000000000000, -1.000000000000000000 ) ) ;
#111 = EDGE_CURVE ( 'NONE', #246, #12, #210, .T. ) ;
#112 = ORIENTED_EDGE ( 'NONE', *, *, #25, .F. ) ;
#113 = CIRCLE ( 'NONE', #151, 0.06250000000000002776 ) ;
#114 = DIRECTION ( 'NONE',  ( -1.000000000000000000, 0.0000000000000000000, 1.224646799147353700E-16 ) ) ;
#115 = VECTOR ( 'NONE', #155, 39.37007874015748854 ) ;
#116 = EDGE_CURVE ( 'NONE', #129, #152, #239, .T. ) ;
#117 = CARTESIAN_POINT ( 'NONE',  ( -0.06250000000000002776, 0.0000000000000000000, 1.485000000000000764 ) ) ;
#118 = AXIS2_PLACEMENT_3D ( 'NONE', #175, #288, #268 ) ;
#119 = EDGE_CURVE ( 'NONE', #12, #83, #228, .T. ) ;
#120 =( CONVERSION_BASED_UNIT ( 'INCH', #280 ) LENGTH_UNIT ( ) NAMED_UNIT ( #71 ) );
#121 = AXIS2_PLACEMENT_3D ( 'NONE', #165, #168, #102 ) ;
#122 =( NAMED_UNIT ( * ) SI_UNIT ( $, .STERADIAN. ) SOLID_ANGLE_UNIT ( ) );
#123 = COLOUR_RGB ( '',0.7921568627450980005, 0.8196078431372548767, 0.9333333333333333481 ) ;
#124 = DIRECTION ( 'NONE',  ( -1.000000000000000000, 0.0000000000000000000, 1.224646799147353700E-16 ) ) ;
#125 = STYLED_ITEM ( 'NONE', ( #242 ), #79 ) ;
#126 = AXIS2_PLACEMENT_3D ( 'NONE', #200, #21, #44 ) ;
#127 = DIRECTION ( 'NONE',  ( 0.0000000000000000000, 0.0000000000000000000, -1.000000000000000000 ) ) ;
#128 = ORIENTED_EDGE ( 'NONE', *, *, #70, .T. ) ;
#129 = VERTEX_POINT ( 'NONE', #117 ) ;
#130 = CYLINDRICAL_SURFACE ( 'NONE', #267, 0.01398600000000000017 ) ;
#131 = DIRECTION ( 'NONE',  ( 0.0000000000000000000, 0.0000000000000000000, 1.000000000000000000 ) ) ;
#132 = EDGE_CURVE ( 'NONE', #152, #129, #113, .T. ) ;
#133 = CARTESIAN_POINT ( 'NONE',  ( 3.883802806856557845E-17, 0.0000000000000000000, 0.3171365661969321459 ) ) ;
#134 = ORIENTED_EDGE ( 'NONE', *, *, #298, .T. ) ;
#135 = APPLICATION_CONTEXT ( 'automotive_design' ) ;
#136 = EDGE_CURVE ( 'NONE', #274, #41, #282, .T. ) ;
#137 = DIRECTION ( 'NONE',  ( -1.224646799147353700E-16, -0.0000000000000000000, -1.000000000000000000 ) ) ;
#138 = ORIENTED_EDGE ( 'NONE', *, *, #132, .F. ) ;
#139 = CARTESIAN_POINT ( 'NONE',  ( -0.01398599999999999670, 1.712791013287488357E-18, 0.04200000000000000955 ) ) ;
#140 = EDGE_CURVE ( 'NONE', #287, #152, #181, .T. ) ;
#141 = AXIS2_PLACEMENT_3D ( 'NONE', #7, #260, #281 ) ;
#142 = DIRECTION ( 'NONE',  ( -1.224646799147353700E-16, -0.0000000000000000000, -1.000000000000000000 ) ) ;
#143 = AXIS2_PLACEMENT_3D ( 'NONE', #247, #182, #277 ) ;
#144 = DIRECTION ( 'NONE',  ( 0.0000000000000000000, 0.0000000000000000000, 1.000000000000000000 ) ) ;
#145 = DIMENSIONAL_EXPONENTS ( 1.000000000000000000, 0.0000000000000000000, 0.0000000000000000000, 0.0000000000000000000, 0.0000000000000000000, 0.0000000000000000000, 0.0000000000000000000 ) ;
#146 = AXIS2_PLACEMENT_3D ( 'NONE', #9, #99, #98 ) ;
#147 = DIRECTION ( 'NONE',  ( 1.000000000000000000, 0.0000000000000000000, 0.0000000000000000000 ) ) ;
#148 = AXIS2_PLACEMENT_3D ( 'NONE', #133, #226, #207 ) ;
#149 = CARTESIAN_POINT ( 'NONE',  ( 0.0000000000000000000, 0.0000000000000000000, 1.500000000000000222 ) ) ;
#150 = CARTESIAN_POINT ( 'NONE',  ( -0.04750000000000064587, 0.0000000000000000000, 1.500000000000000222 ) ) ;
#151 = AXIS2_PLACEMENT_3D ( 'NONE', #206, #110, #233 ) ;
#152 = VERTEX_POINT ( 'NONE', #106 ) ;
#153 = DIRECTION ( 'NONE',  ( -1.224646799147353700E-16, -0.0000000000000000000, -1.000000000000000000 ) ) ;
#154 = ORIENTED_EDGE ( 'NONE', *, *, #8, .T. ) ;
#155 = DIRECTION ( 'NONE',  ( 0.7071067811865462405, 8.659560562354916834E-17, -0.7071067811865486830 ) ) ;
#156 = ORIENTED_EDGE ( 'NONE', *, *, #25, .T. ) ;
#157 = AXIS2_PLACEMENT_3D ( 'NONE', #149, #214, #97 ) ;
#158 = DIRECTION ( 'NONE',  ( -1.224646799147353700E-16, -0.0000000000000000000, -1.000000000000000000 ) ) ;
#159 = PLANE ( 'NONE',  #188 ) ;
#160 = UNCERTAINTY_MEASURE_WITH_UNIT (LENGTH_MEASURE( 1.000000000000000082E-05 ), #209, 'distance_accuracy_value', 'NONE');
#161 = LINE ( 'NONE', #89, #47 ) ;
#162 = AXIS2_PLACEMENT_3D ( 'NONE', #185, #144, #147 ) ;
#163 =( NAMED_UNIT ( * ) PLANE_ANGLE_UNIT ( ) SI_UNIT ( $, .RADIAN. ) );
#164 = FACE_OUTER_BOUND ( 'NONE', #251, .T. ) ;
#165 = CARTESIAN_POINT ( 'NONE',  ( 5.143516556418886718E-18, 0.0000000000000000000, 0.04200000000000000955 ) ) ;
#166 = AXIS2_PLACEMENT_3D ( 'NONE', #61, #158, #250 ) ;
#167 =( LENGTH_UNIT ( ) NAMED_UNIT ( * ) SI_UNIT ( $, .METRE. ) );
#168 = DIRECTION ( 'NONE',  ( 1.224646799147353700E-16, 0.0000000000000000000, 1.000000000000000000 ) ) ;
#169 = CONICAL_SURFACE ( 'NONE', #121, 0.01398600000000000190, 0.1745329251994338915 ) ;
#170 = EDGE_LOOP ( 'NONE', ( #292, #156, #87, #103 ) ) ;
#171 = FACE_OUTER_BOUND ( 'NONE', #15, .T. ) ;
#172 = ADVANCED_FACE ( 'NONE', ( #276 ), #159, .F. ) ;
#173 = ORIENTED_EDGE ( 'NONE', *, *, #119, .F. ) ;
#174 =( GEOMETRIC_REPRESENTATION_CONTEXT ( 3 ) GLOBAL_UNCERTAINTY_ASSIGNED_CONTEXT ( ( #160 ) ) GLOBAL_UNIT_ASSIGNED_CONTEXT ( ( #209, #46, #278 ) ) REPRESENTATION_CONTEXT ( 'NONE', 'WORKASPACE' ) );
#175 = CARTESIAN_POINT ( 'NONE',  ( 0.0000000000000000000, 0.0000000000000000000, 1.500000000000000222 ) ) ;
#176 = ORIENTED_EDGE ( 'NONE', *, *, #298, .F. ) ;
#177 = CARTESIAN_POINT ( 'NONE',  ( -0.01398600000000000017, 0.0000000000000000000, 1.712791013287488934E-18 ) ) ;
#178 = ORIENTED_EDGE ( 'NONE', *, *, #136, .F. ) ;
#179 = CARTESIAN_POINT ( 'NONE',  ( 5.143516556418886718E-18, 0.0000000000000000000, 0.04200000000000000955 ) ) ;
#180 = ORIENTED_EDGE ( 'NONE', *, *, #187, .F. ) ;
#181 = LINE ( 'NONE', #254, #115 ) ;
#182 = DIRECTION ( 'NONE',  ( -0.0000000000000000000, -0.0000000000000000000, -1.000000000000000000 ) ) ;
#183 = CIRCLE ( 'NONE', #93, 0.04750000000000064587 ) ;
#184 = MECHANICAL_DESIGN_GEOMETRIC_PRESENTATION_REPRESENTATION (  '', ( #57 ), #174 ) ;
#185 = CARTESIAN_POINT ( 'NONE',  ( 0.0000000000000000000, 0.0000000000000000000, 0.0000000000000000000 ) ) ;
#186 = EDGE_CURVE ( 'NONE', #83, #229, #100, .T. ) ;
#187 = EDGE_CURVE ( 'NONE', #246, #229, #161, .T. ) ;
#188 = AXIS2_PLACEMENT_3D ( 'NONE', #18, #294, #40 ) ;
#189 = SURFACE_SIDE_STYLE ('',( #1 ) ) ;
#190 = DIMENSIONAL_EXPONENTS ( 1.000000000000000000, 0.0000000000000000000, 0.0000000000000000000, 0.0000000000000000000, 0.0000000000000000000, 0.0000000000000000000, 0.0000000000000000000 ) ;
#191 = CARTESIAN_POINT ( 'NONE',  ( -0.06250000000000002776, 0.0000000000000000000, 1.500000000000000222 ) ) ;
#192 = SURFACE_STYLE_USAGE ( .BOTH. , #11 ) ;
#193 = LINE ( 'NONE', #195, #232 ) ;
#194 =( GEOMETRIC_REPRESENTATION_CONTEXT ( 3 ) GLOBAL_UNCERTAINTY_ASSIGNED_CONTEXT ( ( #252 ) ) GLOBAL_UNIT_ASSIGNED_CONTEXT ( ( #120, #163, #122 ) ) REPRESENTATION_CONTEXT ( 'NONE', 'WORKASPACE' ) );
#195 = CARTESIAN_POINT ( 'NONE',  ( 0.06250000000000002776, 7.654042494670959086E-18, 1.500000000000000222 ) ) ;
#196 = PRODUCT_DEFINITION_SHAPE ( 'NONE', 'NONE',  #5 ) ;
#197 = ORIENTED_EDGE ( 'NONE', *, *, #8, .F. ) ;
#198 = CYLINDRICAL_SURFACE ( 'NONE', #146, 0.01398600000000000017 ) ;
#199 = EDGE_LOOP ( 'NONE', ( #55, #128, #178, #176 ) ) ;
#200 = CARTESIAN_POINT ( 'NONE',  ( 0.0000000000000000000, 0.0000000000000000000, 1.500000000000000222 ) ) ;
#201 = ORIENTED_EDGE ( 'NONE', *, *, #59, .T. ) ;
#202 = CARTESIAN_POINT ( 'NONE',  ( 0.01398600000000000537, 0.0000000000000000000, 0.04200000000000000955 ) ) ;
#203 = ORIENTED_EDGE ( 'NONE', *, *, #119, .T. ) ;
#204 = DIRECTION ( 'NONE',  ( 1.000000000000000000, 0.0000000000000000000, 0.0000000000000000000 ) ) ;
#205 = ORIENTED_EDGE ( 'NONE', *, *, #101, .T. ) ;
#206 = CARTESIAN_POINT ( 'NONE',  ( 0.0000000000000000000, 0.0000000000000000000, 1.485000000000000764 ) ) ;
#207 = DIRECTION ( 'NONE',  ( 1.000000000000000000, 0.0000000000000000000, 0.0000000000000000000 ) ) ;
#208 = EDGE_CURVE ( 'NONE', #12, #246, #219, .T. ) ;
#209 =( CONVERSION_BASED_UNIT ( 'INCH', #212 ) LENGTH_UNIT ( ) NAMED_UNIT ( #145 ) );
#210 = CIRCLE ( 'NONE', #248, 0.01398600000000000190 ) ;
#211 = DIRECTION ( 'NONE',  ( 1.000000000000000000, 0.0000000000000000000, 0.0000000000000000000 ) ) ;
#212 = LENGTH_MEASURE_WITH_UNIT ( LENGTH_MEASURE( 0.02539999999999999897 ), #24 );
#213 = CARTESIAN_POINT ( 'NONE',  ( -0.01398599999999999670, 4.683416753979223914E-18, 0.04200000000000000955 ) ) ;
#214 = DIRECTION ( 'NONE',  ( 0.0000000000000000000, 0.0000000000000000000, -1.000000000000000000 ) ) ;
#215 = LENGTH_MEASURE_WITH_UNIT ( LENGTH_MEASURE( 0.02539999999999999897 ), #167 );
#216 = UNCERTAINTY_MEASURE_WITH_UNIT (LENGTH_MEASURE( 1.000000000000000082E-05 ), #284, 'distance_accuracy_value', 'NONE');
#217 = CONICAL_SURFACE ( 'NONE', #262, 0.04750000000000064587, 0.7853981633974466137 ) ;
#218 = DIRECTION ( 'NONE',  ( -1.224646799147353700E-16, -0.0000000000000000000, -1.000000000000000000 ) ) ;
#219 = CIRCLE ( 'NONE', #90, 0.01398600000000000190 ) ;
#220 = ORIENTED_EDGE ( 'NONE', *, *, #132, .T. ) ;
#221 = DIRECTION ( 'NONE',  ( -0.0000000000000000000, -0.0000000000000000000, -1.000000000000000000 ) ) ;
#222 = ORIENTED_EDGE ( 'NONE', *, *, #116, .F. ) ;
#223 = DIRECTION ( 'NONE',  ( -1.224646799147353700E-16, -0.0000000000000000000, -1.000000000000000000 ) ) ;
#224 = EDGE_LOOP ( 'NONE', ( #249, #19, #222, #266 ) ) ;
#225 = ADVANCED_FACE ( 'NONE', ( #45 ), #253, .T. ) ;
#226 = DIRECTION ( 'NONE',  ( -1.224646799147353700E-16, -0.0000000000000000000, -1.000000000000000000 ) ) ;
#227 = ORIENTED_EDGE ( 'NONE', *, *, #140, .F. ) ;
#228 = LINE ( 'NONE', #139, #271 ) ;
#229 = VERTEX_POINT ( 'NONE', #108 ) ;
#230 = CARTESIAN_POINT ( 'NONE',  ( 0.0000000000000000000, 0.0000000000000000000, 0.0000000000000000000 ) ) ;
#231 = AXIS2_PLACEMENT_3D ( 'NONE', #65, #137, #42 ) ;
#232 = VECTOR ( 'NONE', #78, 39.37007874015748143 ) ;
#233 = DIRECTION ( 'NONE',  ( 1.000000000000000000, 0.0000000000000000000, 0.0000000000000000000 ) ) ;
#234 = FILL_AREA_STYLE_COLOUR ( '', #123 ) ;
#235 = SHAPE_DEFINITION_REPRESENTATION ( #196, #255 ) ;
#236 = APPLICATION_PROTOCOL_DEFINITION ( 'draft international standard', 'automotive_design', 1998, #265 ) ;
#237 =( LENGTH_UNIT ( ) NAMED_UNIT ( * ) SI_UNIT ( $, .METRE. ) );
#238 =( NAMED_UNIT ( * ) PLANE_ANGLE_UNIT ( ) SI_UNIT ( $, .RADIAN. ) );
#239 = CIRCLE ( 'NONE', #257, 0.06250000000000002776 ) ;
#240 = CARTESIAN_POINT ( 'NONE',  ( 0.01398600000000000017, 1.712791013287488164E-18, -1.712791013287488934E-18 ) ) ;
#241 = AXIS2_PLACEMENT_3D ( 'NONE', #74, #259, #50 ) ;
#242 = PRESENTATION_STYLE_ASSIGNMENT (( #192 ) ) ;
#243 = VECTOR ( 'NONE', #270, 39.37007874015748143 ) ;
#244 = FACE_OUTER_BOUND ( 'NONE', #170, .T. ) ;
#245 = ADVANCED_FACE ( 'NONE', ( #91 ), #130, .T. ) ;
#246 = VERTEX_POINT ( 'NONE', #202 ) ;
#247 = CARTESIAN_POINT ( 'NONE',  ( 0.0000000000000000000, 0.0000000000000000000, 1.500000000000000222 ) ) ;
#248 = AXIS2_PLACEMENT_3D ( 'NONE', #69, #142, #273 ) ;
#249 = ORIENTED_EDGE ( 'NONE', *, *, #52, .F. ) ;
#250 = DIRECTION ( 'NONE',  ( 1.000000000000000000, 0.0000000000000000000, 0.0000000000000000000 ) ) ;
#251 = EDGE_LOOP ( 'NONE', ( #227, #197, #201, #138 ) ) ;
#252 = UNCERTAINTY_MEASURE_WITH_UNIT (LENGTH_MEASURE( 1.000000000000000082E-05 ), #120, 'distance_accuracy_value', 'NONE');
#253 = PLANE ( 'NONE',  #126 ) ;
#254 = CARTESIAN_POINT ( 'NONE',  ( 0.04750000000000064587, 5.817072295950006528E-18, 1.500000000000000222 ) ) ;
#255 = ADVANCED_BREP_SHAPE_REPRESENTATION ( 'Micro_SME-028-2X', ( #79, #162 ), #194 ) ;
#256 = CONICAL_SURFACE ( 'NONE', #241, 0.01398600000000000190, 0.1745329251994338915 ) ;
#257 = AXIS2_PLACEMENT_3D ( 'NONE', #296, #92, #204 ) ;
#258 = ADVANCED_FACE ( 'NONE', ( #23 ), #297, .T. ) ;
#259 = DIRECTION ( 'NONE',  ( 1.224646799147353700E-16, 0.0000000000000000000, 1.000000000000000000 ) ) ;
#260 = DIRECTION ( 'NONE',  ( 0.0000000000000000000, 0.0000000000000000000, 1.000000000000000000 ) ) ;
#261 =( NAMED_UNIT ( * ) SI_UNIT ( $, .STERADIAN. ) SOLID_ANGLE_UNIT ( ) );
#262 = AXIS2_PLACEMENT_3D ( 'NONE', #33, #127, #29 ) ;
#263 = EDGE_LOOP ( 'NONE', ( #154, #37 ) ) ;
#264 = FILL_AREA_STYLE ('',( #286 ) ) ;
#265 = APPLICATION_CONTEXT ( 'automotive_design' ) ;
#266 = ORIENTED_EDGE ( 'NONE', *, *, #59, .F. ) ;
#267 = AXIS2_PLACEMENT_3D ( 'NONE', #230, #223, #114 ) ;
#268 = DIRECTION ( 'NONE',  ( -1.000000000000000000, 0.0000000000000000000, 0.0000000000000000000 ) ) ;
#269 = ORIENTED_EDGE ( 'NONE', *, *, #299, .F. ) ;
#270 = DIRECTION ( 'NONE',  ( -1.224646799147353700E-16, -0.0000000000000000000, -1.000000000000000000 ) ) ;
#271 = VECTOR ( 'NONE', #68, 39.37007874015747433 ) ;
#272 = EDGE_LOOP ( 'NONE', ( #112, #220, #43, #269 ) ) ;
#273 = DIRECTION ( 'NONE',  ( -1.000000000000000000, 0.0000000000000000000, 0.0000000000000000000 ) ) ;
#274 = VERTEX_POINT ( 'NONE', #14 ) ;
#275 = ADVANCED_FACE ( 'NONE', ( #244 ), #38, .T. ) ;
#276 = FACE_OUTER_BOUND ( 'NONE', #85, .T. ) ;
#277 = DIRECTION ( 'NONE',  ( -1.000000000000000000, 0.0000000000000000000, 0.0000000000000000000 ) ) ;
#278 =( NAMED_UNIT ( * ) SI_UNIT ( $, .STERADIAN. ) SOLID_ANGLE_UNIT ( ) );
#279 = APPLICATION_PROTOCOL_DEFINITION ( 'draft international standard', 'automotive_design', 1998, #135 ) ;
#280 = LENGTH_MEASURE_WITH_UNIT ( LENGTH_MEASURE( 0.02539999999999999897 ), #237 );
#281 = DIRECTION ( 'NONE',  ( 1.000000000000000000, 0.0000000000000000000, 0.0000000000000000000 ) ) ;
#282 = CIRCLE ( 'NONE', #231, 0.01398599999999999670 ) ;
#283 = CARTESIAN_POINT ( 'NONE',  ( -0.04750000000000064587, 0.0000000000000000000, 1.500000000000000222 ) ) ;
#284 =( CONVERSION_BASED_UNIT ( 'INCH', #215 ) LENGTH_UNIT ( ) NAMED_UNIT ( #190 ) );
#285 = ORIENTED_EDGE ( 'NONE', *, *, #187, .T. ) ;
#286 = FILL_AREA_STYLE_COLOUR ( '', #32 ) ;
#287 = VERTEX_POINT ( 'NONE', #290 ) ;
#288 = DIRECTION ( 'NONE',  ( -0.0000000000000000000, -0.0000000000000000000, -1.000000000000000000 ) ) ;
#289 = ORIENTED_EDGE ( 'NONE', *, *, #101, .F. ) ;
#290 = CARTESIAN_POINT ( 'NONE',  ( 0.04750000000000064587, 6.735557395310483192E-18, 1.500000000000000222 ) ) ;
#291 = PRODUCT ( 'Micro_SME-028-2X', 'Micro_SME-028-2X', '', ( #72 ) ) ;
#292 = ORIENTED_EDGE ( 'NONE', *, *, #116, .T. ) ;
#293 = CONICAL_SURFACE ( 'NONE', #157, 0.04750000000000064587, 0.7853981633974466137 ) ;
#294 = DIRECTION ( 'NONE',  ( 0.0000000000000000000, 0.0000000000000000000, 1.000000000000000000 ) ) ;
#295 = EDGE_LOOP ( 'NONE', ( #17, #203, #80, #180 ) ) ;
#296 = CARTESIAN_POINT ( 'NONE',  ( 0.0000000000000000000, 0.0000000000000000000, 1.485000000000000764 ) ) ;
#297 = CYLINDRICAL_SURFACE ( 'NONE', #143, 0.06250000000000002776 ) ;
#298 = EDGE_CURVE ( 'NONE', #12, #274, #86, .T. ) ;
#299 = EDGE_CURVE ( 'NONE', #229, #83, #66, .T. ) ;
ENDSEC;
END-ISO-10303-21;
