ISO-10303-21;
HEADER;
FILE_DESCRIPTION (( 'STEP AP214' ),
    '1' );
FILE_NAME ('Micro_BEMM-120-3X.STEP',
    '2021-09-03T13:34:35',
    ( '' ),
    ( '' ),
    'SwSTEP 2.0',
    'SolidWorks 2020',
    '' );
FILE_SCHEMA (( 'AUTOMOTIVE_DESIGN' ));
ENDSEC;

DATA;
#1 = AXIS2_PLACEMENT_3D ( 'NONE', #213, #82, #312 ) ;
#2 = EDGE_LOOP ( 'NONE', ( #154, #212, #44, #143 ) ) ;
#3 = ORIENTED_EDGE ( 'NONE', *, *, #141, .T. ) ;
#4 = MECHANICAL_DESIGN_GEOMETRIC_PRESENTATION_REPRESENTATION (  '', ( #309 ), #232 ) ;
#5 = DIRECTION ( 'NONE',  ( 0.0000000000000000000, 0.0000000000000000000, -1.000000000000000000 ) ) ;
#6 = DIRECTION ( 'NONE',  ( 1.224646799147353207E-16, 1.000000000000000000, -0.0000000000000000000 ) ) ;
#7 = ORIENTED_EDGE ( 'NONE', *, *, #78, .F. ) ;
#8 = ORIENTED_EDGE ( 'NONE', *, *, #267, .F. ) ;
#9 = DIRECTION ( 'NONE',  ( -0.0000000000000000000, -0.0000000000000000000, -1.000000000000000000 ) ) ;
#10 = PRODUCT_DEFINITION_FORMATION_WITH_SPECIFIED_SOURCE ( 'ANY', '', #81, .NOT_KNOWN. ) ;
#11 = CARTESIAN_POINT ( 'NONE',  ( -0.2212205000000019295, 0.0000000000000000000, 3.267717000000000649 ) ) ;
#12 =( LENGTH_UNIT ( ) NAMED_UNIT ( * ) SI_UNIT ( $, .METRE. ) );
#13 = FACE_OUTER_BOUND ( 'NONE', #241, .T. ) ;
#14 = EDGE_CURVE ( 'NONE', #300, #283, #210, .T. ) ;
#15 = CARTESIAN_POINT ( 'NONE',  ( 0.2359842794999999771, 2.889973925387693713E-17, -2.889973925387693713E-17 ) ) ;
#16 = DIRECTION ( 'NONE',  ( 1.000000000000000000, 0.0000000000000000000, 0.0000000000000000000 ) ) ;
#17 = CIRCLE ( 'NONE', #106, 0.2359842794999999771 ) ;
#18 = EDGE_LOOP ( 'NONE', ( #29, #140, #218, #48 ) ) ;
#19 = FACE_OUTER_BOUND ( 'NONE', #55, .T. ) ;
#20 = ADVANCED_BREP_SHAPE_REPRESENTATION ( 'Micro_BEMM-120-3X', ( #239, #271 ), #80 ) ;
#21 = CARTESIAN_POINT ( 'NONE',  ( -0.2359842794999999771, 0.0000000000000000000, 2.889973925387693713E-17 ) ) ;
#22 = FACE_OUTER_BOUND ( 'NONE', #18, .T. ) ;
#23 = ADVANCED_FACE ( 'NONE', ( #19 ), #215, .T. ) ;
#24 = STYLED_ITEM ( 'NONE', ( #35 ), #239 ) ;
#25 = EDGE_CURVE ( 'NONE', #99, #77, #175, .T. ) ;
#26 = PRESENTATION_STYLE_ASSIGNMENT (( #198 ) ) ;
#27 = VECTOR ( 'NONE', #279, 39.37007874015748143 ) ;
#28 = ORIENTED_EDGE ( 'NONE', *, *, #281, .T. ) ;
#29 = ORIENTED_EDGE ( 'NONE', *, *, #14, .T. ) ;
#30 = ORIENTED_EDGE ( 'NONE', *, *, #171, .T. ) ;
#31 = DIMENSIONAL_EXPONENTS ( 1.000000000000000000, 0.0000000000000000000, 0.0000000000000000000, 0.0000000000000000000, 0.0000000000000000000, 0.0000000000000000000, 0.0000000000000000000 ) ;
#32 = ORIENTED_EDGE ( 'NONE', *, *, #132, .T. ) ;
#33 = VECTOR ( 'NONE', #220, 39.37007874015748143 ) ;
#34 = DIRECTION ( 'NONE',  ( 1.224646799147353454E-16, 0.0000000000000000000, 1.000000000000000000 ) ) ;
#35 = PRESENTATION_STYLE_ASSIGNMENT (( #261 ) ) ;
#36 = EDGE_CURVE ( 'NONE', #305, #87, #38, .T. ) ;
#37 = CARTESIAN_POINT ( 'NONE',  ( 0.2362205000000001665, 2.892866792179874496E-17, 1.182441673027071261 ) ) ;
#38 = CIRCLE ( 'NONE', #107, 0.2362204999999999999 ) ;
#39 = CARTESIAN_POINT ( 'NONE',  ( 1.446432783766537492E-16, 0.0000000000000000000, 1.181102000000000096 ) ) ;
#40 = CARTESIAN_POINT ( 'NONE',  ( 1.446432783766537492E-16, 0.0000000000000000000, 1.181102000000000096 ) ) ;
#41 = FACE_OUTER_BOUND ( 'NONE', #95, .T. ) ;
#42 = ADVANCED_FACE ( 'NONE', ( #22 ), #75, .T. ) ;
#43 = LENGTH_MEASURE_WITH_UNIT ( LENGTH_MEASURE( 0.02539999999999999897 ), #178 );
#44 = ORIENTED_EDGE ( 'NONE', *, *, #36, .F. ) ;
#45 =( GEOMETRIC_REPRESENTATION_CONTEXT ( 3 ) GLOBAL_UNCERTAINTY_ASSIGNED_CONTEXT ( ( #250 ) ) GLOBAL_UNIT_ASSIGNED_CONTEXT ( ( #186, #124, #311 ) ) REPRESENTATION_CONTEXT ( 'NONE', 'WORKASPACE' ) );
#46 = CARTESIAN_POINT ( 'NONE',  ( -0.2362204999999998611, 0.0000000000000000000, 1.182441673027071261 ) ) ;
#47 = DIRECTION ( 'NONE',  ( 0.0000000000000000000, 0.0000000000000000000, 1.000000000000000000 ) ) ;
#48 = ORIENTED_EDGE ( 'NONE', *, *, #285, .F. ) ;
#49 = APPLICATION_PROTOCOL_DEFINITION ( 'draft international standard', 'automotive_design', 1998, #167 ) ;
#50 = EDGE_CURVE ( 'NONE', #230, #117, #149, .T. ) ;
#51 = EDGE_LOOP ( 'NONE', ( #164, #28, #32, #105 ) ) ;
#52 = CLOSED_SHELL ( 'NONE', ( #179, #42, #187, #56, #157, #122, #23, #205, #246, #259, #62 ) ) ;
#53 = ORIENTED_EDGE ( 'NONE', *, *, #50, .T. ) ;
#54 = AXIS2_PLACEMENT_3D ( 'NONE', #203, #86, #234 ) ;
#55 = EDGE_LOOP ( 'NONE', ( #133, #269 ) ) ;
#56 = ADVANCED_FACE ( 'NONE', ( #13 ), #112, .T. ) ;
#57 = CARTESIAN_POINT ( 'NONE',  ( 2.889973925387694330E-17, 0.0000000000000000000, 0.2359842795000000049 ) ) ;
#58 = PRODUCT_RELATED_PRODUCT_CATEGORY ( 'part', '', ( #81 ) ) ;
#59 = CARTESIAN_POINT ( 'NONE',  ( 0.0000000000000000000, 0.0000000000000000000, 3.267717000000000649 ) ) ;
#60 = ORIENTED_EDGE ( 'NONE', *, *, #84, .F. ) ;
#61 = LINE ( 'NONE', #11, #316 ) ;
#62 = ADVANCED_FACE ( 'NONE', ( #41 ), #191, .T. ) ;
#63 = ORIENTED_EDGE ( 'NONE', *, *, #235, .T. ) ;
#64 = DIRECTION ( 'NONE',  ( 0.1736481776669313859, 0.0000000000000000000, 0.9848077530122077983 ) ) ;
#65 = LINE ( 'NONE', #15, #33 ) ;
#66 = SPHERICAL_SURFACE ( 'NONE', #225, 0.2359842795000000049 ) ;
#67 = CARTESIAN_POINT ( 'NONE',  ( 0.2362204999999999999, 2.892866792179872647E-17, 3.267717000000000649 ) ) ;
#68 = ORIENTED_EDGE ( 'NONE', *, *, #171, .F. ) ;
#69 = DIRECTION ( 'NONE',  ( 1.000000000000000000, 0.0000000000000000000, 0.0000000000000000000 ) ) ;
#70 = ORIENTED_EDGE ( 'NONE', *, *, #50, .F. ) ;
#71 = DIRECTION ( 'NONE',  ( 1.000000000000000000, 0.0000000000000000000, 0.0000000000000000000 ) ) ;
#72 = ORIENTED_EDGE ( 'NONE', *, *, #202, .T. ) ;
#73 = AXIS2_PLACEMENT_3D ( 'NONE', #146, #321, #125 ) ;
#74 = LENGTH_MEASURE_WITH_UNIT ( LENGTH_MEASURE( 0.02539999999999999897 ), #12 );
#75 = CYLINDRICAL_SURFACE ( 'NONE', #73, 0.2359842794999999771 ) ;
#76 = ORIENTED_EDGE ( 'NONE', *, *, #25, .F. ) ;
#77 = VERTEX_POINT ( 'NONE', #119 ) ;
#78 = EDGE_CURVE ( 'NONE', #77, #99, #238, .T. ) ;
#79 = VECTOR ( 'NONE', #165, 39.37007874015748143 ) ;
#80 =( GEOMETRIC_REPRESENTATION_CONTEXT ( 3 ) GLOBAL_UNCERTAINTY_ASSIGNED_CONTEXT ( ( #118 ) ) GLOBAL_UNIT_ASSIGNED_CONTEXT ( ( #115, #292, #243 ) ) REPRESENTATION_CONTEXT ( 'NONE', 'WORKASPACE' ) );
#81 = PRODUCT ( 'Micro_BEMM-120-3X', 'Micro_BEMM-120-3X', '', ( #200 ) ) ;
#82 = DIRECTION ( 'NONE',  ( 0.0000000000000000000, -1.000000000000000000, 0.0000000000000000000 ) ) ;
#83 = FACE_OUTER_BOUND ( 'NONE', #319, .T. ) ;
#84 = EDGE_CURVE ( 'NONE', #156, #93, #102, .T. ) ;
#85 = ORIENTED_EDGE ( 'NONE', *, *, #303, .F. ) ;
#86 = DIRECTION ( 'NONE',  ( -1.224646799147353454E-16, -0.0000000000000000000, -1.000000000000000000 ) ) ;
#87 = VERTEX_POINT ( 'NONE', #37 ) ;
#88 = CYLINDRICAL_SURFACE ( 'NONE', #134, 0.2362204999999999999 ) ;
#89 = DIRECTION ( 'NONE',  ( -0.0000000000000000000, -0.0000000000000000000, -1.000000000000000000 ) ) ;
#90 = DIRECTION ( 'NONE',  ( 0.0000000000000000000, 0.0000000000000000000, -1.000000000000000000 ) ) ;
#91 = LINE ( 'NONE', #100, #110 ) ;
#92 = CARTESIAN_POINT ( 'NONE',  ( 0.0000000000000000000, 0.0000000000000000000, 3.267717000000000649 ) ) ;
#93 = VERTEX_POINT ( 'NONE', #108 ) ;
#94 = CONICAL_SURFACE ( 'NONE', #228, 0.2212205000000019295, 0.7853981633974482790 ) ;
#95 = EDGE_LOOP ( 'NONE', ( #180, #63, #70 ) ) ;
#96 = PRODUCT_DEFINITION_SHAPE ( 'NONE', 'NONE',  #182 ) ;
#97 = LINE ( 'NONE', #289, #302 ) ;
#98 = EDGE_LOOP ( 'NONE', ( #8, #248, #30, #260 ) ) ;
#99 = VERTEX_POINT ( 'NONE', #209 ) ;
#100 = CARTESIAN_POINT ( 'NONE',  ( 0.2212205000000019295, 2.709169772307794108E-17, 3.267717000000000649 ) ) ;
#101 = DIRECTION ( 'NONE',  ( -1.224646799147353454E-16, -0.0000000000000000000, -1.000000000000000000 ) ) ;
#102 = CIRCLE ( 'NONE', #278, 0.2362204999999999999 ) ;
#103 = COLOUR_RGB ( '',0.7921568627450980005, 0.8196078431372548767, 0.9333333333333333481 ) ;
#104 = ORIENTED_EDGE ( 'NONE', *, *, #285, .T. ) ;
#105 = ORIENTED_EDGE ( 'NONE', *, *, #227, .F. ) ;
#106 = AXIS2_PLACEMENT_3D ( 'NONE', #39, #190, #314 ) ;
#107 = AXIS2_PLACEMENT_3D ( 'NONE', #166, #323, #221 ) ;
#108 = CARTESIAN_POINT ( 'NONE',  ( 0.2362204999999999999, 2.892866792179872647E-17, 3.252717000000002301 ) ) ;
#109 = CARTESIAN_POINT ( 'NONE',  ( 0.2359842795000000049, 2.889973925387693713E-17, 0.2359842794999999771 ) ) ;
#110 = VECTOR ( 'NONE', #160, 39.37007874015748854 ) ;
#111 = CARTESIAN_POINT ( 'NONE',  ( 0.0000000000000000000, 0.0000000000000000000, 3.267717000000000649 ) ) ;
#112 = CONICAL_SURFACE ( 'NONE', #299, 0.2212205000000019295, 0.7853981633974482790 ) ;
#113 = CARTESIAN_POINT ( 'NONE',  ( 0.2359842795000001159, 0.0000000000000000000, 1.181102000000000096 ) ) ;
#114 = CARTESIAN_POINT ( 'NONE',  ( -0.2359842794999999493, 0.0000000000000000000, 0.2359842795000000326 ) ) ;
#115 =( CONVERSION_BASED_UNIT ( 'INCH', #74 ) LENGTH_UNIT ( ) NAMED_UNIT ( #204 ) );
#116 = ORIENTED_EDGE ( 'NONE', *, *, #313, .T. ) ;
#117 = VERTEX_POINT ( 'NONE', #109 ) ;
#118 = UNCERTAINTY_MEASURE_WITH_UNIT (LENGTH_MEASURE( 1.000000000000000082E-05 ), #115, 'distance_accuracy_value', 'NONE');
#119 = CARTESIAN_POINT ( 'NONE',  ( 0.2212205000000019295, 2.801018282243833685E-17, 3.267717000000000649 ) ) ;
#120 = CIRCLE ( 'NONE', #1, 0.2359842795000000049 ) ;
#121 = DIRECTION ( 'NONE',  ( -0.1736481776669311916, 2.126576849575783316E-17, 0.9848077530122080203 ) ) ;
#122 = ADVANCED_FACE ( 'NONE', ( #139 ), #88, .T. ) ;
#123 = CARTESIAN_POINT ( 'NONE',  ( 0.0000000000000000000, 0.0000000000000000000, 3.267717000000000649 ) ) ;
#124 =( NAMED_UNIT ( * ) PLANE_ANGLE_UNIT ( ) SI_UNIT ( $, .RADIAN. ) );
#125 = DIRECTION ( 'NONE',  ( -1.000000000000000000, 0.0000000000000000000, 1.224646799147353454E-16 ) ) ;
#126 = CONICAL_SURFACE ( 'NONE', #195, 0.2359842794999999771, 0.1745329251994338915 ) ;
#127 = PRODUCT_DEFINITION_CONTEXT ( 'detailed design', #128, 'design' ) ;
#128 = APPLICATION_CONTEXT ( 'automotive_design' ) ;
#129 = VECTOR ( 'NONE', #89, 39.37007874015748143 ) ;
#130 = AXIS2_PLACEMENT_3D ( 'NONE', #247, #101, #245 ) ;
#131 = ORIENTED_EDGE ( 'NONE', *, *, #267, .T. ) ;
#132 = EDGE_CURVE ( 'NONE', #156, #305, #263, .T. ) ;
#133 = ORIENTED_EDGE ( 'NONE', *, *, #25, .T. ) ;
#134 = AXIS2_PLACEMENT_3D ( 'NONE', #111, #266, #306 ) ;
#135 = FACE_OUTER_BOUND ( 'NONE', #197, .T. ) ;
#136 = CARTESIAN_POINT ( 'NONE',  ( -0.2362204999999999999, 0.0000000000000000000, 3.267717000000000649 ) ) ;
#137 = PRESENTATION_LAYER_ASSIGNMENT (  '', '', ( #24 ) ) ;
#138 = CYLINDRICAL_SURFACE ( 'NONE', #258, 0.2362204999999999999 ) ;
#139 = FACE_OUTER_BOUND ( 'NONE', #51, .T. ) ;
#140 = ORIENTED_EDGE ( 'NONE', *, *, #255, .T. ) ;
#141 = EDGE_CURVE ( 'NONE', #147, #230, #219, .T. ) ;
#142 = CARTESIAN_POINT ( 'NONE',  ( 1.446432783766537492E-16, 0.0000000000000000000, 1.181102000000000096 ) ) ;
#143 = ORIENTED_EDGE ( 'NONE', *, *, #132, .F. ) ;
#144 = AXIS2_PLACEMENT_3D ( 'NONE', #162, #286, #272 ) ;
#145 = ORIENTED_EDGE ( 'NONE', *, *, #202, .F. ) ;
#146 = CARTESIAN_POINT ( 'NONE',  ( 0.0000000000000000000, 0.0000000000000000000, 0.0000000000000000000 ) ) ;
#147 = VERTEX_POINT ( 'NONE', #287 ) ;
#148 = PRESENTATION_LAYER_ASSIGNMENT (  '', '', ( #309 ) ) ;
#149 = CIRCLE ( 'NONE', #208, 0.2359842794999999771 ) ;
#150 = SURFACE_STYLE_FILL_AREA ( #276 ) ;
#151 =( NAMED_UNIT ( * ) PLANE_ANGLE_UNIT ( ) SI_UNIT ( $, .RADIAN. ) );
#152 = EDGE_LOOP ( 'NONE', ( #199, #3, #236 ) ) ;
#153 = CARTESIAN_POINT ( 'NONE',  ( 0.0000000000000000000, 0.0000000000000000000, 3.252717000000002301 ) ) ;
#154 = ORIENTED_EDGE ( 'NONE', *, *, #84, .T. ) ;
#155 = SURFACE_SIDE_STYLE ('',( #307 ) ) ;
#156 = VERTEX_POINT ( 'NONE', #181 ) ;
#157 = ADVANCED_FACE ( 'NONE', ( #237 ), #138, .T. ) ;
#158 = FACE_OUTER_BOUND ( 'NONE', #152, .T. ) ;
#159 = AXIS2_PLACEMENT_3D ( 'NONE', #211, #192, #297 ) ;
#160 = DIRECTION ( 'NONE',  ( 0.7071067811865474617, 8.659560562354932858E-17, -0.7071067811865474617 ) ) ;
#161 = CARTESIAN_POINT ( 'NONE',  ( 2.889973925387694330E-17, 0.0000000000000000000, 0.2359842795000000049 ) ) ;
#162 = CARTESIAN_POINT ( 'NONE',  ( 2.889973925387694330E-17, 0.0000000000000000000, 0.2359842795000000049 ) ) ;
#163 = DIRECTION ( 'NONE',  ( 0.0000000000000000000, 1.000000000000000000, 0.0000000000000000000 ) ) ;
#164 = ORIENTED_EDGE ( 'NONE', *, *, #270, .F. ) ;
#165 = DIRECTION ( 'NONE',  ( -1.224646799147353454E-16, -0.0000000000000000000, -1.000000000000000000 ) ) ;
#166 = CARTESIAN_POINT ( 'NONE',  ( 1.448073410051044337E-16, 0.0000000000000000000, 1.182441673027071261 ) ) ;
#167 = APPLICATION_CONTEXT ( 'automotive_design' ) ;
#168 = LINE ( 'NONE', #21, #79 ) ;
#169 = DIRECTION ( 'NONE',  ( -1.000000000000000000, 0.0000000000000000000, 1.447049777771459222E-16 ) ) ;
#170 = CONICAL_SURFACE ( 'NONE', #254, 0.2359842794999999771, 0.1745329251994338915 ) ;
#171 = EDGE_CURVE ( 'NONE', #283, #87, #176, .T. ) ;
#172 = DIRECTION ( 'NONE',  ( 0.0000000000000000000, 0.0000000000000000000, 1.000000000000000000 ) ) ;
#173 = AXIS2_PLACEMENT_3D ( 'NONE', #57, #6, #282 ) ;
#174 = EDGE_LOOP ( 'NONE', ( #315, #116, #104, #53 ) ) ;
#175 = CIRCLE ( 'NONE', #189, 0.2212205000000019295 ) ;
#176 = LINE ( 'NONE', #257, #264 ) ;
#177 = FILL_AREA_STYLE ('',( #206 ) ) ;
#178 =( LENGTH_UNIT ( ) NAMED_UNIT ( * ) SI_UNIT ( $, .METRE. ) );
#179 = ADVANCED_FACE ( 'NONE', ( #158 ), #66, .T. ) ;
#180 = ORIENTED_EDGE ( 'NONE', *, *, #141, .F. ) ;
#181 = CARTESIAN_POINT ( 'NONE',  ( -0.2362204999999999999, 0.0000000000000000000, 3.252717000000002301 ) ) ;
#182 = PRODUCT_DEFINITION ( 'UNKNOWN', '', #10, #127 ) ;
#183 = CARTESIAN_POINT ( 'NONE',  ( 0.0000000000000000000, 0.0000000000000000000, 3.252717000000002301 ) ) ;
#184 = DIRECTION ( 'NONE',  ( 1.000000000000000000, 0.0000000000000000000, 0.0000000000000000000 ) ) ;
#185 = CIRCLE ( 'NONE', #144, 0.2359842794999999771 ) ;
#186 =( CONVERSION_BASED_UNIT ( 'INCH', #43 ) LENGTH_UNIT ( ) NAMED_UNIT ( #201 ) );
#187 = ADVANCED_FACE ( 'NONE', ( #83 ), #126, .T. ) ;
#188 = DIRECTION ( 'NONE',  ( 0.0000000000000000000, 0.0000000000000000000, -1.000000000000000000 ) ) ;
#189 = AXIS2_PLACEMENT_3D ( 'NONE', #193, #47, #296 ) ;
#190 = DIRECTION ( 'NONE',  ( -1.224646799147353454E-16, -0.0000000000000000000, -1.000000000000000000 ) ) ;
#191 = SPHERICAL_SURFACE ( 'NONE', #290, 0.2359842795000000049 ) ;
#192 = DIRECTION ( 'NONE',  ( -1.224646799147353454E-16, -0.0000000000000000000, -1.000000000000000000 ) ) ;
#193 = CARTESIAN_POINT ( 'NONE',  ( 0.0000000000000000000, 0.0000000000000000000, 3.267717000000000649 ) ) ;
#194 = ORIENTED_EDGE ( 'NONE', *, *, #14, .F. ) ;
#195 = AXIS2_PLACEMENT_3D ( 'NONE', #40, #34, #184 ) ;
#196 = DIRECTION ( 'NONE',  ( 1.000000000000000000, 0.0000000000000000000, 0.0000000000000000000 ) ) ;
#197 = EDGE_LOOP ( 'NONE', ( #85, #76, #72, #256 ) ) ;
#198 = SURFACE_STYLE_USAGE ( .BOTH. , #252 ) ;
#199 = ORIENTED_EDGE ( 'NONE', *, *, #235, .F. ) ;
#200 = PRODUCT_CONTEXT ( 'NONE', #167, 'mechanical' ) ;
#201 = DIMENSIONAL_EXPONENTS ( 1.000000000000000000, 0.0000000000000000000, 0.0000000000000000000, 0.0000000000000000000, 0.0000000000000000000, 0.0000000000000000000, 0.0000000000000000000 ) ;
#202 = EDGE_CURVE ( 'NONE', #99, #156, #61, .T. ) ;
#203 = CARTESIAN_POINT ( 'NONE',  ( 1.448073410051044337E-16, 0.0000000000000000000, 1.182441673027071261 ) ) ;
#204 = DIMENSIONAL_EXPONENTS ( 1.000000000000000000, 0.0000000000000000000, 0.0000000000000000000, 0.0000000000000000000, 0.0000000000000000000, 0.0000000000000000000, 0.0000000000000000000 ) ;
#205 = ADVANCED_FACE ( 'NONE', ( #135 ), #94, .T. ) ;
#206 = FILL_AREA_STYLE_COLOUR ( '', #288 ) ;
#207 = CARTESIAN_POINT ( 'NONE',  ( 0.0000000000000000000, 0.0000000000000000000, 3.267717000000000649 ) ) ;
#208 = AXIS2_PLACEMENT_3D ( 'NONE', #223, #298, #169 ) ;
#209 = CARTESIAN_POINT ( 'NONE',  ( -0.2212205000000019295, 0.0000000000000000000, 3.267717000000000649 ) ) ;
#210 = CIRCLE ( 'NONE', #130, 0.2359842794999999771 ) ;
#211 = CARTESIAN_POINT ( 'NONE',  ( 0.0000000000000000000, 0.0000000000000000000, 0.0000000000000000000 ) ) ;
#212 = ORIENTED_EDGE ( 'NONE', *, *, #270, .T. ) ;
#213 = CARTESIAN_POINT ( 'NONE',  ( 2.889973925387694330E-17, 0.0000000000000000000, 0.2359842795000000049 ) ) ;
#214 = CARTESIAN_POINT ( 'NONE',  ( -0.2359842794999998383, 2.891420358783783796E-17, 1.181102000000000096 ) ) ;
#215 = PLANE ( 'NONE',  #251 ) ;
#216 = CIRCLE ( 'NONE', #54, 0.2362204999999999999 ) ;
#217 = CARTESIAN_POINT ( 'NONE',  ( 0.0000000000000000000, 0.0000000000000000000, 3.267717000000000649 ) ) ;
#218 = ORIENTED_EDGE ( 'NONE', *, *, #294, .T. ) ;
#219 = CIRCLE ( 'NONE', #173, 0.2359842795000000049 ) ;
#220 = DIRECTION ( 'NONE',  ( -1.224646799147353454E-16, -0.0000000000000000000, -1.000000000000000000 ) ) ;
#221 = DIRECTION ( 'NONE',  ( 1.000000000000000000, 0.0000000000000000000, 0.0000000000000000000 ) ) ;
#222 = FACE_OUTER_BOUND ( 'NONE', #98, .T. ) ;
#223 = CARTESIAN_POINT ( 'NONE',  ( 2.889973925387694330E-17, 0.0000000000000000000, 0.2359842795000000049 ) ) ;
#224 = SHAPE_DEFINITION_REPRESENTATION ( #96, #20 ) ;
#225 = AXIS2_PLACEMENT_3D ( 'NONE', #161, #280, #240 ) ;
#226 = APPLICATION_PROTOCOL_DEFINITION ( 'draft international standard', 'automotive_design', 1998, #128 ) ;
#227 = EDGE_CURVE ( 'NONE', #87, #305, #216, .T. ) ;
#228 = AXIS2_PLACEMENT_3D ( 'NONE', #207, #5, #308 ) ;
#229 = LENGTH_MEASURE_WITH_UNIT ( LENGTH_MEASURE( 0.02539999999999999897 ), #301 );
#230 = VERTEX_POINT ( 'NONE', #114 ) ;
#231 = ORIENTED_EDGE ( 'NONE', *, *, #36, .T. ) ;
#232 =( GEOMETRIC_REPRESENTATION_CONTEXT ( 3 ) GLOBAL_UNCERTAINTY_ASSIGNED_CONTEXT ( ( #317 ) ) GLOBAL_UNIT_ASSIGNED_CONTEXT ( ( #277, #151, #325 ) ) REPRESENTATION_CONTEXT ( 'NONE', 'WORKASPACE' ) );
#233 = AXIS2_PLACEMENT_3D ( 'NONE', #217, #318, #69 ) ;
#234 = DIRECTION ( 'NONE',  ( 1.000000000000000000, 0.0000000000000000000, 0.0000000000000000000 ) ) ;
#235 = EDGE_CURVE ( 'NONE', #147, #117, #120, .T. ) ;
#236 = ORIENTED_EDGE ( 'NONE', *, *, #294, .F. ) ;
#237 = FACE_OUTER_BOUND ( 'NONE', #2, .T. ) ;
#238 = CIRCLE ( 'NONE', #233, 0.2212205000000019295 ) ;
#239 = MANIFOLD_SOLID_BREP ( 'Fillet1', #52 ) ;
#240 = DIRECTION ( 'NONE',  ( 1.000000000000000000, 0.0000000000000000000, 0.0000000000000000000 ) ) ;
#241 = EDGE_LOOP ( 'NONE', ( #7, #242, #60, #145 ) ) ;
#242 = ORIENTED_EDGE ( 'NONE', *, *, #303, .T. ) ;
#243 =( NAMED_UNIT ( * ) SI_UNIT ( $, .STERADIAN. ) SOLID_ANGLE_UNIT ( ) );
#244 = LINE ( 'NONE', #67, #129 ) ;
#245 = DIRECTION ( 'NONE',  ( -1.000000000000000000, 0.0000000000000000000, 0.0000000000000000000 ) ) ;
#246 = ADVANCED_FACE ( 'NONE', ( #222 ), #170, .T. ) ;
#247 = CARTESIAN_POINT ( 'NONE',  ( 1.446432783766537492E-16, 0.0000000000000000000, 1.181102000000000096 ) ) ;
#248 = ORIENTED_EDGE ( 'NONE', *, *, #313, .F. ) ;
#249 = CARTESIAN_POINT ( 'NONE',  ( 0.0000000000000000000, 0.0000000000000000000, 0.0000000000000000000 ) ) ;
#250 = UNCERTAINTY_MEASURE_WITH_UNIT (LENGTH_MEASURE( 1.000000000000000082E-05 ), #186, 'distance_accuracy_value', 'NONE');
#251 = AXIS2_PLACEMENT_3D ( 'NONE', #123, #293, #273 ) ;
#252 = SURFACE_SIDE_STYLE ('',( #150 ) ) ;
#253 = FILL_AREA_STYLE_COLOUR ( '', #103 ) ;
#254 = AXIS2_PLACEMENT_3D ( 'NONE', #142, #320, #322 ) ;
#255 = EDGE_CURVE ( 'NONE', #283, #117, #65, .T. ) ;
#256 = ORIENTED_EDGE ( 'NONE', *, *, #281, .F. ) ;
#257 = CARTESIAN_POINT ( 'NONE',  ( 0.2359842795000001159, 0.0000000000000000000, 1.181102000000000096 ) ) ;
#258 = AXIS2_PLACEMENT_3D ( 'NONE', #59, #9, #284 ) ;
#259 = ADVANCED_FACE ( 'NONE', ( #265 ), #274, .T. ) ;
#260 = ORIENTED_EDGE ( 'NONE', *, *, #227, .T. ) ;
#261 = SURFACE_STYLE_USAGE ( .BOTH. , #155 ) ;
#262 = DIRECTION ( 'NONE',  ( -0.7071067811865474617, 0.0000000000000000000, -0.7071067811865474617 ) ) ;
#263 = LINE ( 'NONE', #136, #27 ) ;
#264 = VECTOR ( 'NONE', #64, 39.37007874015748143 ) ;
#265 = FACE_OUTER_BOUND ( 'NONE', #174, .T. ) ;
#266 = DIRECTION ( 'NONE',  ( -0.0000000000000000000, -0.0000000000000000000, -1.000000000000000000 ) ) ;
#267 = EDGE_CURVE ( 'NONE', #300, #305, #97, .T. ) ;
#268 = DIRECTION ( 'NONE',  ( -1.000000000000000000, 0.0000000000000000000, 0.0000000000000000000 ) ) ;
#269 = ORIENTED_EDGE ( 'NONE', *, *, #78, .T. ) ;
#270 = EDGE_CURVE ( 'NONE', #93, #87, #244, .T. ) ;
#271 = AXIS2_PLACEMENT_3D ( 'NONE', #249, #172, #196 ) ;
#272 = DIRECTION ( 'NONE',  ( -1.000000000000000000, 0.0000000000000000000, 1.447049777771459222E-16 ) ) ;
#273 = DIRECTION ( 'NONE',  ( 1.000000000000000000, 0.0000000000000000000, -0.0000000000000000000 ) ) ;
#274 = CYLINDRICAL_SURFACE ( 'NONE', #159, 0.2359842794999999771 ) ;
#275 = MECHANICAL_DESIGN_GEOMETRIC_PRESENTATION_REPRESENTATION (  '', ( #24 ), #45 ) ;
#276 = FILL_AREA_STYLE ('',( #253 ) ) ;
#277 =( CONVERSION_BASED_UNIT ( 'INCH', #229 ) LENGTH_UNIT ( ) NAMED_UNIT ( #31 ) );
#278 = AXIS2_PLACEMENT_3D ( 'NONE', #153, #90, #310 ) ;
#279 = DIRECTION ( 'NONE',  ( -0.0000000000000000000, -0.0000000000000000000, -1.000000000000000000 ) ) ;
#280 = DIRECTION ( 'NONE',  ( 0.0000000000000000000, 1.000000000000000000, 0.0000000000000000000 ) ) ;
#281 = EDGE_CURVE ( 'NONE', #93, #156, #304, .T. ) ;
#282 = DIRECTION ( 'NONE',  ( -1.000000000000000000, 1.224646799147353207E-16, 0.0000000000000000000 ) ) ;
#283 = VERTEX_POINT ( 'NONE', #113 ) ;
#284 = DIRECTION ( 'NONE',  ( -1.000000000000000000, 0.0000000000000000000, 0.0000000000000000000 ) ) ;
#285 = EDGE_CURVE ( 'NONE', #300, #230, #168, .T. ) ;
#286 = DIRECTION ( 'NONE',  ( 1.224646799147353454E-16, 0.0000000000000000000, 1.000000000000000000 ) ) ;
#287 = CARTESIAN_POINT ( 'NONE',  ( 4.334960888081541802E-17, 0.0000000000000000000, 0.0000000000000000000 ) ) ;
#288 = COLOUR_RGB ( '',0.7921568627450980005, 0.8196078431372548767, 0.9333333333333333481 ) ;
#289 = CARTESIAN_POINT ( 'NONE',  ( -0.2359842794999998383, 2.889973925387693713E-17, 1.181102000000000096 ) ) ;
#290 = AXIS2_PLACEMENT_3D ( 'NONE', #291, #163, #16 ) ;
#291 = CARTESIAN_POINT ( 'NONE',  ( 2.889973925387694330E-17, 0.0000000000000000000, 0.2359842795000000049 ) ) ;
#292 =( NAMED_UNIT ( * ) PLANE_ANGLE_UNIT ( ) SI_UNIT ( $, .RADIAN. ) );
#293 = DIRECTION ( 'NONE',  ( 0.0000000000000000000, 0.0000000000000000000, 1.000000000000000000 ) ) ;
#294 = EDGE_CURVE ( 'NONE', #117, #230, #185, .T. ) ;
#295 = DIRECTION ( 'NONE',  ( 0.0000000000000000000, 0.0000000000000000000, -1.000000000000000000 ) ) ;
#296 = DIRECTION ( 'NONE',  ( 1.000000000000000000, 0.0000000000000000000, 0.0000000000000000000 ) ) ;
#297 = DIRECTION ( 'NONE',  ( -1.000000000000000000, 0.0000000000000000000, 1.224646799147353454E-16 ) ) ;
#298 = DIRECTION ( 'NONE',  ( 1.224646799147353454E-16, 0.0000000000000000000, 1.000000000000000000 ) ) ;
#299 = AXIS2_PLACEMENT_3D ( 'NONE', #92, #188, #268 ) ;
#300 = VERTEX_POINT ( 'NONE', #214 ) ;
#301 =( LENGTH_UNIT ( ) NAMED_UNIT ( * ) SI_UNIT ( $, .METRE. ) );
#302 = VECTOR ( 'NONE', #121, 39.37007874015747433 ) ;
#303 = EDGE_CURVE ( 'NONE', #77, #93, #91, .T. ) ;
#304 = CIRCLE ( 'NONE', #324, 0.2362204999999999999 ) ;
#305 = VERTEX_POINT ( 'NONE', #46 ) ;
#306 = DIRECTION ( 'NONE',  ( -1.000000000000000000, 0.0000000000000000000, 0.0000000000000000000 ) ) ;
#307 = SURFACE_STYLE_FILL_AREA ( #177 ) ;
#308 = DIRECTION ( 'NONE',  ( -1.000000000000000000, 0.0000000000000000000, 0.0000000000000000000 ) ) ;
#309 = STYLED_ITEM ( 'NONE', ( #26 ), #20 ) ;
#310 = DIRECTION ( 'NONE',  ( 1.000000000000000000, 0.0000000000000000000, 0.0000000000000000000 ) ) ;
#311 =( NAMED_UNIT ( * ) SI_UNIT ( $, .STERADIAN. ) SOLID_ANGLE_UNIT ( ) );
#312 = DIRECTION ( 'NONE',  ( 0.0000000000000000000, 0.0000000000000000000, -1.000000000000000000 ) ) ;
#313 = EDGE_CURVE ( 'NONE', #283, #300, #17, .T. ) ;
#314 = DIRECTION ( 'NONE',  ( -1.000000000000000000, 0.0000000000000000000, 0.0000000000000000000 ) ) ;
#315 = ORIENTED_EDGE ( 'NONE', *, *, #255, .F. ) ;
#316 = VECTOR ( 'NONE', #262, 39.37007874015748854 ) ;
#317 = UNCERTAINTY_MEASURE_WITH_UNIT (LENGTH_MEASURE( 1.000000000000000082E-05 ), #277, 'distance_accuracy_value', 'NONE');
#318 = DIRECTION ( 'NONE',  ( 0.0000000000000000000, 0.0000000000000000000, 1.000000000000000000 ) ) ;
#319 = EDGE_LOOP ( 'NONE', ( #194, #131, #231, #68 ) ) ;
#320 = DIRECTION ( 'NONE',  ( 1.224646799147353454E-16, 0.0000000000000000000, 1.000000000000000000 ) ) ;
#321 = DIRECTION ( 'NONE',  ( -1.224646799147353454E-16, -0.0000000000000000000, -1.000000000000000000 ) ) ;
#322 = DIRECTION ( 'NONE',  ( 1.000000000000000000, 0.0000000000000000000, 0.0000000000000000000 ) ) ;
#323 = DIRECTION ( 'NONE',  ( -1.224646799147353454E-16, -0.0000000000000000000, -1.000000000000000000 ) ) ;
#324 = AXIS2_PLACEMENT_3D ( 'NONE', #183, #295, #71 ) ;
#325 =( NAMED_UNIT ( * ) SI_UNIT ( $, .STERADIAN. ) SOLID_ANGLE_UNIT ( ) );
ENDSEC;
END-ISO-10303-21;
