ISO-10303-21;
HEADER;
FILE_DESCRIPTION (( 'STEP AP214' ),
    '1' );
FILE_NAME ('44197.STEP',
    '2023-06-22T19:36:43',
    ( '' ),
    ( '' ),
    'SwSTEP 2.0',
    'SolidWorks 2023',
    '' );
FILE_SCHEMA (( 'AUTOMOTIVE_DESIGN' ));
ENDSEC;

DATA;
#1 = EDGE_CURVE ( 'NONE', #236, #278, #290, .T. ) ;
#2 = SURFACE_STYLE_USAGE ( .BOTH. , #26 ) ;
#3 = SURFACE_STYLE_FILL_AREA ( #284 ) ;
#4 = COLOUR_RGB ( '',0.7921568627450980005, 0.8196078431372548767, 0.9333333333333333481 ) ;
#5 = FACE_OUTER_BOUND ( 'NONE', #161, .T. ) ;
#6 = CARTESIAN_POINT ( 'NONE',  ( 1.913510623667739771E-17, 1.000000000000000000, 0.1562500000000000278 ) ) ;
#7 = CARTESIAN_POINT ( 'NONE',  ( 0.1562500000000000000, 3.000000000000000444, 1.913510623667740080E-17 ) ) ;
#8 = STYLED_ITEM ( 'NONE', ( #71 ), #46 ) ;
#9 = SURFACE_STYLE_USAGE ( .BOTH. , #124 ) ;
#10 = EDGE_CURVE ( 'NONE', #302, #38, #229, .T. ) ;
#11 = CARTESIAN_POINT ( 'NONE',  ( 0.1562500000000000278, 1.000000000000000000, 1.913510623667740388E-17 ) ) ;
#12 = EDGE_LOOP ( 'NONE', ( #300, #210 ) ) ;
#13 = CARTESIAN_POINT ( 'NONE',  ( -6.123233995736772199E-17, 3.000000000000000444, 0.000000000000000000 ) ) ;
#14 = ORIENTED_EDGE ( 'NONE', *, *, #30, .T. ) ;
#15 = MECHANICAL_DESIGN_GEOMETRIC_PRESENTATION_REPRESENTATION (  '', ( #291 ), #49 ) ;
#16 = ORIENTED_EDGE ( 'NONE', *, *, #197, .T. ) ;
#17 = CIRCLE ( 'NONE', #308, 0.1562500000000001110 ) ;
#18 = ADVANCED_FACE ( 'NONE', ( #168 ), #123, .T. ) ;
#19 = DIRECTION ( 'NONE',  ( 0.000000000000000000, 1.000000000000000000, 0.000000000000000000 ) ) ;
#20 =( NAMED_UNIT ( * ) PLANE_ANGLE_UNIT ( ) SI_UNIT ( $, .RADIAN. ) );
#21 = EDGE_CURVE ( 'NONE', #278, #236, #247, .T. ) ;
#22 = FILL_AREA_STYLE_COLOUR ( '', #87 ) ;
#23 = UNCERTAINTY_MEASURE_WITH_UNIT (LENGTH_MEASURE( 1.000000000000000082E-05 ), #127, 'distance_accuracy_value', 'NONE');
#24 = DIRECTION ( 'NONE',  ( -0.000000000000000000, -1.000000000000000000, -0.000000000000000000 ) ) ;
#25 = CLOSED_SHELL ( 'NONE', ( #98, #238, #255, #120 ) ) ;
#26 = SURFACE_SIDE_STYLE ('',( #150 ) ) ;
#27 = CIRCLE ( 'NONE', #170, 0.1562500000000000000 ) ;
#28 = FACE_OUTER_BOUND ( 'NONE', #279, .T. ) ;
#29 =( LENGTH_UNIT ( ) NAMED_UNIT ( * ) SI_UNIT ( $, .METRE. ) );
#30 = EDGE_CURVE ( 'NONE', #213, #159, #171, .T. ) ;
#31 = APPLICATION_PROTOCOL_DEFINITION ( 'draft international standard', 'automotive_design', 1998, #217 ) ;
#32 = AXIS2_PLACEMENT_3D ( 'NONE', #82, #221, #99 ) ;
#33 = CARTESIAN_POINT ( 'NONE',  ( 0.000000000000000000, 1.000000000000000000, 0.000000000000000000 ) ) ;
#34 = DIMENSIONAL_EXPONENTS ( 1.000000000000000000, 0.000000000000000000, 0.000000000000000000, 0.000000000000000000, 0.000000000000000000, 0.000000000000000000, 0.000000000000000000 ) ;
#35 = EDGE_CURVE ( 'NONE', #194, #299, #109, .T. ) ;
#36 =( CONVERSION_BASED_UNIT ( 'INCH', #251 ) LENGTH_UNIT ( ) NAMED_UNIT ( #169 ) );
#37 = EDGE_LOOP ( 'NONE', ( #133, #211, #116, #64 ) ) ;
#38 = VERTEX_POINT ( 'NONE', #6 ) ;
#39 = PRESENTATION_LAYER_ASSIGNMENT (  '', '', ( #291 ) ) ;
#40 = ORIENTED_EDGE ( 'NONE', *, *, #57, .T. ) ;
#41 = EDGE_LOOP ( 'NONE', ( #271, #137 ) ) ;
#42 = ADVANCED_FACE ( 'NONE', ( #239 ), #135, .T. ) ;
#43 = DIRECTION ( 'NONE',  ( -1.000000000000000000, 0.000000000000000000, 0.000000000000000000 ) ) ;
#44 = PRESENTATION_LAYER_ASSIGNMENT (  '', '', ( #187 ) ) ;
#45 = STYLED_ITEM ( 'NONE', ( #172 ), #151 ) ;
#46 = MANIFOLD_SOLID_BREP ( 'Revolve - Cutting Edge', #48 ) ;
#47 = SURFACE_SIDE_STYLE ('',( #3 ) ) ;
#48 = CLOSED_SHELL ( 'NONE', ( #18, #42, #69, #175 ) ) ;
#49 =( GEOMETRIC_REPRESENTATION_CONTEXT ( 3 ) GLOBAL_UNCERTAINTY_ASSIGNED_CONTEXT ( ( #89 ) ) GLOBAL_UNIT_ASSIGNED_CONTEXT ( ( #301, #165, #105 ) ) REPRESENTATION_CONTEXT ( 'NONE', 'WORKASPACE' ) );
#50 = CARTESIAN_POINT ( 'NONE',  ( -0.1562500000000001388, 3.000000000000000444, 0.000000000000000000 ) ) ;
#51 = FILL_AREA_STYLE ('',( #22 ) ) ;
#52 =( NAMED_UNIT ( * ) PLANE_ANGLE_UNIT ( ) SI_UNIT ( $, .RADIAN. ) );
#53 = CARTESIAN_POINT ( 'NONE',  ( 0.000000000000000000, 0.000000000000000000, -0.1562500000000000000 ) ) ;
#54 =( NAMED_UNIT ( * ) PLANE_ANGLE_UNIT ( ) SI_UNIT ( $, .RADIAN. ) );
#55 = CARTESIAN_POINT ( 'NONE',  ( -0.1562500000000000278, 1.000000000000000000, 0.000000000000000000 ) ) ;
#56 =( CONVERSION_BASED_UNIT ( 'INCH', #182 ) LENGTH_UNIT ( ) NAMED_UNIT ( #145 ) );
#57 = EDGE_CURVE ( 'NONE', #299, #194, #27, .T. ) ;
#58 = DIRECTION ( 'NONE',  ( 0.000000000000000000, 0.000000000000000000, 1.000000000000000000 ) ) ;
#59 = DIRECTION ( 'NONE',  ( -3.061616997868386099E-17, 1.000000000000000000, -0.000000000000000000 ) ) ;
#60 = AXIS2_PLACEMENT_3D ( 'NONE', #220, #228, #43 ) ;
#61 = DIMENSIONAL_EXPONENTS ( 1.000000000000000000, 0.000000000000000000, 0.000000000000000000, 0.000000000000000000, 0.000000000000000000, 0.000000000000000000, 0.000000000000000000 ) ;
#62 = DIRECTION ( 'NONE',  ( 0.000000000000000000, 0.000000000000000000, -1.000000000000000000 ) ) ;
#63 = SURFACE_STYLE_FILL_AREA ( #119 ) ;
#64 = ORIENTED_EDGE ( 'NONE', *, *, #197, .F. ) ;
#65 = COLOUR_RGB ( '',1.000000000000000000, 0.000000000000000000, 0.000000000000000000 ) ;
#66 = EDGE_CURVE ( 'NONE', #38, #299, #269, .T. ) ;
#67 = EDGE_LOOP ( 'NONE', ( #14, #16 ) ) ;
#68 = DIMENSIONAL_EXPONENTS ( 1.000000000000000000, 0.000000000000000000, 0.000000000000000000, 0.000000000000000000, 0.000000000000000000, 0.000000000000000000, 0.000000000000000000 ) ;
#69 = ADVANCED_FACE ( 'NONE', ( #129 ), #149, .T. ) ;
#70 = SURFACE_SIDE_STYLE ('',( #72 ) ) ;
#71 = PRESENTATION_STYLE_ASSIGNMENT (( #283 ) ) ;
#72 = SURFACE_STYLE_FILL_AREA ( #282 ) ;
#73 =( CONVERSION_BASED_UNIT ( 'INCH', #199 ) LENGTH_UNIT ( ) NAMED_UNIT ( #61 ) );
#74 = LENGTH_MEASURE_WITH_UNIT ( LENGTH_MEASURE( 0.02539999999999999897 ), #143 );
#75 = CARTESIAN_POINT ( 'NONE',  ( 1.913510623667739463E-17, 0.000000000000000000, 0.1562500000000000000 ) ) ;
#76 = SURFACE_STYLE_FILL_AREA ( #288 ) ;
#77 = CARTESIAN_POINT ( 'NONE',  ( -0.1562500000000001665, 3.000000000000000444, 0.000000000000000000 ) ) ;
#78 = DIRECTION ( 'NONE',  ( 0.000000000000000000, -1.000000000000000000, -0.000000000000000000 ) ) ;
#79 = PRESENTATION_LAYER_ASSIGNMENT (  '', '', ( #8 ) ) ;
#80 = AXIS2_PLACEMENT_3D ( 'NONE', #183, #205, #83 ) ;
#81 =( NAMED_UNIT ( * ) PLANE_ANGLE_UNIT ( ) SI_UNIT ( $, .RADIAN. ) );
#82 = CARTESIAN_POINT ( 'NONE',  ( 0.1562500000000000278, 3.000000000000000444, 0.000000000000000000 ) ) ;
#83 = DIRECTION ( 'NONE',  ( -1.000000000000000000, -3.061616997868386099E-17, 0.000000000000000000 ) ) ;
#84 = DIRECTION ( 'NONE',  ( -0.000000000000000000, -1.000000000000000000, -0.000000000000000000 ) ) ;
#85 = ORIENTED_EDGE ( 'NONE', *, *, #10, .T. ) ;
#86 = DIRECTION ( 'NONE',  ( 0.000000000000000000, 0.000000000000000000, -1.000000000000000000 ) ) ;
#87 = COLOUR_RGB ( '',1.000000000000000000, 0.000000000000000000, 0.000000000000000000 ) ;
#88 = ORIENTED_EDGE ( 'NONE', *, *, #57, .F. ) ;
#89 = UNCERTAINTY_MEASURE_WITH_UNIT (LENGTH_MEASURE( 1.000000000000000082E-05 ), #301, 'distance_accuracy_value', 'NONE');
#90 = ORIENTED_EDGE ( 'NONE', *, *, #35, .T. ) ;
#91 = PRESENTATION_STYLE_ASSIGNMENT (( #215 ) ) ;
#92 = SHAPE_DEFINITION_REPRESENTATION ( #276, #232 ) ;
#93 = LINE ( 'NONE', #50, #96 ) ;
#94 = FILL_AREA_STYLE_COLOUR ( '', #4 ) ;
#95 = PRODUCT_DEFINITION_CONTEXT ( 'detailed design', #217, 'design' ) ;
#96 = VECTOR ( 'NONE', #309, 39.37007874015748143 ) ;
#97 = PRESENTATION_STYLE_ASSIGNMENT (( #2 ) ) ;
#98 = ADVANCED_FACE ( 'NONE', ( #28 ), #203, .T. ) ;
#99 = DIRECTION ( 'NONE',  ( 1.000000000000000000, 3.061616997868386099E-17, 0.000000000000000000 ) ) ;
#100 = AXIS2_PLACEMENT_3D ( 'NONE', #121, #216, #280 ) ;
#101 = VECTOR ( 'NONE', #202, 39.37007874015748143 ) ;
#102 = LENGTH_MEASURE_WITH_UNIT ( LENGTH_MEASURE( 0.02539999999999999897 ), #178 );
#103 = PLANE ( 'NONE',  #157 ) ;
#104 = PRODUCT_DEFINITION ( 'UNKNOWN', '', #241, #95 ) ;
#105 =( NAMED_UNIT ( * ) SI_UNIT ( $, .STERADIAN. ) SOLID_ANGLE_UNIT ( ) );
#106 = APPLICATION_PROTOCOL_DEFINITION ( 'draft international standard', 'automotive_design', 1998, #190 ) ;
#107 =( NAMED_UNIT ( * ) SI_UNIT ( $, .STERADIAN. ) SOLID_ANGLE_UNIT ( ) );
#108 = DIRECTION ( 'NONE',  ( -1.000000000000000000, 0.000000000000000000, 0.000000000000000000 ) ) ;
#109 = CIRCLE ( 'NONE', #152, 0.1562500000000000000 ) ;
#110 = CARTESIAN_POINT ( 'NONE',  ( 0.000000000000000000, 0.000000000000000000, 0.000000000000000000 ) ) ;
#111 = DIRECTION ( 'NONE',  ( -3.061616997868386099E-17, 1.000000000000000000, -0.000000000000000000 ) ) ;
#112 = ORIENTED_EDGE ( 'NONE', *, *, #262, .F. ) ;
#113 = DIRECTION ( 'NONE',  ( 0.000000000000000000, 0.000000000000000000, -1.000000000000000000 ) ) ;
#114 = ORIENTED_EDGE ( 'NONE', *, *, #277, .T. ) ;
#115 = AXIS2_PLACEMENT_3D ( 'NONE', #186, #122, #86 ) ;
#116 = ORIENTED_EDGE ( 'NONE', *, *, #167, .T. ) ;
#117 = DIRECTION ( 'NONE',  ( -3.061616997868386099E-17, 1.000000000000000000, -0.000000000000000000 ) ) ;
#118 = AXIS2_PLACEMENT_3D ( 'NONE', #33, #267, #62 ) ;
#119 = FILL_AREA_STYLE ('',( #138 ) ) ;
#120 = ADVANCED_FACE ( 'NONE', ( #126 ), #225, .F. ) ;
#121 = CARTESIAN_POINT ( 'NONE',  ( 0.000000000000000000, 1.000000000000000000, 0.000000000000000000 ) ) ;
#122 = DIRECTION ( 'NONE',  ( -0.000000000000000000, -1.000000000000000000, -0.000000000000000000 ) ) ;
#123 = CYLINDRICAL_SURFACE ( 'NONE', #115, 0.1562500000000000000 ) ;
#124 = SURFACE_SIDE_STYLE ('',( #76 ) ) ;
#125 = AXIS2_PLACEMENT_3D ( 'NONE', #261, #117, #259 ) ;
#126 = FACE_OUTER_BOUND ( 'NONE', #67, .T. ) ;
#127 =( CONVERSION_BASED_UNIT ( 'INCH', #102 ) LENGTH_UNIT ( ) NAMED_UNIT ( #272 ) );
#128 = FACE_OUTER_BOUND ( 'NONE', #12, .T. ) ;
#129 = FACE_OUTER_BOUND ( 'NONE', #250, .T. ) ;
#130 = LINE ( 'NONE', #297, #196 ) ;
#131 =( GEOMETRIC_REPRESENTATION_CONTEXT ( 3 ) GLOBAL_UNCERTAINTY_ASSIGNED_CONTEXT ( ( #23 ) ) GLOBAL_UNIT_ASSIGNED_CONTEXT ( ( #127, #52, #107 ) ) REPRESENTATION_CONTEXT ( 'NONE', 'WORKASPACE' ) );
#132 =( NAMED_UNIT ( * ) SI_UNIT ( $, .STERADIAN. ) SOLID_ANGLE_UNIT ( ) );
#133 = ORIENTED_EDGE ( 'NONE', *, *, #277, .F. ) ;
#134 = DIRECTION ( 'NONE',  ( 0.000000000000000000, 0.000000000000000000, -1.000000000000000000 ) ) ;
#135 = PLANE ( 'NONE',  #218 ) ;
#136 = LENGTH_MEASURE_WITH_UNIT ( LENGTH_MEASURE( 0.02539999999999999897 ), #235 );
#137 = ORIENTED_EDGE ( 'NONE', *, *, #245, .F. ) ;
#138 = FILL_AREA_STYLE_COLOUR ( '', #253 ) ;
#139 = EDGE_LOOP ( 'NONE', ( #85, #296, #185, #112 ) ) ;
#140 = DIRECTION ( 'NONE',  ( -1.000000000000000000, 0.000000000000000000, 0.000000000000000000 ) ) ;
#141 = VECTOR ( 'NONE', #59, 39.37007874015748143 ) ;
#142 = FILL_AREA_STYLE_COLOUR ( '', #162 ) ;
#143 =( LENGTH_UNIT ( ) NAMED_UNIT ( * ) SI_UNIT ( $, .METRE. ) );
#144 =( CONVERSION_BASED_UNIT ( 'INCH', #74 ) LENGTH_UNIT ( ) NAMED_UNIT ( #34 ) );
#145 = DIMENSIONAL_EXPONENTS ( 1.000000000000000000, 0.000000000000000000, 0.000000000000000000, 0.000000000000000000, 0.000000000000000000, 0.000000000000000000, 0.000000000000000000 ) ;
#146 = UNCERTAINTY_MEASURE_WITH_UNIT (LENGTH_MEASURE( 1.000000000000000082E-05 ), #173, 'distance_accuracy_value', 'NONE');
#147 = CARTESIAN_POINT ( 'NONE',  ( 0.000000000000000000, 0.000000000000000000, 0.000000000000000000 ) ) ;
#148 = MECHANICAL_DESIGN_GEOMETRIC_PRESENTATION_REPRESENTATION (  '', ( #45 ), #234 ) ;
#149 = CYLINDRICAL_SURFACE ( 'NONE', #189, 0.1562500000000000000 ) ;
#150 = SURFACE_STYLE_FILL_AREA ( #51 ) ;
#151 = MANIFOLD_SOLID_BREP ( 'Revolve - Tool Body (Straight Shanked)', #25 ) ;
#152 = AXIS2_PLACEMENT_3D ( 'NONE', #305, #84, #134 ) ;
#153 = DIRECTION ( 'NONE',  ( 1.000000000000000000, 0.000000000000000000, 0.000000000000000000 ) ) ;
#154 = UNCERTAINTY_MEASURE_WITH_UNIT (LENGTH_MEASURE( 1.000000000000000082E-05 ), #36, 'distance_accuracy_value', 'NONE');
#155 = SURFACE_STYLE_FILL_AREA ( #192 ) ;
#156 = CYLINDRICAL_SURFACE ( 'NONE', #174, 0.1562500000000000833 ) ;
#157 = AXIS2_PLACEMENT_3D ( 'NONE', #181, #78, #113 ) ;
#158 =( GEOMETRIC_REPRESENTATION_CONTEXT ( 3 ) GLOBAL_UNCERTAINTY_ASSIGNED_CONTEXT ( ( #154 ) ) GLOBAL_UNIT_ASSIGNED_CONTEXT ( ( #36, #201, #231 ) ) REPRESENTATION_CONTEXT ( 'NONE', 'WORKASPACE' ) );
#159 = VERTEX_POINT ( 'NONE', #200 ) ;
#160 = DIRECTION ( 'NONE',  ( -1.000000000000000000, 0.000000000000000000, 0.000000000000000000 ) ) ;
#161 = EDGE_LOOP ( 'NONE', ( #90, #40 ) ) ;
#162 = COLOUR_RGB ( '',0.7921568627450980005, 0.8196078431372548767, 0.9333333333333333481 ) ;
#163 = ORIENTED_EDGE ( 'NONE', *, *, #30, .F. ) ;
#164 = UNCERTAINTY_MEASURE_WITH_UNIT (LENGTH_MEASURE( 1.000000000000000082E-05 ), #56, 'distance_accuracy_value', 'NONE');
#165 =( NAMED_UNIT ( * ) PLANE_ANGLE_UNIT ( ) SI_UNIT ( $, .RADIAN. ) );
#166 = ORIENTED_EDGE ( 'NONE', *, *, #262, .T. ) ;
#167 = EDGE_CURVE ( 'NONE', #278, #213, #93, .T. ) ;
#168 = FACE_OUTER_BOUND ( 'NONE', #139, .T. ) ;
#169 = DIMENSIONAL_EXPONENTS ( 1.000000000000000000, 0.000000000000000000, 0.000000000000000000, 0.000000000000000000, 0.000000000000000000, 0.000000000000000000, 0.000000000000000000 ) ;
#170 = AXIS2_PLACEMENT_3D ( 'NONE', #147, #24, #266 ) ;
#171 = CIRCLE ( 'NONE', #125, 0.1562500000000001110 ) ;
#172 = PRESENTATION_STYLE_ASSIGNMENT (( #246 ) ) ;
#173 =( CONVERSION_BASED_UNIT ( 'INCH', #243 ) LENGTH_UNIT ( ) NAMED_UNIT ( #68 ) );
#174 = AXIS2_PLACEMENT_3D ( 'NONE', #209, #111, #160 ) ;
#175 = ADVANCED_FACE ( 'NONE', ( #5 ), #103, .T. ) ;
#176 =( NAMED_UNIT ( * ) SI_UNIT ( $, .STERADIAN. ) SOLID_ANGLE_UNIT ( ) );
#177 = PRESENTATION_STYLE_ASSIGNMENT (( #242 ) ) ;
#178 =( LENGTH_UNIT ( ) NAMED_UNIT ( * ) SI_UNIT ( $, .METRE. ) );
#179 =( NAMED_UNIT ( * ) SI_UNIT ( $, .STERADIAN. ) SOLID_ANGLE_UNIT ( ) );
#180 = AXIS2_PLACEMENT_3D ( 'NONE', #268, #58, #153 ) ;
#181 = CARTESIAN_POINT ( 'NONE',  ( 0.000000000000000000, 0.000000000000000000, 0.000000000000000000 ) ) ;
#182 = LENGTH_MEASURE_WITH_UNIT ( LENGTH_MEASURE( 0.02539999999999999897 ), #29 );
#183 = CARTESIAN_POINT ( 'NONE',  ( 7.323045813778617637E-35, 1.000000000000000000, 0.000000000000000000 ) ) ;
#184 = DIMENSIONAL_EXPONENTS ( 1.000000000000000000, 0.000000000000000000, 0.000000000000000000, 0.000000000000000000, 0.000000000000000000, 0.000000000000000000, 0.000000000000000000 ) ;
#185 = ORIENTED_EDGE ( 'NONE', *, *, #35, .F. ) ;
#186 = CARTESIAN_POINT ( 'NONE',  ( 0.000000000000000000, 0.000000000000000000, 0.000000000000000000 ) ) ;
#187 = STYLED_ITEM ( 'NONE', ( #177 ), #18 ) ;
#188 =( LENGTH_UNIT ( ) NAMED_UNIT ( * ) SI_UNIT ( $, .METRE. ) );
#189 = AXIS2_PLACEMENT_3D ( 'NONE', #110, #206, #244 ) ;
#190 = APPLICATION_CONTEXT ( 'automotive_design' ) ;
#191 = CARTESIAN_POINT ( 'NONE',  ( 7.582401355855259480E-33, 1.000000000000000000, 0.000000000000000000 ) ) ;
#192 = FILL_AREA_STYLE ('',( #94 ) ) ;
#193 = AXIS2_PLACEMENT_3D ( 'NONE', #292, #287, #294 ) ;
#194 = VERTEX_POINT ( 'NONE', #53 ) ;
#195 =( GEOMETRIC_REPRESENTATION_CONTEXT ( 3 ) GLOBAL_UNCERTAINTY_ASSIGNED_CONTEXT ( ( #164 ) ) GLOBAL_UNIT_ASSIGNED_CONTEXT ( ( #56, #81, #285 ) ) REPRESENTATION_CONTEXT ( 'NONE', 'WORKASPACE' ) );
#196 = VECTOR ( 'NONE', #270, 39.37007874015748143 ) ;
#197 = EDGE_CURVE ( 'NONE', #159, #213, #17, .T. ) ;
#198 = UNCERTAINTY_MEASURE_WITH_UNIT (LENGTH_MEASURE( 1.000000000000000082E-05 ), #144, 'distance_accuracy_value', 'NONE');
#199 = LENGTH_MEASURE_WITH_UNIT ( LENGTH_MEASURE( 0.02539999999999999897 ), #260 );
#200 = CARTESIAN_POINT ( 'NONE',  ( 0.1562500000000000278, 3.000000000000000444, 1.913510623667740388E-17 ) ) ;
#201 =( NAMED_UNIT ( * ) PLANE_ANGLE_UNIT ( ) SI_UNIT ( $, .RADIAN. ) );
#202 = DIRECTION ( 'NONE',  ( -0.000000000000000000, -1.000000000000000000, -0.000000000000000000 ) ) ;
#203 = CYLINDRICAL_SURFACE ( 'NONE', #193, 0.1562500000000000833 ) ;
#204 = PRODUCT_RELATED_PRODUCT_CATEGORY ( 'part', '', ( #212 ) ) ;
#205 = DIRECTION ( 'NONE',  ( -3.061616997868386099E-17, 1.000000000000000000, 0.000000000000000000 ) ) ;
#206 = DIRECTION ( 'NONE',  ( -0.000000000000000000, -1.000000000000000000, -0.000000000000000000 ) ) ;
#207 = LINE ( 'NONE', #7, #141 ) ;
#208 = ORIENTED_EDGE ( 'NONE', *, *, #21, .T. ) ;
#209 = CARTESIAN_POINT ( 'NONE',  ( -6.123233995736772199E-17, 3.000000000000000444, 0.000000000000000000 ) ) ;
#210 = ORIENTED_EDGE ( 'NONE', *, *, #1, .F. ) ;
#211 = ORIENTED_EDGE ( 'NONE', *, *, #1, .T. ) ;
#212 = PRODUCT ( '44197', '44197', '', ( #248 ) ) ;
#213 = VERTEX_POINT ( 'NONE', #77 ) ;
#214 = MECHANICAL_DESIGN_GEOMETRIC_PRESENTATION_REPRESENTATION (  '', ( #303 ), #286 ) ;
#215 = SURFACE_STYLE_USAGE ( .BOTH. , #233 ) ;
#216 = DIRECTION ( 'NONE',  ( -0.000000000000000000, -1.000000000000000000, -0.000000000000000000 ) ) ;
#217 = APPLICATION_CONTEXT ( 'automotive_design' ) ;
#218 = AXIS2_PLACEMENT_3D ( 'NONE', #256, #19, #257 ) ;
#219 = SURFACE_SIDE_STYLE ('',( #155 ) ) ;
#220 = CARTESIAN_POINT ( 'NONE',  ( 7.582401355855259480E-33, 1.000000000000000000, 0.000000000000000000 ) ) ;
#221 = DIRECTION ( 'NONE',  ( 3.061616997868386099E-17, -1.000000000000000000, 0.000000000000000000 ) ) ;
#222 = MECHANICAL_DESIGN_GEOMETRIC_PRESENTATION_REPRESENTATION (  '', ( #187 ), #195 ) ;
#223 = PRESENTATION_STYLE_ASSIGNMENT (( #9 ) ) ;
#224 = PRESENTATION_LAYER_ASSIGNMENT (  '', '', ( #45 ) ) ;
#225 = PLANE ( 'NONE',  #32 ) ;
#226 = FILL_AREA_STYLE_COLOUR ( '', #65 ) ;
#227 = PLANE ( 'NONE',  #80 ) ;
#228 = DIRECTION ( 'NONE',  ( -3.061616997868386099E-17, 1.000000000000000000, -0.000000000000000000 ) ) ;
#229 = CIRCLE ( 'NONE', #100, 0.1562500000000000278 ) ;
#230 = MECHANICAL_DESIGN_GEOMETRIC_PRESENTATION_REPRESENTATION (  '', ( #8 ), #240 ) ;
#231 =( NAMED_UNIT ( * ) SI_UNIT ( $, .STERADIAN. ) SOLID_ANGLE_UNIT ( ) );
#232 = ADVANCED_BREP_SHAPE_REPRESENTATION ( '44197', ( #46, #151, #180 ), #158 ) ;
#233 = SURFACE_SIDE_STYLE ('',( #63 ) ) ;
#234 =( GEOMETRIC_REPRESENTATION_CONTEXT ( 3 ) GLOBAL_UNCERTAINTY_ASSIGNED_CONTEXT ( ( #198 ) ) GLOBAL_UNIT_ASSIGNED_CONTEXT ( ( #144, #20, #176 ) ) REPRESENTATION_CONTEXT ( 'NONE', 'WORKASPACE' ) );
#235 =( LENGTH_UNIT ( ) NAMED_UNIT ( * ) SI_UNIT ( $, .METRE. ) );
#236 = VERTEX_POINT ( 'NONE', #11 ) ;
#237 = ORIENTED_EDGE ( 'NONE', *, *, #66, .F. ) ;
#238 = ADVANCED_FACE ( 'NONE', ( #128 ), #227, .F. ) ;
#239 = FACE_OUTER_BOUND ( 'NONE', #41, .T. ) ;
#240 =( GEOMETRIC_REPRESENTATION_CONTEXT ( 3 ) GLOBAL_UNCERTAINTY_ASSIGNED_CONTEXT ( ( #146 ) ) GLOBAL_UNIT_ASSIGNED_CONTEXT ( ( #173, #54, #179 ) ) REPRESENTATION_CONTEXT ( 'NONE', 'WORKASPACE' ) );
#241 = PRODUCT_DEFINITION_FORMATION_WITH_SPECIFIED_SOURCE ( 'ANY', '', #212, .NOT_KNOWN. ) ;
#242 = SURFACE_STYLE_USAGE ( .BOTH. , #70 ) ;
#243 = LENGTH_MEASURE_WITH_UNIT ( LENGTH_MEASURE( 0.02539999999999999897 ), #263 );
#244 = DIRECTION ( 'NONE',  ( 0.000000000000000000, 0.000000000000000000, -1.000000000000000000 ) ) ;
#245 = EDGE_CURVE ( 'NONE', #38, #302, #254, .T. ) ;
#246 = SURFACE_STYLE_USAGE ( .BOTH. , #219 ) ;
#247 = CIRCLE ( 'NONE', #60, 0.1562500000000000278 ) ;
#248 = PRODUCT_CONTEXT ( 'NONE', #190, 'mechanical' ) ;
#249 = CARTESIAN_POINT ( 'NONE',  ( 0.000000000000000000, 1.000000000000000000, -0.1562500000000000278 ) ) ;
#250 = EDGE_LOOP ( 'NONE', ( #237, #252, #166, #88 ) ) ;
#251 = LENGTH_MEASURE_WITH_UNIT ( LENGTH_MEASURE( 0.02539999999999999897 ), #188 );
#252 = ORIENTED_EDGE ( 'NONE', *, *, #245, .T. ) ;
#253 = COLOUR_RGB ( '',1.000000000000000000, 0.000000000000000000, 0.000000000000000000 ) ;
#254 = CIRCLE ( 'NONE', #118, 0.1562500000000000278 ) ;
#255 = ADVANCED_FACE ( 'NONE', ( #289 ), #156, .T. ) ;
#256 = CARTESIAN_POINT ( 'NONE',  ( 0.000000000000000000, 1.000000000000000000, 0.000000000000000000 ) ) ;
#257 = DIRECTION ( 'NONE',  ( 0.000000000000000000, -0.000000000000000000, 1.000000000000000000 ) ) ;
#258 = PRESENTATION_LAYER_ASSIGNMENT (  '', '', ( #303 ) ) ;
#259 = DIRECTION ( 'NONE',  ( -1.000000000000000000, 0.000000000000000000, 0.000000000000000000 ) ) ;
#260 =( LENGTH_UNIT ( ) NAMED_UNIT ( * ) SI_UNIT ( $, .METRE. ) );
#261 = CARTESIAN_POINT ( 'NONE',  ( -6.123233995736772199E-17, 3.000000000000000444, 0.000000000000000000 ) ) ;
#262 = EDGE_CURVE ( 'NONE', #302, #194, #130, .T. ) ;
#263 =( LENGTH_UNIT ( ) NAMED_UNIT ( * ) SI_UNIT ( $, .METRE. ) );
#264 =( NAMED_UNIT ( * ) PLANE_ANGLE_UNIT ( ) SI_UNIT ( $, .RADIAN. ) );
#265 = AXIS2_PLACEMENT_3D ( 'NONE', #191, #275, #140 ) ;
#266 = DIRECTION ( 'NONE',  ( 0.000000000000000000, 0.000000000000000000, -1.000000000000000000 ) ) ;
#267 = DIRECTION ( 'NONE',  ( -0.000000000000000000, -1.000000000000000000, -0.000000000000000000 ) ) ;
#268 = CARTESIAN_POINT ( 'NONE',  ( 0.000000000000000000, 0.000000000000000000, 0.000000000000000000 ) ) ;
#269 = LINE ( 'NONE', #75, #101 ) ;
#270 = DIRECTION ( 'NONE',  ( -0.000000000000000000, -1.000000000000000000, -0.000000000000000000 ) ) ;
#271 = ORIENTED_EDGE ( 'NONE', *, *, #10, .F. ) ;
#272 = DIMENSIONAL_EXPONENTS ( 1.000000000000000000, 0.000000000000000000, 0.000000000000000000, 0.000000000000000000, 0.000000000000000000, 0.000000000000000000, 0.000000000000000000 ) ;
#273 = COLOUR_RGB ( '',1.000000000000000000, 0.000000000000000000, 0.000000000000000000 ) ;
#274 = PRESENTATION_LAYER_ASSIGNMENT (  '', '', ( #281 ) ) ;
#275 = DIRECTION ( 'NONE',  ( -3.061616997868386099E-17, 1.000000000000000000, -0.000000000000000000 ) ) ;
#276 = PRODUCT_DEFINITION_SHAPE ( 'NONE', 'NONE',  #104 ) ;
#277 = EDGE_CURVE ( 'NONE', #236, #159, #207, .T. ) ;
#278 = VERTEX_POINT ( 'NONE', #55 ) ;
#279 = EDGE_LOOP ( 'NONE', ( #208, #114, #163, #298 ) ) ;
#280 = DIRECTION ( 'NONE',  ( 0.000000000000000000, 0.000000000000000000, -1.000000000000000000 ) ) ;
#281 = STYLED_ITEM ( 'NONE', ( #223 ), #69 ) ;
#282 = FILL_AREA_STYLE ('',( #306 ) ) ;
#283 = SURFACE_STYLE_USAGE ( .BOTH. , #47 ) ;
#284 = FILL_AREA_STYLE ('',( #142 ) ) ;
#285 =( NAMED_UNIT ( * ) SI_UNIT ( $, .STERADIAN. ) SOLID_ANGLE_UNIT ( ) );
#286 =( GEOMETRIC_REPRESENTATION_CONTEXT ( 3 ) GLOBAL_UNCERTAINTY_ASSIGNED_CONTEXT ( ( #304 ) ) GLOBAL_UNIT_ASSIGNED_CONTEXT ( ( #73, #264, #132 ) ) REPRESENTATION_CONTEXT ( 'NONE', 'WORKASPACE' ) );
#287 = DIRECTION ( 'NONE',  ( -3.061616997868386099E-17, 1.000000000000000000, -0.000000000000000000 ) ) ;
#288 = FILL_AREA_STYLE ('',( #226 ) ) ;
#289 = FACE_OUTER_BOUND ( 'NONE', #37, .T. ) ;
#290 = CIRCLE ( 'NONE', #265, 0.1562500000000000278 ) ;
#291 = STYLED_ITEM ( 'NONE', ( #91 ), #42 ) ;
#292 = CARTESIAN_POINT ( 'NONE',  ( -6.123233995736772199E-17, 3.000000000000000444, 0.000000000000000000 ) ) ;
#293 = CARTESIAN_POINT ( 'NONE',  ( 1.913510623667739463E-17, 0.000000000000000000, 0.1562500000000000000 ) ) ;
#294 = DIRECTION ( 'NONE',  ( -1.000000000000000000, 0.000000000000000000, 0.000000000000000000 ) ) ;
#295 = DIRECTION ( 'NONE',  ( -3.061616997868386099E-17, 1.000000000000000000, -0.000000000000000000 ) ) ;
#296 = ORIENTED_EDGE ( 'NONE', *, *, #66, .T. ) ;
#297 = CARTESIAN_POINT ( 'NONE',  ( 0.000000000000000000, 0.000000000000000000, -0.1562500000000000000 ) ) ;
#298 = ORIENTED_EDGE ( 'NONE', *, *, #167, .F. ) ;
#299 = VERTEX_POINT ( 'NONE', #293 ) ;
#300 = ORIENTED_EDGE ( 'NONE', *, *, #21, .F. ) ;
#301 =( CONVERSION_BASED_UNIT ( 'INCH', #136 ) LENGTH_UNIT ( ) NAMED_UNIT ( #184 ) );
#302 = VERTEX_POINT ( 'NONE', #249 ) ;
#303 = STYLED_ITEM ( 'NONE', ( #97 ), #175 ) ;
#304 = UNCERTAINTY_MEASURE_WITH_UNIT (LENGTH_MEASURE( 1.000000000000000082E-05 ), #73, 'distance_accuracy_value', 'NONE');
#305 = CARTESIAN_POINT ( 'NONE',  ( 0.000000000000000000, 0.000000000000000000, 0.000000000000000000 ) ) ;
#306 = FILL_AREA_STYLE_COLOUR ( '', #273 ) ;
#307 = MECHANICAL_DESIGN_GEOMETRIC_PRESENTATION_REPRESENTATION (  '', ( #281 ), #131 ) ;
#308 = AXIS2_PLACEMENT_3D ( 'NONE', #13, #295, #108 ) ;
#309 = DIRECTION ( 'NONE',  ( -3.061616997868386099E-17, 1.000000000000000000, -0.000000000000000000 ) ) ;
ENDSEC;
END-ISO-10303-21;
