ISO-10303-21;
HEADER;
FILE_DESCRIPTION (( 'STEP AP214' ),
    '1' );
FILE_NAME ('Micro_SME-029-2X.STEP',
    '2021-09-02T11:34:02',
    ( '' ),
    ( '' ),
    'SwSTEP 2.0',
    'SolidWorks 2020',
    '' );
FILE_SCHEMA (( 'AUTOMOTIVE_DESIGN' ));
ENDSEC;

DATA;
#1 = CONICAL_SURFACE ( 'NONE', #95, 0.01448549999999999664, 0.1745329251994338637 ) ;
#2 = STYLED_ITEM ( 'NONE', ( #272 ), #79 ) ;
#3 = DIRECTION ( 'NONE',  ( -1.000000000000000000, 0.0000000000000000000, 1.224646799147353700E-16 ) ) ;
#4 = CYLINDRICAL_SURFACE ( 'NONE', #56, 0.01448549999999999838 ) ;
#5 = DIRECTION ( 'NONE',  ( 1.000000000000000000, 0.0000000000000000000, 0.0000000000000000000 ) ) ;
#6 = DIRECTION ( 'NONE',  ( -1.224646799147353700E-16, -0.0000000000000000000, -1.000000000000000000 ) ) ;
#7 = CARTESIAN_POINT ( 'NONE',  ( 0.0000000000000000000, 0.0000000000000000000, 1.500000000000000222 ) ) ;
#8 = DIRECTION ( 'NONE',  ( -1.000000000000000000, 0.0000000000000000000, 0.0000000000000000000 ) ) ;
#9 = CONICAL_SURFACE ( 'NONE', #172, 0.04750000000000064587, 0.7853981633974466137 ) ;
#10 = MECHANICAL_DESIGN_GEOMETRIC_PRESENTATION_REPRESENTATION (  '', ( #2 ), #286 ) ;
#11 = PRODUCT_DEFINITION ( 'UNKNOWN', '', #262, #86 ) ;
#12 =( LENGTH_UNIT ( ) NAMED_UNIT ( * ) SI_UNIT ( $, .METRE. ) );
#13 = ORIENTED_EDGE ( 'NONE', *, *, #53, .F. ) ;
#14 =( CONVERSION_BASED_UNIT ( 'INCH', #216 ) LENGTH_UNIT ( ) NAMED_UNIT ( #42 ) );
#15 = ORIENTED_EDGE ( 'NONE', *, *, #138, .T. ) ;
#16 = SURFACE_STYLE_FILL_AREA ( #188 ) ;
#17 = CIRCLE ( 'NONE', #155, 0.04750000000000064587 ) ;
#18 = EDGE_LOOP ( 'NONE', ( #93, #15 ) ) ;
#19 = UNCERTAINTY_MEASURE_WITH_UNIT (LENGTH_MEASURE( 1.000000000000000082E-05 ), #105, 'distance_accuracy_value', 'NONE');
#20 = APPLICATION_CONTEXT ( 'automotive_design' ) ;
#21 = DIRECTION ( 'NONE',  ( -1.000000000000000000, 0.0000000000000000000, 0.0000000000000000000 ) ) ;
#22 = FILL_AREA_STYLE_COLOUR ( '', #257 ) ;
#23 = SURFACE_SIDE_STYLE ('',( #153 ) ) ;
#24 = DIRECTION ( 'NONE',  ( 1.000000000000000000, 0.0000000000000000000, 0.0000000000000000000 ) ) ;
#25 = CARTESIAN_POINT ( 'NONE',  ( 0.0000000000000000000, 0.0000000000000000000, 0.0000000000000000000 ) ) ;
#26 = CARTESIAN_POINT ( 'NONE',  ( -0.01448549999999999838, 0.0000000000000000000, 1.773962120904899164E-18 ) ) ;
#27 = DIRECTION ( 'NONE',  ( 0.0000000000000000000, 0.0000000000000000000, 1.000000000000000000 ) ) ;
#28 = AXIS2_PLACEMENT_3D ( 'NONE', #210, #47, #131 ) ;
#29 = CARTESIAN_POINT ( 'NONE',  ( 0.01448550000000000185, 0.0000000000000000000, 0.04300000000000000350 ) ) ;
#30 = ORIENTED_EDGE ( 'NONE', *, *, #283, .F. ) ;
#31 = DIRECTION ( 'NONE',  ( -1.000000000000000000, 0.0000000000000000000, 1.224646799147353700E-16 ) ) ;
#32 = EDGE_CURVE ( 'NONE', #142, #168, #254, .T. ) ;
#33 = ORIENTED_EDGE ( 'NONE', *, *, #159, .T. ) ;
#34 = VECTOR ( 'NONE', #261, 39.37007874015748143 ) ;
#35 = CARTESIAN_POINT ( 'NONE',  ( 5.265981236333620997E-18, 0.0000000000000000000, 0.04300000000000000350 ) ) ;
#36 = CARTESIAN_POINT ( 'NONE',  ( 0.06250000000000002776, 7.654042494670959086E-18, 1.500000000000000222 ) ) ;
#37 = ORIENTED_EDGE ( 'NONE', *, *, #293, .T. ) ;
#38 = LINE ( 'NONE', #36, #89 ) ;
#39 = STYLED_ITEM ( 'NONE', ( #136 ), #71 ) ;
#40 = ADVANCED_FACE ( 'NONE', ( #244 ), #58, .T. ) ;
#41 = CARTESIAN_POINT ( 'NONE',  ( 3.861357415796382760E-17, 0.0000000000000000000, 0.3153037609280331943 ) ) ;
#42 = DIMENSIONAL_EXPONENTS ( 1.000000000000000000, 0.0000000000000000000, 0.0000000000000000000, 0.0000000000000000000, 0.0000000000000000000, 0.0000000000000000000, 0.0000000000000000000 ) ;
#43 = ORIENTED_EDGE ( 'NONE', *, *, #236, .T. ) ;
#44 = ADVANCED_FACE ( 'NONE', ( #178 ), #148, .T. ) ;
#45 = AXIS2_PLACEMENT_3D ( 'NONE', #145, #98, #240 ) ;
#46 = CIRCLE ( 'NONE', #121, 0.06250000000000002776 ) ;
#47 = DIRECTION ( 'NONE',  ( -0.0000000000000000000, -0.0000000000000000000, -1.000000000000000000 ) ) ;
#48 = DIRECTION ( 'NONE',  ( -1.224646799147353700E-16, -0.0000000000000000000, -1.000000000000000000 ) ) ;
#49 = DIRECTION ( 'NONE',  ( 0.1736481776669313581, 0.0000000000000000000, 0.9848077530122077983 ) ) ;
#50 = DIRECTION ( 'NONE',  ( -1.000000000000000000, 0.0000000000000000000, 0.0000000000000000000 ) ) ;
#51 = CARTESIAN_POINT ( 'NONE',  ( 0.0000000000000000000, 0.0000000000000000000, 1.485000000000000764 ) ) ;
#52 = DIRECTION ( 'NONE',  ( 1.000000000000000000, 0.0000000000000000000, 0.0000000000000000000 ) ) ;
#53 = EDGE_CURVE ( 'NONE', #122, #287, #218, .T. ) ;
#54 = ORIENTED_EDGE ( 'NONE', *, *, #248, .T. ) ;
#55 =( NAMED_UNIT ( * ) SI_UNIT ( $, .STERADIAN. ) SOLID_ANGLE_UNIT ( ) );
#56 = AXIS2_PLACEMENT_3D ( 'NONE', #25, #82, #3 ) ;
#57 = DIRECTION ( 'NONE',  ( -1.000000000000000000, 0.0000000000000000000, 1.224646799147353700E-16 ) ) ;
#58 = CONICAL_SURFACE ( 'NONE', #112, 0.04750000000000064587, 0.7853981633974466137 ) ;
#59 = ORIENTED_EDGE ( 'NONE', *, *, #115, .T. ) ;
#60 = ADVANCED_FACE ( 'NONE', ( #152 ), #296, .T. ) ;
#61 = CARTESIAN_POINT ( 'NONE',  ( 0.0000000000000000000, 0.0000000000000000000, 1.500000000000000222 ) ) ;
#62 = LINE ( 'NONE', #228, #83 ) ;
#63 =( NAMED_UNIT ( * ) PLANE_ANGLE_UNIT ( ) SI_UNIT ( $, .RADIAN. ) );
#64 = CARTESIAN_POINT ( 'NONE',  ( -0.01448549999999999838, 0.0000000000000000000, 3.547924241809798328E-18 ) ) ;
#65 = DIRECTION ( 'NONE',  ( 1.224646799147353700E-16, 0.0000000000000000000, 1.000000000000000000 ) ) ;
#66 = FACE_OUTER_BOUND ( 'NONE', #18, .T. ) ;
#67 = VERTEX_POINT ( 'NONE', #125 ) ;
#68 = ORIENTED_EDGE ( 'NONE', *, *, #278, .T. ) ;
#69 = ORIENTED_EDGE ( 'NONE', *, *, #129, .F. ) ;
#70 = PRODUCT ( 'Micro_SME-029-2X', 'Micro_SME-029-2X', '', ( #193 ) ) ;
#71 = ADVANCED_BREP_SHAPE_REPRESENTATION ( 'Micro_SME-029-2X', ( #79, #227 ), #194 ) ;
#72 = ORIENTED_EDGE ( 'NONE', *, *, #84, .T. ) ;
#73 = VECTOR ( 'NONE', #212, 39.37007874015748143 ) ;
#74 = ADVANCED_FACE ( 'NONE', ( #223 ), #4, .T. ) ;
#75 = EDGE_LOOP ( 'NONE', ( #108, #37, #13, #30 ) ) ;
#76 = EDGE_LOOP ( 'NONE', ( #185, #68, #119, #197 ) ) ;
#77 = CARTESIAN_POINT ( 'NONE',  ( 0.06250000000000006939, 7.654042494670963708E-18, 0.3153037609280331943 ) ) ;
#78 = CIRCLE ( 'NONE', #173, 0.04750000000000064587 ) ;
#79 = MANIFOLD_SOLID_BREP ( 'Cut-Revolve1', #149 ) ;
#80 = DIRECTION ( 'NONE',  ( 1.000000000000000000, 0.0000000000000000000, -0.0000000000000000000 ) ) ;
#81 =( NAMED_UNIT ( * ) SI_UNIT ( $, .STERADIAN. ) SOLID_ANGLE_UNIT ( ) );
#82 = DIRECTION ( 'NONE',  ( -1.224646799147353700E-16, -0.0000000000000000000, -1.000000000000000000 ) ) ;
#83 = VECTOR ( 'NONE', #110, 39.37007874015747433 ) ;
#84 = EDGE_CURVE ( 'NONE', #170, #267, #78, .T. ) ;
#85 = CARTESIAN_POINT ( 'NONE',  ( 0.0000000000000000000, 0.0000000000000000000, 0.0000000000000000000 ) ) ;
#86 = PRODUCT_DEFINITION_CONTEXT ( 'detailed design', #165, 'design' ) ;
#87 = ORIENTED_EDGE ( 'NONE', *, *, #84, .F. ) ;
#88 = DIRECTION ( 'NONE',  ( 0.0000000000000000000, 0.0000000000000000000, 1.000000000000000000 ) ) ;
#89 = VECTOR ( 'NONE', #268, 39.37007874015748143 ) ;
#90 = AXIS2_PLACEMENT_3D ( 'NONE', #221, #225, #57 ) ;
#91 = DIRECTION ( 'NONE',  ( 0.0000000000000000000, 0.0000000000000000000, -1.000000000000000000 ) ) ;
#92 = DIRECTION ( 'NONE',  ( 1.000000000000000000, 0.0000000000000000000, 0.0000000000000000000 ) ) ;
#93 = ORIENTED_EDGE ( 'NONE', *, *, #32, .T. ) ;
#94 = CYLINDRICAL_SURFACE ( 'NONE', #28, 0.06250000000000002776 ) ;
#95 = AXIS2_PLACEMENT_3D ( 'NONE', #160, #253, #92 ) ;
#96 = ORIENTED_EDGE ( 'NONE', *, *, #101, .F. ) ;
#97 = CARTESIAN_POINT ( 'NONE',  ( 2.172477033174835496E-34, 0.0000000000000000000, 1.773962120904899164E-18 ) ) ;
#98 = DIRECTION ( 'NONE',  ( 0.0000000000000000000, 0.0000000000000000000, -1.000000000000000000 ) ) ;
#99 = ORIENTED_EDGE ( 'NONE', *, *, #53, .T. ) ;
#100 = VERTEX_POINT ( 'NONE', #29 ) ;
#101 = EDGE_CURVE ( 'NONE', #237, #203, #46, .T. ) ;
#102 = SURFACE_SIDE_STYLE ('',( #16 ) ) ;
#103 = DIRECTION ( 'NONE',  ( -1.224646799147353700E-16, -0.0000000000000000000, -1.000000000000000000 ) ) ;
#104 = FILL_AREA_STYLE ('',( #22 ) ) ;
#105 =( CONVERSION_BASED_UNIT ( 'INCH', #224 ) LENGTH_UNIT ( ) NAMED_UNIT ( #245 ) );
#106 = EDGE_CURVE ( 'NONE', #67, #100, #295, .T. ) ;
#107 = ORIENTED_EDGE ( 'NONE', *, *, #206, .F. ) ;
#108 = ORIENTED_EDGE ( 'NONE', *, *, #101, .T. ) ;
#109 = ADVANCED_FACE ( 'NONE', ( #183 ), #144, .T. ) ;
#110 = DIRECTION ( 'NONE',  ( -0.1736481776669311639, 2.126576849575783008E-17, 0.9848077530122080203 ) ) ;
#111 = DIRECTION ( 'NONE',  ( 1.000000000000000000, 0.0000000000000000000, 0.0000000000000000000 ) ) ;
#112 = AXIS2_PLACEMENT_3D ( 'NONE', #297, #277, #21 ) ;
#113 = AXIS2_PLACEMENT_3D ( 'NONE', #184, #65, #5 ) ;
#114 = DIRECTION ( 'NONE',  ( 1.000000000000000000, 0.0000000000000000000, -0.0000000000000000000 ) ) ;
#115 = EDGE_CURVE ( 'NONE', #267, #203, #157, .T. ) ;
#116 = ORIENTED_EDGE ( 'NONE', *, *, #138, .F. ) ;
#117 = LINE ( 'NONE', #26, #246 ) ;
#118 = ORIENTED_EDGE ( 'NONE', *, *, #129, .T. ) ;
#119 = ORIENTED_EDGE ( 'NONE', *, *, #283, .T. ) ;
#120 = CARTESIAN_POINT ( 'NONE',  ( 0.04750000000000064587, 6.735557395310483192E-18, 1.500000000000000222 ) ) ;
#121 = AXIS2_PLACEMENT_3D ( 'NONE', #51, #91, #180 ) ;
#122 = VERTEX_POINT ( 'NONE', #251 ) ;
#123 = DIRECTION ( 'NONE',  ( 0.0000000000000000000, 0.0000000000000000000, -1.000000000000000000 ) ) ;
#124 =( GEOMETRIC_REPRESENTATION_CONTEXT ( 3 ) GLOBAL_UNCERTAINTY_ASSIGNED_CONTEXT ( ( #192 ) ) GLOBAL_UNIT_ASSIGNED_CONTEXT ( ( #167, #243, #81 ) ) REPRESENTATION_CONTEXT ( 'NONE', 'WORKASPACE' ) );
#125 = CARTESIAN_POINT ( 'NONE',  ( -0.01448549999999999317, 4.714002307787929895E-18, 0.04300000000000000350 ) ) ;
#126 = ADVANCED_FACE ( 'NONE', ( #66 ), #135, .F. ) ;
#127 = DIRECTION ( 'NONE',  ( 1.000000000000000000, 0.0000000000000000000, 0.0000000000000000000 ) ) ;
#128 = AXIS2_PLACEMENT_3D ( 'NONE', #164, #219, #52 ) ;
#129 = EDGE_CURVE ( 'NONE', #100, #287, #282, .T. ) ;
#130 = AXIS2_PLACEMENT_3D ( 'NONE', #41, #103, #127 ) ;
#131 = DIRECTION ( 'NONE',  ( -1.000000000000000000, 0.0000000000000000000, 0.0000000000000000000 ) ) ;
#132 = CARTESIAN_POINT ( 'NONE',  ( 0.01448549999999999838, 1.773962120904898394E-18, 0.0000000000000000000 ) ) ;
#133 = ORIENTED_EDGE ( 'NONE', *, *, #263, .F. ) ;
#134 = FACE_OUTER_BOUND ( 'NONE', #75, .T. ) ;
#135 = PLANE ( 'NONE',  #231 ) ;
#136 = PRESENTATION_STYLE_ASSIGNMENT (( #169 ) ) ;
#137 = COLOUR_RGB ( '',0.7921568627450980005, 0.8196078431372548767, 0.9333333333333333481 ) ;
#138 = EDGE_CURVE ( 'NONE', #168, #142, #285, .T. ) ;
#139 = DIRECTION ( 'NONE',  ( -1.000000000000000000, 0.0000000000000000000, 0.0000000000000000000 ) ) ;
#140 = PRODUCT_DEFINITION_SHAPE ( 'NONE', 'NONE',  #11 ) ;
#141 = LINE ( 'NONE', #239, #222 ) ;
#142 = VERTEX_POINT ( 'NONE', #64 ) ;
#143 = ORIENTED_EDGE ( 'NONE', *, *, #115, .F. ) ;
#144 = CONICAL_SURFACE ( 'NONE', #113, 0.01448549999999999664, 0.1745329251994338637 ) ;
#145 = CARTESIAN_POINT ( 'NONE',  ( 0.0000000000000000000, 0.0000000000000000000, 1.485000000000000764 ) ) ;
#146 = DIRECTION ( 'NONE',  ( -1.224646799147353700E-16, -0.0000000000000000000, -1.000000000000000000 ) ) ;
#147 = SHAPE_DEFINITION_REPRESENTATION ( #140, #71 ) ;
#148 = CYLINDRICAL_SURFACE ( 'NONE', #177, 0.01448549999999999838 ) ;
#149 = CLOSED_SHELL ( 'NONE', ( #74, #150, #40, #182, #189, #60, #226, #109, #44, #126 ) ) ;
#150 = ADVANCED_FACE ( 'NONE', ( #158 ), #1, .T. ) ;
#151 = PRESENTATION_LAYER_ASSIGNMENT (  '', '', ( #39 ) ) ;
#152 = FACE_OUTER_BOUND ( 'NONE', #241, .T. ) ;
#153 = SURFACE_STYLE_FILL_AREA ( #104 ) ;
#154 = EDGE_CURVE ( 'NONE', #67, #142, #117, .T. ) ;
#155 = AXIS2_PLACEMENT_3D ( 'NONE', #7, #27, #111 ) ;
#156 = AXIS2_PLACEMENT_3D ( 'NONE', #279, #207, #50 ) ;
#157 = LINE ( 'NONE', #252, #294 ) ;
#158 = FACE_OUTER_BOUND ( 'NONE', #163, .T. ) ;
#159 = EDGE_CURVE ( 'NONE', #267, #170, #17, .T. ) ;
#160 = CARTESIAN_POINT ( 'NONE',  ( 5.265981236333620997E-18, 0.0000000000000000000, 0.04300000000000000350 ) ) ;
#161 = AXIS2_PLACEMENT_3D ( 'NONE', #35, #289, #288 ) ;
#162 = CARTESIAN_POINT ( 'NONE',  ( 0.0000000000000000000, 0.0000000000000000000, 1.500000000000000222 ) ) ;
#163 = EDGE_LOOP ( 'NONE', ( #174, #215, #99, #69 ) ) ;
#164 = CARTESIAN_POINT ( 'NONE',  ( 3.861357415796382760E-17, 0.0000000000000000000, 0.3153037609280331943 ) ) ;
#165 = APPLICATION_CONTEXT ( 'automotive_design' ) ;
#166 = ORIENTED_EDGE ( 'NONE', *, *, #154, .F. ) ;
#167 =( CONVERSION_BASED_UNIT ( 'INCH', #238 ) LENGTH_UNIT ( ) NAMED_UNIT ( #299 ) );
#168 = VERTEX_POINT ( 'NONE', #132 ) ;
#169 = SURFACE_STYLE_USAGE ( .BOTH. , #102 ) ;
#170 = VERTEX_POINT ( 'NONE', #255 ) ;
#171 = FACE_OUTER_BOUND ( 'NONE', #213, .T. ) ;
#172 = AXIS2_PLACEMENT_3D ( 'NONE', #265, #123, #139 ) ;
#173 = AXIS2_PLACEMENT_3D ( 'NONE', #250, #88, #229 ) ;
#174 = ORIENTED_EDGE ( 'NONE', *, *, #106, .F. ) ;
#175 = SURFACE_STYLE_USAGE ( .BOTH. , #23 ) ;
#176 =( LENGTH_UNIT ( ) NAMED_UNIT ( * ) SI_UNIT ( $, .METRE. ) );
#177 = AXIS2_PLACEMENT_3D ( 'NONE', #85, #146, #298 ) ;
#178 = FACE_OUTER_BOUND ( 'NONE', #190, .T. ) ;
#179 = ORIENTED_EDGE ( 'NONE', *, *, #263, .T. ) ;
#180 = DIRECTION ( 'NONE',  ( 1.000000000000000000, 0.0000000000000000000, 0.0000000000000000000 ) ) ;
#181 = DIRECTION ( 'NONE',  ( 0.7071067811865462405, 8.659560562354916834E-17, -0.7071067811865486830 ) ) ;
#182 = ADVANCED_FACE ( 'NONE', ( #134 ), #94, .T. ) ;
#183 = FACE_OUTER_BOUND ( 'NONE', #208, .T. ) ;
#184 = CARTESIAN_POINT ( 'NONE',  ( 5.265981236333620997E-18, 0.0000000000000000000, 0.04300000000000000350 ) ) ;
#185 = ORIENTED_EDGE ( 'NONE', *, *, #293, .F. ) ;
#186 = CARTESIAN_POINT ( 'NONE',  ( 0.06250000000000002776, 7.654042494670959086E-18, 1.485000000000000764 ) ) ;
#187 = APPLICATION_PROTOCOL_DEFINITION ( 'draft international standard', 'automotive_design', 1998, #20 ) ;
#188 = FILL_AREA_STYLE ('',( #260 ) ) ;
#189 = ADVANCED_FACE ( 'NONE', ( #233 ), #284, .T. ) ;
#190 = EDGE_LOOP ( 'NONE', ( #271, #43, #276, #116 ) ) ;
#191 = CARTESIAN_POINT ( 'NONE',  ( -0.06250000000000002776, 0.0000000000000000000, 1.500000000000000222 ) ) ;
#192 = UNCERTAINTY_MEASURE_WITH_UNIT (LENGTH_MEASURE( 1.000000000000000082E-05 ), #167, 'distance_accuracy_value', 'NONE');
#193 = PRODUCT_CONTEXT ( 'NONE', #20, 'mechanical' ) ;
#194 =( GEOMETRIC_REPRESENTATION_CONTEXT ( 3 ) GLOBAL_UNCERTAINTY_ASSIGNED_CONTEXT ( ( #274 ) ) GLOBAL_UNIT_ASSIGNED_CONTEXT ( ( #14, #220, #55 ) ) REPRESENTATION_CONTEXT ( 'NONE', 'WORKASPACE' ) );
#195 = ORIENTED_EDGE ( 'NONE', *, *, #209, .T. ) ;
#196 = EDGE_LOOP ( 'NONE', ( #280, #59, #96, #133 ) ) ;
#197 = ORIENTED_EDGE ( 'NONE', *, *, #248, .F. ) ;
#198 = AXIS2_PLACEMENT_3D ( 'NONE', #162, #204, #8 ) ;
#199 = PRESENTATION_LAYER_ASSIGNMENT (  '', '', ( #2 ) ) ;
#200 = ORIENTED_EDGE ( 'NONE', *, *, #236, .F. ) ;
#201 = EDGE_LOOP ( 'NONE', ( #264, #195, #235, #166 ) ) ;
#202 = LINE ( 'NONE', #291, #73 ) ;
#203 = VERTEX_POINT ( 'NONE', #186 ) ;
#204 = DIRECTION ( 'NONE',  ( -0.0000000000000000000, -0.0000000000000000000, -1.000000000000000000 ) ) ;
#205 = CIRCLE ( 'NONE', #128, 0.06250000000000002776 ) ;
#206 = EDGE_CURVE ( 'NONE', #67, #122, #62, .T. ) ;
#207 = DIRECTION ( 'NONE',  ( -1.224646799147353700E-16, -0.0000000000000000000, -1.000000000000000000 ) ) ;
#208 = EDGE_LOOP ( 'NONE', ( #107, #200, #118, #54 ) ) ;
#209 = EDGE_CURVE ( 'NONE', #100, #168, #202, .T. ) ;
#210 = CARTESIAN_POINT ( 'NONE',  ( 0.0000000000000000000, 0.0000000000000000000, 1.500000000000000222 ) ) ;
#211 = MECHANICAL_DESIGN_GEOMETRIC_PRESENTATION_REPRESENTATION (  '', ( #39 ), #124 ) ;
#212 = DIRECTION ( 'NONE',  ( -1.224646799147353700E-16, -0.0000000000000000000, -1.000000000000000000 ) ) ;
#213 = EDGE_LOOP ( 'NONE', ( #143, #87, #179, #247 ) ) ;
#214 = CARTESIAN_POINT ( 'NONE',  ( -0.06250000000000002776, 0.0000000000000000000, 1.485000000000000764 ) ) ;
#215 = ORIENTED_EDGE ( 'NONE', *, *, #206, .T. ) ;
#216 = LENGTH_MEASURE_WITH_UNIT ( LENGTH_MEASURE( 0.02539999999999999897 ), #12 );
#217 = AXIS2_PLACEMENT_3D ( 'NONE', #97, #6, #31 ) ;
#218 = CIRCLE ( 'NONE', #130, 0.06250000000000002776 ) ;
#219 = DIRECTION ( 'NONE',  ( -1.224646799147353700E-16, -0.0000000000000000000, -1.000000000000000000 ) ) ;
#220 =( NAMED_UNIT ( * ) PLANE_ANGLE_UNIT ( ) SI_UNIT ( $, .RADIAN. ) );
#221 = CARTESIAN_POINT ( 'NONE',  ( 2.172477033174835496E-34, 0.0000000000000000000, 1.773962120904899164E-18 ) ) ;
#222 = VECTOR ( 'NONE', #292, 39.37007874015748854 ) ;
#223 = FACE_OUTER_BOUND ( 'NONE', #201, .T. ) ;
#224 = LENGTH_MEASURE_WITH_UNIT ( LENGTH_MEASURE( 0.02539999999999999897 ), #176 );
#225 = DIRECTION ( 'NONE',  ( -1.224646799147353700E-16, -0.0000000000000000000, -1.000000000000000000 ) ) ;
#226 = ADVANCED_FACE ( 'NONE', ( #171 ), #9, .T. ) ;
#227 = AXIS2_PLACEMENT_3D ( 'NONE', #270, #273, #24 ) ;
#228 = CARTESIAN_POINT ( 'NONE',  ( -0.01448549999999999317, 1.773962120904898008E-18, 0.04300000000000000350 ) ) ;
#229 = DIRECTION ( 'NONE',  ( 1.000000000000000000, 0.0000000000000000000, 0.0000000000000000000 ) ) ;
#230 = DIRECTION ( 'NONE',  ( 0.0000000000000000000, 0.0000000000000000000, 1.000000000000000000 ) ) ;
#231 = AXIS2_PLACEMENT_3D ( 'NONE', #281, #230, #114 ) ;
#232 = AXIS2_PLACEMENT_3D ( 'NONE', #61, #249, #80 ) ;
#233 = FACE_OUTER_BOUND ( 'NONE', #76, .T. ) ;
#234 = CARTESIAN_POINT ( 'NONE',  ( 0.01448550000000000185, 0.0000000000000000000, 0.04300000000000000350 ) ) ;
#235 = ORIENTED_EDGE ( 'NONE', *, *, #32, .F. ) ;
#236 = EDGE_CURVE ( 'NONE', #100, #67, #290, .T. ) ;
#237 = VERTEX_POINT ( 'NONE', #214 ) ;
#238 = LENGTH_MEASURE_WITH_UNIT ( LENGTH_MEASURE( 0.02539999999999999897 ), #266 );
#239 = CARTESIAN_POINT ( 'NONE',  ( -0.04750000000000064587, 0.0000000000000000000, 1.500000000000000222 ) ) ;
#240 = DIRECTION ( 'NONE',  ( 1.000000000000000000, 0.0000000000000000000, 0.0000000000000000000 ) ) ;
#241 = EDGE_LOOP ( 'NONE', ( #72, #33 ) ) ;
#242 = LINE ( 'NONE', #191, #34 ) ;
#243 =( NAMED_UNIT ( * ) PLANE_ANGLE_UNIT ( ) SI_UNIT ( $, .RADIAN. ) );
#244 = FACE_OUTER_BOUND ( 'NONE', #196, .T. ) ;
#245 = DIMENSIONAL_EXPONENTS ( 1.000000000000000000, 0.0000000000000000000, 0.0000000000000000000, 0.0000000000000000000, 0.0000000000000000000, 0.0000000000000000000, 0.0000000000000000000 ) ;
#246 = VECTOR ( 'NONE', #48, 39.37007874015748143 ) ;
#247 = ORIENTED_EDGE ( 'NONE', *, *, #278, .F. ) ;
#248 = EDGE_CURVE ( 'NONE', #287, #122, #205, .T. ) ;
#249 = DIRECTION ( 'NONE',  ( 0.0000000000000000000, 0.0000000000000000000, 1.000000000000000000 ) ) ;
#250 = CARTESIAN_POINT ( 'NONE',  ( 0.0000000000000000000, 0.0000000000000000000, 1.500000000000000222 ) ) ;
#251 = CARTESIAN_POINT ( 'NONE',  ( -0.06249999999999997918, 0.0000000000000000000, 0.3153037609280331943 ) ) ;
#252 = CARTESIAN_POINT ( 'NONE',  ( 0.04750000000000064587, 5.817072295950006528E-18, 1.500000000000000222 ) ) ;
#253 = DIRECTION ( 'NONE',  ( 1.224646799147353700E-16, 0.0000000000000000000, 1.000000000000000000 ) ) ;
#254 = CIRCLE ( 'NONE', #90, 0.01448549999999999838 ) ;
#255 = CARTESIAN_POINT ( 'NONE',  ( -0.04750000000000064587, 0.0000000000000000000, 1.500000000000000222 ) ) ;
#256 = CIRCLE ( 'NONE', #45, 0.06250000000000002776 ) ;
#257 = COLOUR_RGB ( '',0.7921568627450980005, 0.8196078431372548767, 0.9333333333333333481 ) ;
#258 =( NAMED_UNIT ( * ) SI_UNIT ( $, .STERADIAN. ) SOLID_ANGLE_UNIT ( ) );
#259 = PRODUCT_RELATED_PRODUCT_CATEGORY ( 'part', '', ( #70 ) ) ;
#260 = FILL_AREA_STYLE_COLOUR ( '', #137 ) ;
#261 = DIRECTION ( 'NONE',  ( -0.0000000000000000000, -0.0000000000000000000, -1.000000000000000000 ) ) ;
#262 = PRODUCT_DEFINITION_FORMATION_WITH_SPECIFIED_SOURCE ( 'ANY', '', #70, .NOT_KNOWN. ) ;
#263 = EDGE_CURVE ( 'NONE', #170, #237, #141, .T. ) ;
#264 = ORIENTED_EDGE ( 'NONE', *, *, #106, .T. ) ;
#265 = CARTESIAN_POINT ( 'NONE',  ( 0.0000000000000000000, 0.0000000000000000000, 1.500000000000000222 ) ) ;
#266 =( LENGTH_UNIT ( ) NAMED_UNIT ( * ) SI_UNIT ( $, .METRE. ) );
#267 = VERTEX_POINT ( 'NONE', #120 ) ;
#268 = DIRECTION ( 'NONE',  ( -0.0000000000000000000, -0.0000000000000000000, -1.000000000000000000 ) ) ;
#269 = VECTOR ( 'NONE', #49, 39.37007874015748143 ) ;
#270 = CARTESIAN_POINT ( 'NONE',  ( 0.0000000000000000000, 0.0000000000000000000, 0.0000000000000000000 ) ) ;
#271 = ORIENTED_EDGE ( 'NONE', *, *, #209, .F. ) ;
#272 = PRESENTATION_STYLE_ASSIGNMENT (( #175 ) ) ;
#273 = DIRECTION ( 'NONE',  ( 0.0000000000000000000, 0.0000000000000000000, 1.000000000000000000 ) ) ;
#274 = UNCERTAINTY_MEASURE_WITH_UNIT (LENGTH_MEASURE( 1.000000000000000082E-05 ), #14, 'distance_accuracy_value', 'NONE');
#275 = APPLICATION_PROTOCOL_DEFINITION ( 'draft international standard', 'automotive_design', 1998, #165 ) ;
#276 = ORIENTED_EDGE ( 'NONE', *, *, #154, .T. ) ;
#277 = DIRECTION ( 'NONE',  ( 0.0000000000000000000, 0.0000000000000000000, -1.000000000000000000 ) ) ;
#278 = EDGE_CURVE ( 'NONE', #203, #237, #256, .T. ) ;
#279 = CARTESIAN_POINT ( 'NONE',  ( 5.265981236333620997E-18, 0.0000000000000000000, 0.04300000000000000350 ) ) ;
#280 = ORIENTED_EDGE ( 'NONE', *, *, #159, .F. ) ;
#281 = CARTESIAN_POINT ( 'NONE',  ( 0.0000000000000000000, 0.0000000000000000000, 0.0000000000000000000 ) ) ;
#282 = LINE ( 'NONE', #234, #269 ) ;
#283 = EDGE_CURVE ( 'NONE', #237, #122, #242, .T. ) ;
#284 = CYLINDRICAL_SURFACE ( 'NONE', #198, 0.06250000000000002776 ) ;
#285 = CIRCLE ( 'NONE', #217, 0.01448549999999999838 ) ;
#286 =( GEOMETRIC_REPRESENTATION_CONTEXT ( 3 ) GLOBAL_UNCERTAINTY_ASSIGNED_CONTEXT ( ( #19 ) ) GLOBAL_UNIT_ASSIGNED_CONTEXT ( ( #105, #63, #258 ) ) REPRESENTATION_CONTEXT ( 'NONE', 'WORKASPACE' ) );
#287 = VERTEX_POINT ( 'NONE', #77 ) ;
#288 = DIRECTION ( 'NONE',  ( -1.000000000000000000, 0.0000000000000000000, 0.0000000000000000000 ) ) ;
#289 = DIRECTION ( 'NONE',  ( -1.224646799147353700E-16, -0.0000000000000000000, -1.000000000000000000 ) ) ;
#290 = CIRCLE ( 'NONE', #161, 0.01448549999999999664 ) ;
#291 = CARTESIAN_POINT ( 'NONE',  ( 0.01448549999999999838, 1.773962120904898394E-18, -1.773962120904899164E-18 ) ) ;
#292 = DIRECTION ( 'NONE',  ( -0.7071067811865462405, 0.0000000000000000000, -0.7071067811865486830 ) ) ;
#293 = EDGE_CURVE ( 'NONE', #203, #287, #38, .T. ) ;
#294 = VECTOR ( 'NONE', #181, 39.37007874015748854 ) ;
#295 = CIRCLE ( 'NONE', #156, 0.01448549999999999664 ) ;
#296 = PLANE ( 'NONE',  #232 ) ;
#297 = CARTESIAN_POINT ( 'NONE',  ( 0.0000000000000000000, 0.0000000000000000000, 1.500000000000000222 ) ) ;
#298 = DIRECTION ( 'NONE',  ( -1.000000000000000000, 0.0000000000000000000, 1.224646799147353700E-16 ) ) ;
#299 = DIMENSIONAL_EXPONENTS ( 1.000000000000000000, 0.0000000000000000000, 0.0000000000000000000, 0.0000000000000000000, 0.0000000000000000000, 0.0000000000000000000, 0.0000000000000000000 ) ;
ENDSEC;
END-ISO-10303-21;
