ISO-10303-21;
HEADER;
FILE_DESCRIPTION (( 'STEP AP214' ),
    '1' );
FILE_NAME ('81804.STEP',
    '2023-06-23T03:13:39',
    ( '' ),
    ( '' ),
    'SwSTEP 2.0',
    'SolidWorks 2023',
    '' );
FILE_SCHEMA (( 'AUTOMOTIVE_DESIGN' ));
ENDSEC;

DATA;
#1 = CIRCLE ( 'NONE', #154, 0.09374999999999998612 ) ;
#2 =( NAMED_UNIT ( * ) PLANE_ANGLE_UNIT ( ) SI_UNIT ( $, .RADIAN. ) );
#3 = ORIENTED_EDGE ( 'NONE', *, *, #215, .F. ) ;
#4 = ORIENTED_EDGE ( 'NONE', *, *, #215, .T. ) ;
#5 = PLANE ( 'NONE',  #247 ) ;
#6 = LENGTH_MEASURE_WITH_UNIT ( LENGTH_MEASURE( 0.02539999999999999897 ), #27 );
#7 = CARTESIAN_POINT ( 'NONE',  ( -0.09374999999999988898, 2.000000000000000000, 0.000000000000000000 ) ) ;
#8 = UNCERTAINTY_MEASURE_WITH_UNIT (LENGTH_MEASURE( 1.000000000000000082E-05 ), #201, 'distance_accuracy_value', 'NONE');
#9 = ORIENTED_EDGE ( 'NONE', *, *, #118, .F. ) ;
#10 = AXIS2_PLACEMENT_3D ( 'NONE', #214, #140, #25 ) ;
#11 = EDGE_LOOP ( 'NONE', ( #34, #54 ) ) ;
#12 = DIRECTION ( 'NONE',  ( 0.000000000000000000, 0.000000000000000000, -1.000000000000000000 ) ) ;
#13 = EDGE_CURVE ( 'NONE', #185, #202, #239, .T. ) ;
#14 = DIRECTION ( 'NONE',  ( 0.000000000000000000, 1.000000000000000000, 0.000000000000000000 ) ) ;
#15 =( GEOMETRIC_REPRESENTATION_CONTEXT ( 3 ) GLOBAL_UNCERTAINTY_ASSIGNED_CONTEXT ( ( #53 ) ) GLOBAL_UNIT_ASSIGNED_CONTEXT ( ( #268, #293, #148 ) ) REPRESENTATION_CONTEXT ( 'NONE', 'WORKASPACE' ) );
#16 = ORIENTED_EDGE ( 'NONE', *, *, #261, .T. ) ;
#17 = DIRECTION ( 'NONE',  ( 0.000000000000000000, 0.000000000000000000, -1.000000000000000000 ) ) ;
#18 = DIMENSIONAL_EXPONENTS ( 1.000000000000000000, 0.000000000000000000, 0.000000000000000000, 0.000000000000000000, 0.000000000000000000, 0.000000000000000000, 0.000000000000000000 ) ;
#19 = ORIENTED_EDGE ( 'NONE', *, *, #143, .F. ) ;
#20 = FACE_OUTER_BOUND ( 'NONE', #116, .T. ) ;
#21 = DIRECTION ( 'NONE',  ( -0.000000000000000000, -1.000000000000000000, -0.000000000000000000 ) ) ;
#22 = SURFACE_SIDE_STYLE ('',( #233 ) ) ;
#23 = FILL_AREA_STYLE ('',( #45 ) ) ;
#24 = PLANE ( 'NONE',  #234 ) ;
#25 = DIRECTION ( 'NONE',  ( 0.000000000000000000, 0.000000000000000000, -1.000000000000000000 ) ) ;
#26 = CARTESIAN_POINT ( 'NONE',  ( 0.000000000000000000, 0.4375000000000000000, 0.000000000000000000 ) ) ;
#27 =( LENGTH_UNIT ( ) NAMED_UNIT ( * ) SI_UNIT ( $, .METRE. ) );
#28 = ORIENTED_EDGE ( 'NONE', *, *, #40, .F. ) ;
#29 = DIRECTION ( 'NONE',  ( -0.000000000000000000, -1.000000000000000000, -0.000000000000000000 ) ) ;
#30 = EDGE_CURVE ( 'NONE', #180, #185, #1, .T. ) ;
#31 = AXIS2_PLACEMENT_3D ( 'NONE', #193, #281, #209 ) ;
#32 = FILL_AREA_STYLE_COLOUR ( '', #126 ) ;
#33 = VERTEX_POINT ( 'NONE', #122 ) ;
#34 = ORIENTED_EDGE ( 'NONE', *, *, #223, .F. ) ;
#35 = LINE ( 'NONE', #7, #218 ) ;
#36 = ORIENTED_EDGE ( 'NONE', *, *, #118, .T. ) ;
#37 = UNCERTAINTY_MEASURE_WITH_UNIT (LENGTH_MEASURE( 1.000000000000000082E-05 ), #309, 'distance_accuracy_value', 'NONE');
#38 = CARTESIAN_POINT ( 'NONE',  ( 6.123233995736766036E-17, 2.000000000000000000, 0.000000000000000000 ) ) ;
#39 = DIRECTION ( 'NONE',  ( 3.918869757271530214E-17, 1.000000000000000000, -0.000000000000000000 ) ) ;
#40 = EDGE_CURVE ( 'NONE', #166, #33, #35, .T. ) ;
#41 = CARTESIAN_POINT ( 'NONE',  ( 6.123233995736766036E-17, 2.000000000000000000, 0.000000000000000000 ) ) ;
#42 = AXIS2_PLACEMENT_3D ( 'NONE', #38, #39, #100 ) ;
#43 = CARTESIAN_POINT ( 'NONE',  ( 0.000000000000000000, 0.000000000000000000, -0.09375000000000001388 ) ) ;
#44 = DIRECTION ( 'NONE',  ( -1.000000000000000000, 3.918869757271530214E-17, 0.000000000000000000 ) ) ;
#45 = FILL_AREA_STYLE_COLOUR ( '', #280 ) ;
#46 =( NAMED_UNIT ( * ) SI_UNIT ( $, .STERADIAN. ) SOLID_ANGLE_UNIT ( ) );
#47 = CYLINDRICAL_SURFACE ( 'NONE', #183, 0.09374999999999998612 ) ;
#48 = ADVANCED_FACE ( 'NONE', ( #259 ), #242, .T. ) ;
#49 = COLOUR_RGB ( '',1.000000000000000000, 0.000000000000000000, 0.000000000000000000 ) ;
#50 = APPLICATION_PROTOCOL_DEFINITION ( 'draft international standard', 'automotive_design', 1998, #195 ) ;
#51 = PRESENTATION_LAYER_ASSIGNMENT (  '', '', ( #251 ) ) ;
#52 = DIRECTION ( 'NONE',  ( -0.000000000000000000, -1.000000000000000000, -0.000000000000000000 ) ) ;
#53 = UNCERTAINTY_MEASURE_WITH_UNIT (LENGTH_MEASURE( 1.000000000000000082E-05 ), #268, 'distance_accuracy_value', 'NONE');
#54 = ORIENTED_EDGE ( 'NONE', *, *, #30, .F. ) ;
#55 = MANIFOLD_SOLID_BREP ( 'Revolve - Tool Body (Straight Shanked)', #224 ) ;
#56 = CARTESIAN_POINT ( 'NONE',  ( -0.09374999999999998612, 0.4374999999999998890, 0.000000000000000000 ) ) ;
#57 = COLOUR_RGB ( '',0.7921568627450980005, 0.8196078431372548767, 0.9333333333333333481 ) ;
#58 = CIRCLE ( 'NONE', #150, 0.09374999999999998612 ) ;
#59 = PRODUCT_DEFINITION ( 'UNKNOWN', '', #197, #181 ) ;
#60 = ORIENTED_EDGE ( 'NONE', *, *, #13, .T. ) ;
#61 = PRESENTATION_STYLE_ASSIGNMENT (( #297 ) ) ;
#62 = DIMENSIONAL_EXPONENTS ( 1.000000000000000000, 0.000000000000000000, 0.000000000000000000, 0.000000000000000000, 0.000000000000000000, 0.000000000000000000, 0.000000000000000000 ) ;
#63 = ORIENTED_EDGE ( 'NONE', *, *, #89, .F. ) ;
#64 = DIRECTION ( 'NONE',  ( 0.000000000000000000, 0.000000000000000000, -1.000000000000000000 ) ) ;
#65 = ADVANCED_FACE ( 'NONE', ( #236 ), #24, .F. ) ;
#66 = DIRECTION ( 'NONE',  ( 0.000000000000000000, -1.000000000000000000, -0.000000000000000000 ) ) ;
#67 = PRESENTATION_LAYER_ASSIGNMENT (  '', '', ( #199 ) ) ;
#68 = DIRECTION ( 'NONE',  ( -1.000000000000000000, 0.000000000000000000, 0.000000000000000000 ) ) ;
#69 = FILL_AREA_STYLE_COLOUR ( '', #194 ) ;
#70 = MECHANICAL_DESIGN_GEOMETRIC_PRESENTATION_REPRESENTATION (  '', ( #251 ), #283 ) ;
#71 = ADVANCED_FACE ( 'NONE', ( #304 ), #87, .F. ) ;
#72 = LENGTH_MEASURE_WITH_UNIT ( LENGTH_MEASURE( 0.02539999999999999897 ), #228 );
#73 = LENGTH_MEASURE_WITH_UNIT ( LENGTH_MEASURE( 0.02539999999999999897 ), #113 );
#74 = EDGE_LOOP ( 'NONE', ( #36, #151 ) ) ;
#75 = SURFACE_STYLE_FILL_AREA ( #123 ) ;
#76 =( LENGTH_UNIT ( ) NAMED_UNIT ( * ) SI_UNIT ( $, .METRE. ) );
#77 = PRESENTATION_LAYER_ASSIGNMENT (  '', '', ( #161 ) ) ;
#78 = ADVANCED_FACE ( 'NONE', ( #136 ), #170, .T. ) ;
#79 = VECTOR ( 'NONE', #211, 39.37007874015748143 ) ;
#80 = CARTESIAN_POINT ( 'NONE',  ( 0.000000000000000000, 0.000000000000000000, 0.000000000000000000 ) ) ;
#81 = EDGE_LOOP ( 'NONE', ( #63, #3 ) ) ;
#82 =( CONVERSION_BASED_UNIT ( 'INCH', #256 ) LENGTH_UNIT ( ) NAMED_UNIT ( #270 ) );
#83 = SURFACE_SIDE_STYLE ('',( #252 ) ) ;
#84 = CARTESIAN_POINT ( 'NONE',  ( 0.000000000000000000, 0.4375000000000000000, -0.09374999999999998612 ) ) ;
#85 = DIRECTION ( 'NONE',  ( 3.918869757271530214E-17, 1.000000000000000000, -0.000000000000000000 ) ) ;
#86 = SURFACE_SIDE_STYLE ('',( #110 ) ) ;
#87 = PLANE ( 'NONE',  #31 ) ;
#88 =( NAMED_UNIT ( * ) PLANE_ANGLE_UNIT ( ) SI_UNIT ( $, .RADIAN. ) );
#89 = EDGE_CURVE ( 'NONE', #166, #182, #105, .T. ) ;
#90 = STYLED_ITEM ( 'NONE', ( #191 ), #117 ) ;
#91 = DIRECTION ( 'NONE',  ( 0.000000000000000000, 0.000000000000000000, -1.000000000000000000 ) ) ;
#92 = MECHANICAL_DESIGN_GEOMETRIC_PRESENTATION_REPRESENTATION (  '', ( #267 ), #106 ) ;
#93 = SHAPE_DEFINITION_REPRESENTATION ( #198, #301 ) ;
#94 =( CONVERSION_BASED_UNIT ( 'INCH', #72 ) LENGTH_UNIT ( ) NAMED_UNIT ( #18 ) );
#95 = ORIENTED_EDGE ( 'NONE', *, *, #30, .T. ) ;
#96 = MECHANICAL_DESIGN_GEOMETRIC_PRESENTATION_REPRESENTATION (  '', ( #199 ), #257 ) ;
#97 = CARTESIAN_POINT ( 'NONE',  ( 0.000000000000000000, 0.000000000000000000, 0.000000000000000000 ) ) ;
#98 = SURFACE_STYLE_USAGE ( .BOTH. , #196 ) ;
#99 =( CONVERSION_BASED_UNIT ( 'INCH', #178 ) LENGTH_UNIT ( ) NAMED_UNIT ( #62 ) );
#100 = DIRECTION ( 'NONE',  ( -1.000000000000000000, 0.000000000000000000, 0.000000000000000000 ) ) ;
#101 = CARTESIAN_POINT ( 'NONE',  ( 0.09374999999999998612, 2.000000000000000000, 1.148106374200643247E-17 ) ) ;
#102 = ORIENTED_EDGE ( 'NONE', *, *, #172, .T. ) ;
#103 = DIMENSIONAL_EXPONENTS ( 1.000000000000000000, 0.000000000000000000, 0.000000000000000000, 0.000000000000000000, 0.000000000000000000, 0.000000000000000000, 0.000000000000000000 ) ;
#104 = LENGTH_MEASURE_WITH_UNIT ( LENGTH_MEASURE( 0.02539999999999999897 ), #76 );
#105 = CIRCLE ( 'NONE', #226, 0.09374999999999998612 ) ;
#106 =( GEOMETRIC_REPRESENTATION_CONTEXT ( 3 ) GLOBAL_UNCERTAINTY_ASSIGNED_CONTEXT ( ( #107 ) ) GLOBAL_UNIT_ASSIGNED_CONTEXT ( ( #94, #2, #171 ) ) REPRESENTATION_CONTEXT ( 'NONE', 'WORKASPACE' ) );
#107 = UNCERTAINTY_MEASURE_WITH_UNIT (LENGTH_MEASURE( 1.000000000000000082E-05 ), #94, 'distance_accuracy_value', 'NONE');
#108 = VECTOR ( 'NONE', #231, 39.37007874015748143 ) ;
#109 = DIMENSIONAL_EXPONENTS ( 1.000000000000000000, 0.000000000000000000, 0.000000000000000000, 0.000000000000000000, 0.000000000000000000, 0.000000000000000000, 0.000000000000000000 ) ;
#110 = SURFACE_STYLE_FILL_AREA ( #258 ) ;
#111 = COLOUR_RGB ( '',1.000000000000000000, 0.000000000000000000, 0.000000000000000000 ) ;
#112 = SURFACE_STYLE_USAGE ( .BOTH. , #22 ) ;
#113 =( LENGTH_UNIT ( ) NAMED_UNIT ( * ) SI_UNIT ( $, .METRE. ) );
#114 = CARTESIAN_POINT ( 'NONE',  ( 0.09375000000000002776, 2.000000000000000000, 1.148106374200643092E-17 ) ) ;
#115 = CARTESIAN_POINT ( 'NONE',  ( 7.198846956776915697E-35, 0.4375000000000000000, 0.000000000000000000 ) ) ;
#116 = EDGE_LOOP ( 'NONE', ( #221, #4, #149, #287 ) ) ;
#117 = ADVANCED_FACE ( 'NONE', ( #220 ), #5, .T. ) ;
#118 = EDGE_CURVE ( 'NONE', #33, #179, #155, .T. ) ;
#119 =( LENGTH_UNIT ( ) NAMED_UNIT ( * ) SI_UNIT ( $, .METRE. ) );
#120 = EDGE_LOOP ( 'NONE', ( #146, #217, #9, #28 ) ) ;
#121 = DIRECTION ( 'NONE',  ( -0.000000000000000000, -1.000000000000000000, -0.000000000000000000 ) ) ;
#122 = CARTESIAN_POINT ( 'NONE',  ( -0.09374999999999984734, 2.000000000000000000, 0.000000000000000000 ) ) ;
#123 = FILL_AREA_STYLE ('',( #32 ) ) ;
#124 = MECHANICAL_DESIGN_GEOMETRIC_PRESENTATION_REPRESENTATION (  '', ( #161 ), #15 ) ;
#125 = ORIENTED_EDGE ( 'NONE', *, *, #143, .T. ) ;
#126 = COLOUR_RGB ( '',0.7921568627450980005, 0.8196078431372548767, 0.9333333333333333481 ) ;
#127 = PRODUCT ( '81804', '81804', '', ( #263 ) ) ;
#128 = SURFACE_SIDE_STYLE ('',( #75 ) ) ;
#129 = ORIENTED_EDGE ( 'NONE', *, *, #223, .T. ) ;
#130 = LINE ( 'NONE', #292, #174 ) ;
#131 = MECHANICAL_DESIGN_GEOMETRIC_PRESENTATION_REPRESENTATION (  '', ( #90 ), #164 ) ;
#132 = DIRECTION ( 'NONE',  ( -0.000000000000000000, -1.000000000000000000, -0.000000000000000000 ) ) ;
#133 = AXIS2_PLACEMENT_3D ( 'NONE', #303, #279, #68 ) ;
#134 = DIRECTION ( 'NONE',  ( -0.000000000000000000, -1.000000000000000000, -0.000000000000000000 ) ) ;
#135 = CYLINDRICAL_SURFACE ( 'NONE', #188, 0.09374999999999995837 ) ;
#136 = FACE_OUTER_BOUND ( 'NONE', #157, .T. ) ;
#137 = SURFACE_STYLE_FILL_AREA ( #23 ) ;
#138 = CARTESIAN_POINT ( 'NONE',  ( 1.148106374200643555E-17, 0.000000000000000000, 0.09375000000000001388 ) ) ;
#139 = ORIENTED_EDGE ( 'NONE', *, *, #261, .F. ) ;
#140 = DIRECTION ( 'NONE',  ( -0.000000000000000000, -1.000000000000000000, -0.000000000000000000 ) ) ;
#141 = FILL_AREA_STYLE_COLOUR ( '', #49 ) ;
#142 =( NAMED_UNIT ( * ) SI_UNIT ( $, .STERADIAN. ) SOLID_ANGLE_UNIT ( ) );
#143 = EDGE_CURVE ( 'NONE', #180, #245, #130, .T. ) ;
#144 =( NAMED_UNIT ( * ) PLANE_ANGLE_UNIT ( ) SI_UNIT ( $, .RADIAN. ) );
#145 = APPLICATION_PROTOCOL_DEFINITION ( 'draft international standard', 'automotive_design', 1998, #305 ) ;
#146 = ORIENTED_EDGE ( 'NONE', *, *, #89, .T. ) ;
#147 = CLOSED_SHELL ( 'NONE', ( #284, #117, #78, #266 ) ) ;
#148 =( NAMED_UNIT ( * ) SI_UNIT ( $, .STERADIAN. ) SOLID_ANGLE_UNIT ( ) );
#149 = ORIENTED_EDGE ( 'NONE', *, *, #40, .T. ) ;
#150 = AXIS2_PLACEMENT_3D ( 'NONE', #26, #21, #206 ) ;
#151 = ORIENTED_EDGE ( 'NONE', *, *, #278, .T. ) ;
#152 = UNCERTAINTY_MEASURE_WITH_UNIT (LENGTH_MEASURE( 1.000000000000000082E-05 ), #99, 'distance_accuracy_value', 'NONE');
#153 = CARTESIAN_POINT ( 'NONE',  ( 0.000000000000000000, 0.000000000000000000, 0.000000000000000000 ) ) ;
#154 = AXIS2_PLACEMENT_3D ( 'NONE', #175, #132, #225 ) ;
#155 = CIRCLE ( 'NONE', #42, 0.09374999999999991673 ) ;
#156 =( NAMED_UNIT ( * ) PLANE_ANGLE_UNIT ( ) SI_UNIT ( $, .RADIAN. ) );
#157 = EDGE_LOOP ( 'NONE', ( #19, #95, #60, #139 ) ) ;
#158 = CARTESIAN_POINT ( 'NONE',  ( 0.09374999999999998612, 0.4374999999999998890, 1.148106374200643247E-17 ) ) ;
#159 = MANIFOLD_SOLID_BREP ( 'Revolve - Cutting Edge', #147 ) ;
#160 = PRODUCT_RELATED_PRODUCT_CATEGORY ( 'part', '', ( #127 ) ) ;
#161 = STYLED_ITEM ( 'NONE', ( #253 ), #55 ) ;
#162 = CARTESIAN_POINT ( 'NONE',  ( 0.000000000000000000, 0.000000000000000000, -0.09374999999999998612 ) ) ;
#163 = PRESENTATION_LAYER_ASSIGNMENT (  '', '', ( #267 ) ) ;
#164 =( GEOMETRIC_REPRESENTATION_CONTEXT ( 3 ) GLOBAL_UNCERTAINTY_ASSIGNED_CONTEXT ( ( #299 ) ) GLOBAL_UNIT_ASSIGNED_CONTEXT ( ( #306, #88, #240 ) ) REPRESENTATION_CONTEXT ( 'NONE', 'WORKASPACE' ) );
#165 = FILL_AREA_STYLE_COLOUR ( '', #111 ) ;
#166 = VERTEX_POINT ( 'NONE', #56 ) ;
#167 =( NAMED_UNIT ( * ) SI_UNIT ( $, .STERADIAN. ) SOLID_ANGLE_UNIT ( ) );
#168 = FACE_OUTER_BOUND ( 'NONE', #275, .T. ) ;
#169 = CIRCLE ( 'NONE', #203, 0.09375000000000001388 ) ;
#170 = CYLINDRICAL_SURFACE ( 'NONE', #10, 0.09374999999999998612 ) ;
#171 =( NAMED_UNIT ( * ) SI_UNIT ( $, .STERADIAN. ) SOLID_ANGLE_UNIT ( ) );
#172 = EDGE_CURVE ( 'NONE', #202, #245, #235, .T. ) ;
#173 = DIRECTION ( 'NONE',  ( 3.918869757271530214E-17, 1.000000000000000000, -0.000000000000000000 ) ) ;
#174 = VECTOR ( 'NONE', #52, 39.37007874015748143 ) ;
#175 = CARTESIAN_POINT ( 'NONE',  ( 0.000000000000000000, 0.4375000000000000000, 0.000000000000000000 ) ) ;
#176 = DIRECTION ( 'NONE',  ( -1.000000000000000000, 0.000000000000000000, 0.000000000000000000 ) ) ;
#177 =( GEOMETRIC_REPRESENTATION_CONTEXT ( 3 ) GLOBAL_UNCERTAINTY_ASSIGNED_CONTEXT ( ( #37 ) ) GLOBAL_UNIT_ASSIGNED_CONTEXT ( ( #309, #144, #142 ) ) REPRESENTATION_CONTEXT ( 'NONE', 'WORKASPACE' ) );
#178 = LENGTH_MEASURE_WITH_UNIT ( LENGTH_MEASURE( 0.02539999999999999897 ), #190 );
#179 = VERTEX_POINT ( 'NONE', #101 ) ;
#180 = VERTEX_POINT ( 'NONE', #200 ) ;
#181 = PRODUCT_DEFINITION_CONTEXT ( 'detailed design', #305, 'design' ) ;
#182 = VERTEX_POINT ( 'NONE', #158 ) ;
#183 = AXIS2_PLACEMENT_3D ( 'NONE', #97, #29, #91 ) ;
#184 = DIMENSIONAL_EXPONENTS ( 1.000000000000000000, 0.000000000000000000, 0.000000000000000000, 0.000000000000000000, 0.000000000000000000, 0.000000000000000000, 0.000000000000000000 ) ;
#185 = VERTEX_POINT ( 'NONE', #84 ) ;
#186 = DIRECTION ( 'NONE',  ( -1.000000000000000000, 0.000000000000000000, 0.000000000000000000 ) ) ;
#187 =( NAMED_UNIT ( * ) PLANE_ANGLE_UNIT ( ) SI_UNIT ( $, .RADIAN. ) );
#188 = AXIS2_PLACEMENT_3D ( 'NONE', #41, #237, #298 ) ;
#189 =( LENGTH_UNIT ( ) NAMED_UNIT ( * ) SI_UNIT ( $, .METRE. ) );
#190 =( LENGTH_UNIT ( ) NAMED_UNIT ( * ) SI_UNIT ( $, .METRE. ) );
#191 = PRESENTATION_STYLE_ASSIGNMENT (( #98 ) ) ;
#192 = LINE ( 'NONE', #114, #79 ) ;
#193 = CARTESIAN_POINT ( 'NONE',  ( 0.09374999999999998612, 2.000000000000000000, 0.000000000000000000 ) ) ;
#194 = COLOUR_RGB ( '',1.000000000000000000, 0.000000000000000000, 0.000000000000000000 ) ;
#195 = APPLICATION_CONTEXT ( 'automotive_design' ) ;
#196 = SURFACE_SIDE_STYLE ('',( #137 ) ) ;
#197 = PRODUCT_DEFINITION_FORMATION_WITH_SPECIFIED_SOURCE ( 'ANY', '', #127, .NOT_KNOWN. ) ;
#198 = PRODUCT_DEFINITION_SHAPE ( 'NONE', 'NONE',  #59 ) ;
#199 = STYLED_ITEM ( 'NONE', ( #277 ), #78 ) ;
#200 = CARTESIAN_POINT ( 'NONE',  ( 1.148106374200643401E-17, 0.4375000000000000000, 0.09374999999999998612 ) ) ;
#201 =( CONVERSION_BASED_UNIT ( 'INCH', #104 ) LENGTH_UNIT ( ) NAMED_UNIT ( #249 ) );
#202 = VERTEX_POINT ( 'NONE', #43 ) ;
#203 = AXIS2_PLACEMENT_3D ( 'NONE', #80, #134, #17 ) ;
#204 = FILL_AREA_STYLE ('',( #165 ) ) ;
#205 = UNCERTAINTY_MEASURE_WITH_UNIT (LENGTH_MEASURE( 1.000000000000000082E-05 ), #82, 'distance_accuracy_value', 'NONE');
#206 = DIRECTION ( 'NONE',  ( 0.000000000000000000, 0.000000000000000000, -1.000000000000000000 ) ) ;
#207 = AXIS2_PLACEMENT_3D ( 'NONE', #153, #121, #12 ) ;
#208 = PRESENTATION_STYLE_ASSIGNMENT (( #232 ) ) ;
#209 = DIRECTION ( 'NONE',  ( 1.000000000000000000, -3.918869757271530214E-17, 0.000000000000000000 ) ) ;
#210 = DIRECTION ( 'NONE',  ( -1.000000000000000000, 0.000000000000000000, 0.000000000000000000 ) ) ;
#211 = DIRECTION ( 'NONE',  ( 3.918869757271530214E-17, 1.000000000000000000, -0.000000000000000000 ) ) ;
#212 = DIRECTION ( 'NONE',  ( 3.918869757271530214E-17, 1.000000000000000000, -0.000000000000000000 ) ) ;
#213 = CARTESIAN_POINT ( 'NONE',  ( 0.000000000000000000, 0.4374999999999998890, 0.000000000000000000 ) ) ;
#214 = CARTESIAN_POINT ( 'NONE',  ( 0.000000000000000000, 0.000000000000000000, 0.000000000000000000 ) ) ;
#215 = EDGE_CURVE ( 'NONE', #182, #166, #300, .T. ) ;
#216 = CARTESIAN_POINT ( 'NONE',  ( 0.000000000000000000, 0.000000000000000000, 0.000000000000000000 ) ) ;
#217 = ORIENTED_EDGE ( 'NONE', *, *, #273, .T. ) ;
#218 = VECTOR ( 'NONE', #282, 39.37007874015748143 ) ;
#219 = AXIS2_PLACEMENT_3D ( 'NONE', #229, #276, #186 ) ;
#220 = FACE_OUTER_BOUND ( 'NONE', #11, .T. ) ;
#221 = ORIENTED_EDGE ( 'NONE', *, *, #273, .F. ) ;
#222 = PRESENTATION_STYLE_ASSIGNMENT (( #289 ) ) ;
#223 = EDGE_CURVE ( 'NONE', #185, #180, #58, .T. ) ;
#224 = CLOSED_SHELL ( 'NONE', ( #48, #65, #238, #71 ) ) ;
#225 = DIRECTION ( 'NONE',  ( 0.000000000000000000, 0.000000000000000000, -1.000000000000000000 ) ) ;
#226 = AXIS2_PLACEMENT_3D ( 'NONE', #213, #85, #210 ) ;
#227 = CIRCLE ( 'NONE', #133, 0.09374999999999991673 ) ;
#228 =( LENGTH_UNIT ( ) NAMED_UNIT ( * ) SI_UNIT ( $, .METRE. ) );
#229 = CARTESIAN_POINT ( 'NONE',  ( 0.000000000000000000, 0.4374999999999998890, 0.000000000000000000 ) ) ;
#230 = FILL_AREA_STYLE ('',( #244 ) ) ;
#231 = DIRECTION ( 'NONE',  ( -0.000000000000000000, -1.000000000000000000, -0.000000000000000000 ) ) ;
#232 = SURFACE_STYLE_USAGE ( .BOTH. , #86 ) ;
#233 = SURFACE_STYLE_FILL_AREA ( #255 ) ;
#234 = AXIS2_PLACEMENT_3D ( 'NONE', #115, #212, #44 ) ;
#235 = CIRCLE ( 'NONE', #207, 0.09375000000000001388 ) ;
#236 = FACE_OUTER_BOUND ( 'NONE', #81, .T. ) ;
#237 = DIRECTION ( 'NONE',  ( 3.918869757271530214E-17, 1.000000000000000000, -0.000000000000000000 ) ) ;
#238 = ADVANCED_FACE ( 'NONE', ( #20 ), #135, .T. ) ;
#239 = LINE ( 'NONE', #162, #108 ) ;
#240 =( NAMED_UNIT ( * ) SI_UNIT ( $, .STERADIAN. ) SOLID_ANGLE_UNIT ( ) );
#241 = DIRECTION ( 'NONE',  ( 1.000000000000000000, 0.000000000000000000, 0.000000000000000000 ) ) ;
#242 = CYLINDRICAL_SURFACE ( 'NONE', #250, 0.09374999999999995837 ) ;
#243 = DIRECTION ( 'NONE',  ( 0.000000000000000000, 0.000000000000000000, 1.000000000000000000 ) ) ;
#244 = FILL_AREA_STYLE_COLOUR ( '', #57 ) ;
#245 = VERTEX_POINT ( 'NONE', #138 ) ;
#246 =( NAMED_UNIT ( * ) SI_UNIT ( $, .STERADIAN. ) SOLID_ANGLE_UNIT ( ) );
#247 = AXIS2_PLACEMENT_3D ( 'NONE', #265, #14, #248 ) ;
#248 = DIRECTION ( 'NONE',  ( 0.000000000000000000, -0.000000000000000000, 1.000000000000000000 ) ) ;
#249 = DIMENSIONAL_EXPONENTS ( 1.000000000000000000, 0.000000000000000000, 0.000000000000000000, 0.000000000000000000, 0.000000000000000000, 0.000000000000000000, 0.000000000000000000 ) ;
#250 = AXIS2_PLACEMENT_3D ( 'NONE', #262, #173, #176 ) ;
#251 = STYLED_ITEM ( 'NONE', ( #208 ), #266 ) ;
#252 = SURFACE_STYLE_FILL_AREA ( #204 ) ;
#253 = PRESENTATION_STYLE_ASSIGNMENT (( #274 ) ) ;
#254 = PLANE ( 'NONE',  #260 ) ;
#255 = FILL_AREA_STYLE ('',( #69 ) ) ;
#256 = LENGTH_MEASURE_WITH_UNIT ( LENGTH_MEASURE( 0.02539999999999999897 ), #189 );
#257 =( GEOMETRIC_REPRESENTATION_CONTEXT ( 3 ) GLOBAL_UNCERTAINTY_ASSIGNED_CONTEXT ( ( #152 ) ) GLOBAL_UNIT_ASSIGNED_CONTEXT ( ( #99, #156, #46 ) ) REPRESENTATION_CONTEXT ( 'NONE', 'WORKASPACE' ) );
#258 = FILL_AREA_STYLE ('',( #141 ) ) ;
#259 = FACE_OUTER_BOUND ( 'NONE', #120, .T. ) ;
#260 = AXIS2_PLACEMENT_3D ( 'NONE', #272, #66, #64 ) ;
#261 = EDGE_CURVE ( 'NONE', #245, #202, #169, .T. ) ;
#262 = CARTESIAN_POINT ( 'NONE',  ( 6.123233995736766036E-17, 2.000000000000000000, 0.000000000000000000 ) ) ;
#263 = PRODUCT_CONTEXT ( 'NONE', #195, 'mechanical' ) ;
#264 = PRESENTATION_LAYER_ASSIGNMENT (  '', '', ( #90 ) ) ;
#265 = CARTESIAN_POINT ( 'NONE',  ( 0.000000000000000000, 0.4375000000000000000, 0.000000000000000000 ) ) ;
#266 = ADVANCED_FACE ( 'NONE', ( #168 ), #254, .T. ) ;
#267 = STYLED_ITEM ( 'NONE', ( #61 ), #284 ) ;
#268 =( CONVERSION_BASED_UNIT ( 'INCH', #6 ) LENGTH_UNIT ( ) NAMED_UNIT ( #103 ) );
#269 = ORIENTED_EDGE ( 'NONE', *, *, #13, .F. ) ;
#270 = DIMENSIONAL_EXPONENTS ( 1.000000000000000000, 0.000000000000000000, 0.000000000000000000, 0.000000000000000000, 0.000000000000000000, 0.000000000000000000, 0.000000000000000000 ) ;
#271 = FACE_OUTER_BOUND ( 'NONE', #296, .T. ) ;
#272 = CARTESIAN_POINT ( 'NONE',  ( 0.000000000000000000, 0.000000000000000000, 0.000000000000000000 ) ) ;
#273 = EDGE_CURVE ( 'NONE', #182, #179, #192, .T. ) ;
#274 = SURFACE_STYLE_USAGE ( .BOTH. , #291 ) ;
#275 = EDGE_LOOP ( 'NONE', ( #102, #16 ) ) ;
#276 = DIRECTION ( 'NONE',  ( 3.918869757271530214E-17, 1.000000000000000000, -0.000000000000000000 ) ) ;
#277 = PRESENTATION_STYLE_ASSIGNMENT (( #112 ) ) ;
#278 = EDGE_CURVE ( 'NONE', #179, #33, #227, .T. ) ;
#279 = DIRECTION ( 'NONE',  ( 3.918869757271530214E-17, 1.000000000000000000, -0.000000000000000000 ) ) ;
#280 = COLOUR_RGB ( '',1.000000000000000000, 0.000000000000000000, 0.000000000000000000 ) ;
#281 = DIRECTION ( 'NONE',  ( -3.918869757271530214E-17, -1.000000000000000000, 0.000000000000000000 ) ) ;
#282 = DIRECTION ( 'NONE',  ( 3.918869757271530214E-17, 1.000000000000000000, -0.000000000000000000 ) ) ;
#283 =( GEOMETRIC_REPRESENTATION_CONTEXT ( 3 ) GLOBAL_UNCERTAINTY_ASSIGNED_CONTEXT ( ( #205 ) ) GLOBAL_UNIT_ASSIGNED_CONTEXT ( ( #82, #187, #167 ) ) REPRESENTATION_CONTEXT ( 'NONE', 'WORKASPACE' ) );
#284 = ADVANCED_FACE ( 'NONE', ( #271 ), #47, .T. ) ;
#285 = MECHANICAL_DESIGN_GEOMETRIC_PRESENTATION_REPRESENTATION (  '', ( #307 ), #295 ) ;
#286 =( NAMED_UNIT ( * ) PLANE_ANGLE_UNIT ( ) SI_UNIT ( $, .RADIAN. ) );
#287 = ORIENTED_EDGE ( 'NONE', *, *, #278, .F. ) ;
#288 = AXIS2_PLACEMENT_3D ( 'NONE', #216, #243, #241 ) ;
#289 = SURFACE_STYLE_USAGE ( .BOTH. , #128 ) ;
#290 = PRESENTATION_LAYER_ASSIGNMENT (  '', '', ( #307 ) ) ;
#291 = SURFACE_SIDE_STYLE ('',( #302 ) ) ;
#292 = CARTESIAN_POINT ( 'NONE',  ( 1.148106374200643401E-17, 0.000000000000000000, 0.09374999999999998612 ) ) ;
#293 =( NAMED_UNIT ( * ) PLANE_ANGLE_UNIT ( ) SI_UNIT ( $, .RADIAN. ) );
#294 = ORIENTED_EDGE ( 'NONE', *, *, #172, .F. ) ;
#295 =( GEOMETRIC_REPRESENTATION_CONTEXT ( 3 ) GLOBAL_UNCERTAINTY_ASSIGNED_CONTEXT ( ( #8 ) ) GLOBAL_UNIT_ASSIGNED_CONTEXT ( ( #201, #286, #246 ) ) REPRESENTATION_CONTEXT ( 'NONE', 'WORKASPACE' ) );
#296 = EDGE_LOOP ( 'NONE', ( #129, #125, #294, #269 ) ) ;
#297 = SURFACE_STYLE_USAGE ( .BOTH. , #83 ) ;
#298 = DIRECTION ( 'NONE',  ( -1.000000000000000000, 0.000000000000000000, 0.000000000000000000 ) ) ;
#299 = UNCERTAINTY_MEASURE_WITH_UNIT (LENGTH_MEASURE( 1.000000000000000082E-05 ), #306, 'distance_accuracy_value', 'NONE');
#300 = CIRCLE ( 'NONE', #219, 0.09374999999999998612 ) ;
#301 = ADVANCED_BREP_SHAPE_REPRESENTATION ( '81804', ( #159, #55, #288 ), #177 ) ;
#302 = SURFACE_STYLE_FILL_AREA ( #230 ) ;
#303 = CARTESIAN_POINT ( 'NONE',  ( 6.123233995736766036E-17, 2.000000000000000000, 0.000000000000000000 ) ) ;
#304 = FACE_OUTER_BOUND ( 'NONE', #74, .T. ) ;
#305 = APPLICATION_CONTEXT ( 'automotive_design' ) ;
#306 =( CONVERSION_BASED_UNIT ( 'INCH', #73 ) LENGTH_UNIT ( ) NAMED_UNIT ( #184 ) );
#307 = STYLED_ITEM ( 'NONE', ( #222 ), #159 ) ;
#308 = LENGTH_MEASURE_WITH_UNIT ( LENGTH_MEASURE( 0.02539999999999999897 ), #119 );
#309 =( CONVERSION_BASED_UNIT ( 'INCH', #308 ) LENGTH_UNIT ( ) NAMED_UNIT ( #109 ) );
ENDSEC;
END-ISO-10303-21;
