ISO-10303-21;
HEADER;
FILE_DESCRIPTION (( 'STEP AP214' ),
    '1' );
FILE_NAME ('83207.STEP',
    '2023-06-23T08:46:58',
    ( '' ),
    ( '' ),
    'SwSTEP 2.0',
    'SolidWorks 2023',
    '' );
FILE_SCHEMA (( 'AUTOMOTIVE_DESIGN' ));
ENDSEC;

DATA;
#1 = AXIS2_PLACEMENT_3D ( 'NONE', #190, #168, #54 ) ;
#2 =( NAMED_UNIT ( * ) PLANE_ANGLE_UNIT ( ) SI_UNIT ( $, .RADIAN. ) );
#3 = PRODUCT_DEFINITION_SHAPE ( 'NONE', 'NONE',  #208 ) ;
#4 = EDGE_LOOP ( 'NONE', ( #193, #135 ) ) ;
#5 = COLOUR_RGB ( '',1.000000000000000000, 0.000000000000000000, 0.000000000000000000 ) ;
#6 = COLOUR_RGB ( '',0.7921568627450980005, 0.8196078431372548767, 0.9333333333333333481 ) ;
#7 = CARTESIAN_POINT ( 'NONE',  ( 3.827021247335478926E-17, 0.000000000000000000, 0.3125000000000000000 ) ) ;
#8 = APPLICATION_PROTOCOL_DEFINITION ( 'draft international standard', 'automotive_design', 1998, #113 ) ;
#9 = DIRECTION ( 'NONE',  ( 0.000000000000000000, 1.000000000000000000, 0.000000000000000000 ) ) ;
#10 = LENGTH_MEASURE_WITH_UNIT ( LENGTH_MEASURE( 0.02539999999999999897 ), #103 );
#11 = DIRECTION ( 'NONE',  ( -0.000000000000000000, -1.000000000000000000, -0.000000000000000000 ) ) ;
#12 = AXIS2_PLACEMENT_3D ( 'NONE', #198, #19, #234 ) ;
#13 = APPLICATION_PROTOCOL_DEFINITION ( 'draft international standard', 'automotive_design', 1998, #133 ) ;
#14 =( LENGTH_UNIT ( ) NAMED_UNIT ( * ) SI_UNIT ( $, .METRE. ) );
#15 = ORIENTED_EDGE ( 'NONE', *, *, #37, .T. ) ;
#16 =( NAMED_UNIT ( * ) PLANE_ANGLE_UNIT ( ) SI_UNIT ( $, .RADIAN. ) );
#17 = ORIENTED_EDGE ( 'NONE', *, *, #194, .F. ) ;
#18 = DIRECTION ( 'NONE',  ( -0.000000000000000000, -1.000000000000000000, -0.000000000000000000 ) ) ;
#19 = DIRECTION ( 'NONE',  ( -0.000000000000000000, -1.000000000000000000, -0.000000000000000000 ) ) ;
#20 = VECTOR ( 'NONE', #304, 39.37007874015748143 ) ;
#21 = CARTESIAN_POINT ( 'NONE',  ( 0.000000000000000000, 2.000000000000000000, -0.3125000000000000000 ) ) ;
#22 =( NAMED_UNIT ( * ) PLANE_ANGLE_UNIT ( ) SI_UNIT ( $, .RADIAN. ) );
#23 = CARTESIAN_POINT ( 'NONE',  ( 0.3124999999999999445, 4.000000000000000000, 3.827021247335478926E-17 ) ) ;
#24 = ORIENTED_EDGE ( 'NONE', *, *, #291, .F. ) ;
#25 = EDGE_LOOP ( 'NONE', ( #17, #298 ) ) ;
#26 = ADVANCED_FACE ( 'NONE', ( #47 ), #221, .T. ) ;
#27 = SHAPE_DEFINITION_REPRESENTATION ( #3, #167 ) ;
#28 = PRESENTATION_LAYER_ASSIGNMENT (  '', '', ( #106 ) ) ;
#29 = EDGE_LOOP ( 'NONE', ( #95, #263, #202, #24 ) ) ;
#30 = MECHANICAL_DESIGN_GEOMETRIC_PRESENTATION_REPRESENTATION (  '', ( #164 ), #192 ) ;
#31 = ORIENTED_EDGE ( 'NONE', *, *, #139, .F. ) ;
#32 = UNCERTAINTY_MEASURE_WITH_UNIT (LENGTH_MEASURE( 1.000000000000000082E-05 ), #180, 'distance_accuracy_value', 'NONE');
#33 = STYLED_ITEM ( 'NONE', ( #57 ), #26 ) ;
#34 =( GEOMETRIC_REPRESENTATION_CONTEXT ( 3 ) GLOBAL_UNCERTAINTY_ASSIGNED_CONTEXT ( ( #146 ) ) GLOBAL_UNIT_ASSIGNED_CONTEXT ( ( #142, #2, #117 ) ) REPRESENTATION_CONTEXT ( 'NONE', 'WORKASPACE' ) );
#35 = MECHANICAL_DESIGN_GEOMETRIC_PRESENTATION_REPRESENTATION (  '', ( #84 ), #34 ) ;
#36 = SURFACE_STYLE_USAGE ( .BOTH. , #248 ) ;
#37 = EDGE_CURVE ( 'NONE', #295, #239, #283, .T. ) ;
#38 = SURFACE_STYLE_FILL_AREA ( #223 ) ;
#39 = SURFACE_SIDE_STYLE ('',( #41 ) ) ;
#40 = DIRECTION ( 'NONE',  ( 1.000000000000000000, 3.061616997868383018E-17, 0.000000000000000000 ) ) ;
#41 = SURFACE_STYLE_FILL_AREA ( #45 ) ;
#42 =( CONVERSION_BASED_UNIT ( 'INCH', #156 ) LENGTH_UNIT ( ) NAMED_UNIT ( #222 ) );
#43 = COLOUR_RGB ( '',1.000000000000000000, 0.000000000000000000, 0.000000000000000000 ) ;
#44 = VECTOR ( 'NONE', #115, 39.37007874015748143 ) ;
#45 = FILL_AREA_STYLE ('',( #200 ) ) ;
#46 = LENGTH_MEASURE_WITH_UNIT ( LENGTH_MEASURE( 0.02539999999999999897 ), #50 );
#47 = FACE_OUTER_BOUND ( 'NONE', #287, .T. ) ;
#48 = SURFACE_STYLE_FILL_AREA ( #264 ) ;
#49 = FACE_OUTER_BOUND ( 'NONE', #153, .T. ) ;
#50 =( LENGTH_UNIT ( ) NAMED_UNIT ( * ) SI_UNIT ( $, .METRE. ) );
#51 = EDGE_CURVE ( 'NONE', #169, #309, #240, .T. ) ;
#52 = CYLINDRICAL_SURFACE ( 'NONE', #110, 0.3125000000000000000 ) ;
#53 = LINE ( 'NONE', #23, #80 ) ;
#54 = DIRECTION ( 'NONE',  ( 0.000000000000000000, 0.000000000000000000, -1.000000000000000000 ) ) ;
#55 = PRESENTATION_STYLE_ASSIGNMENT (( #166 ) ) ;
#56 = CARTESIAN_POINT ( 'NONE',  ( -6.123233995736766036E-17, 4.000000000000000000, 0.000000000000000000 ) ) ;
#57 = PRESENTATION_STYLE_ASSIGNMENT (( #36 ) ) ;
#58 = CARTESIAN_POINT ( 'NONE',  ( 0.3125000000000000000, 2.000000000000000000, 3.827021247335478926E-17 ) ) ;
#59 =( GEOMETRIC_REPRESENTATION_CONTEXT ( 3 ) GLOBAL_UNCERTAINTY_ASSIGNED_CONTEXT ( ( #129 ) ) GLOBAL_UNIT_ASSIGNED_CONTEXT ( ( #42, #16, #301 ) ) REPRESENTATION_CONTEXT ( 'NONE', 'WORKASPACE' ) );
#60 = PRESENTATION_STYLE_ASSIGNMENT (( #227 ) ) ;
#61 =( NAMED_UNIT ( * ) SI_UNIT ( $, .STERADIAN. ) SOLID_ANGLE_UNIT ( ) );
#62 = CIRCLE ( 'NONE', #148, 0.3125000000000000000 ) ;
#63 =( GEOMETRIC_REPRESENTATION_CONTEXT ( 3 ) GLOBAL_UNCERTAINTY_ASSIGNED_CONTEXT ( ( #32 ) ) GLOBAL_UNIT_ASSIGNED_CONTEXT ( ( #180, #64, #86 ) ) REPRESENTATION_CONTEXT ( 'NONE', 'WORKASPACE' ) );
#64 =( NAMED_UNIT ( * ) PLANE_ANGLE_UNIT ( ) SI_UNIT ( $, .RADIAN. ) );
#65 = CARTESIAN_POINT ( 'NONE',  ( 0.000000000000000000, 0.000000000000000000, 0.000000000000000000 ) ) ;
#66 = DIRECTION ( 'NONE',  ( 0.000000000000000000, 0.000000000000000000, -1.000000000000000000 ) ) ;
#67 =( GEOMETRIC_REPRESENTATION_CONTEXT ( 3 ) GLOBAL_UNCERTAINTY_ASSIGNED_CONTEXT ( ( #206 ) ) GLOBAL_UNIT_ASSIGNED_CONTEXT ( ( #174, #125, #61 ) ) REPRESENTATION_CONTEXT ( 'NONE', 'WORKASPACE' ) );
#68 = DIRECTION ( 'NONE',  ( 0.000000000000000000, 0.000000000000000000, 1.000000000000000000 ) ) ;
#69 = AXIS2_PLACEMENT_3D ( 'NONE', #155, #127, #217 ) ;
#70 = PRESENTATION_STYLE_ASSIGNMENT (( #245 ) ) ;
#71 = ADVANCED_FACE ( 'NONE', ( #49 ), #292, .T. ) ;
#72 = LINE ( 'NONE', #273, #154 ) ;
#73 = VERTEX_POINT ( 'NONE', #306 ) ;
#74 = PRESENTATION_LAYER_ASSIGNMENT (  '', '', ( #144 ) ) ;
#75 = DIRECTION ( 'NONE',  ( -3.061616997868383018E-17, 1.000000000000000000, -0.000000000000000000 ) ) ;
#76 = ORIENTED_EDGE ( 'NONE', *, *, #37, .F. ) ;
#77 = ORIENTED_EDGE ( 'NONE', *, *, #78, .T. ) ;
#78 = EDGE_CURVE ( 'NONE', #89, #73, #300, .T. ) ;
#79 = COLOUR_RGB ( '',1.000000000000000000, 0.000000000000000000, 0.000000000000000000 ) ;
#80 = VECTOR ( 'NONE', #75, 39.37007874015748143 ) ;
#81 = CARTESIAN_POINT ( 'NONE',  ( -0.3125000000000001665, 4.000000000000000000, 0.000000000000000000 ) ) ;
#82 = CARTESIAN_POINT ( 'NONE',  ( 1.464609162755720320E-34, 2.000000000000000000, 0.000000000000000000 ) ) ;
#83 = CARTESIAN_POINT ( 'NONE',  ( 0.000000000000000000, 0.000000000000000000, 0.000000000000000000 ) ) ;
#84 = STYLED_ITEM ( 'NONE', ( #105 ), #189 ) ;
#85 = DIRECTION ( 'NONE',  ( -3.061616997868383018E-17, 1.000000000000000000, 0.000000000000000000 ) ) ;
#86 =( NAMED_UNIT ( * ) SI_UNIT ( $, .STERADIAN. ) SOLID_ANGLE_UNIT ( ) );
#87 = PLANE ( 'NONE',  #271 ) ;
#88 = DIRECTION ( 'NONE',  ( 3.061616997868383018E-17, -1.000000000000000000, 0.000000000000000000 ) ) ;
#89 = VERTEX_POINT ( 'NONE', #58 ) ;
#90 = AXIS2_PLACEMENT_3D ( 'NONE', #83, #252, #282 ) ;
#91 = EDGE_LOOP ( 'NONE', ( #15, #108 ) ) ;
#92 = EDGE_CURVE ( 'NONE', #169, #265, #199, .T. ) ;
#93 = CIRCLE ( 'NONE', #1, 0.3125000000000000000 ) ;
#94 = UNCERTAINTY_MEASURE_WITH_UNIT (LENGTH_MEASURE( 1.000000000000000082E-05 ), #237, 'distance_accuracy_value', 'NONE');
#95 = ORIENTED_EDGE ( 'NONE', *, *, #92, .F. ) ;
#96 = CARTESIAN_POINT ( 'NONE',  ( 0.000000000000000000, 2.000000000000000000, 0.000000000000000000 ) ) ;
#97 =( GEOMETRIC_REPRESENTATION_CONTEXT ( 3 ) GLOBAL_UNCERTAINTY_ASSIGNED_CONTEXT ( ( #94 ) ) GLOBAL_UNIT_ASSIGNED_CONTEXT ( ( #237, #22, #159 ) ) REPRESENTATION_CONTEXT ( 'NONE', 'WORKASPACE' ) );
#98 = MECHANICAL_DESIGN_GEOMETRIC_PRESENTATION_REPRESENTATION (  '', ( #144 ), #262 ) ;
#99 = ADVANCED_FACE ( 'NONE', ( #269 ), #52, .T. ) ;
#100 = DIMENSIONAL_EXPONENTS ( 1.000000000000000000, 0.000000000000000000, 0.000000000000000000, 0.000000000000000000, 0.000000000000000000, 0.000000000000000000, 0.000000000000000000 ) ;
#101 = FILL_AREA_STYLE ('',( #251 ) ) ;
#102 = LENGTH_MEASURE_WITH_UNIT ( LENGTH_MEASURE( 0.02539999999999999897 ), #14 );
#103 =( LENGTH_UNIT ( ) NAMED_UNIT ( * ) SI_UNIT ( $, .METRE. ) );
#104 =( LENGTH_UNIT ( ) NAMED_UNIT ( * ) SI_UNIT ( $, .METRE. ) );
#105 = PRESENTATION_STYLE_ASSIGNMENT (( #219 ) ) ;
#106 = STYLED_ITEM ( 'NONE', ( #55 ), #71 ) ;
#107 = ORIENTED_EDGE ( 'NONE', *, *, #280, .F. ) ;
#108 = ORIENTED_EDGE ( 'NONE', *, *, #139, .T. ) ;
#109 =( CONVERSION_BASED_UNIT ( 'INCH', #235 ) LENGTH_UNIT ( ) NAMED_UNIT ( #175 ) );
#110 = AXIS2_PLACEMENT_3D ( 'NONE', #56, #275, #188 ) ;
#111 = EDGE_CURVE ( 'NONE', #309, #229, #72, .T. ) ;
#112 = ORIENTED_EDGE ( 'NONE', *, *, #92, .T. ) ;
#113 = APPLICATION_CONTEXT ( 'automotive_design' ) ;
#114 = DIRECTION ( 'NONE',  ( 0.000000000000000000, 0.000000000000000000, -1.000000000000000000 ) ) ;
#115 = DIRECTION ( 'NONE',  ( -0.000000000000000000, -1.000000000000000000, -0.000000000000000000 ) ) ;
#116 = ORIENTED_EDGE ( 'NONE', *, *, #122, .T. ) ;
#117 =( NAMED_UNIT ( * ) SI_UNIT ( $, .STERADIAN. ) SOLID_ANGLE_UNIT ( ) );
#118 = DIRECTION ( 'NONE',  ( -3.061616997868383018E-17, 1.000000000000000000, -0.000000000000000000 ) ) ;
#119 = PLANE ( 'NONE',  #277 ) ;
#120 = DIRECTION ( 'NONE',  ( 0.000000000000000000, 0.000000000000000000, -1.000000000000000000 ) ) ;
#121 = MECHANICAL_DESIGN_GEOMETRIC_PRESENTATION_REPRESENTATION (  '', ( #106 ), #97 ) ;
#122 = EDGE_CURVE ( 'NONE', #229, #265, #62, .T. ) ;
#123 = FACE_OUTER_BOUND ( 'NONE', #4, .T. ) ;
#124 = MECHANICAL_DESIGN_GEOMETRIC_PRESENTATION_REPRESENTATION (  '', ( #266 ), #59 ) ;
#125 =( NAMED_UNIT ( * ) PLANE_ANGLE_UNIT ( ) SI_UNIT ( $, .RADIAN. ) );
#126 = ADVANCED_FACE ( 'NONE', ( #268 ), #218, .T. ) ;
#127 = DIRECTION ( 'NONE',  ( -3.061616997868383018E-17, 1.000000000000000000, -0.000000000000000000 ) ) ;
#128 = CYLINDRICAL_SURFACE ( 'NONE', #186, 0.3125000000000000000 ) ;
#129 = UNCERTAINTY_MEASURE_WITH_UNIT (LENGTH_MEASURE( 1.000000000000000082E-05 ), #42, 'distance_accuracy_value', 'NONE');
#130 = ADVANCED_FACE ( 'NONE', ( #290 ), #119, .F. ) ;
#131 = DIRECTION ( 'NONE',  ( -1.000000000000000000, 0.000000000000000000, 0.000000000000000000 ) ) ;
#132 = COLOUR_RGB ( '',0.7921568627450980005, 0.8196078431372548767, 0.9333333333333333481 ) ;
#133 = APPLICATION_CONTEXT ( 'automotive_design' ) ;
#134 = ORIENTED_EDGE ( 'NONE', *, *, #253, .T. ) ;
#135 = ORIENTED_EDGE ( 'NONE', *, *, #78, .F. ) ;
#136 = DIRECTION ( 'NONE',  ( -1.000000000000000000, -3.061616997868383018E-17, 0.000000000000000000 ) ) ;
#137 = DIRECTION ( 'NONE',  ( 1.000000000000000000, 0.000000000000000000, 0.000000000000000000 ) ) ;
#138 = ORIENTED_EDGE ( 'NONE', *, *, #122, .F. ) ;
#139 = EDGE_CURVE ( 'NONE', #239, #295, #172, .T. ) ;
#140 = AXIS2_PLACEMENT_3D ( 'NONE', #250, #118, #258 ) ;
#141 = EDGE_CURVE ( 'NONE', #73, #295, #173, .T. ) ;
#142 =( CONVERSION_BASED_UNIT ( 'INCH', #187 ) LENGTH_UNIT ( ) NAMED_UNIT ( #216 ) );
#143 = COLOUR_RGB ( '',1.000000000000000000, 0.000000000000000000, 0.000000000000000000 ) ;
#144 = STYLED_ITEM ( 'NONE', ( #60 ), #296 ) ;
#145 = DIRECTION ( 'NONE',  ( -3.061616997868383018E-17, 1.000000000000000000, -0.000000000000000000 ) ) ;
#146 = UNCERTAINTY_MEASURE_WITH_UNIT (LENGTH_MEASURE( 1.000000000000000082E-05 ), #142, 'distance_accuracy_value', 'NONE');
#147 = CARTESIAN_POINT ( 'NONE',  ( 0.000000000000000000, 0.000000000000000000, 0.000000000000000000 ) ) ;
#148 = AXIS2_PLACEMENT_3D ( 'NONE', #147, #243, #120 ) ;
#149 = DIRECTION ( 'NONE',  ( -1.000000000000000000, 0.000000000000000000, 0.000000000000000000 ) ) ;
#150 = SURFACE_SIDE_STYLE ('',( #211 ) ) ;
#151 = LENGTH_MEASURE_WITH_UNIT ( LENGTH_MEASURE( 0.02539999999999999897 ), #302 );
#152 =( LENGTH_UNIT ( ) NAMED_UNIT ( * ) SI_UNIT ( $, .METRE. ) );
#153 = EDGE_LOOP ( 'NONE', ( #116, #244 ) ) ;
#154 = VECTOR ( 'NONE', #165, 39.37007874015748143 ) ;
#155 = CARTESIAN_POINT ( 'NONE',  ( -6.123233995736766036E-17, 4.000000000000000000, 0.000000000000000000 ) ) ;
#156 = LENGTH_MEASURE_WITH_UNIT ( LENGTH_MEASURE( 0.02539999999999999897 ), #152 );
#157 = ADVANCED_FACE ( 'NONE', ( #123 ), #87, .F. ) ;
#158 = DIRECTION ( 'NONE',  ( 0.000000000000000000, 0.000000000000000000, -1.000000000000000000 ) ) ;
#159 =( NAMED_UNIT ( * ) SI_UNIT ( $, .STERADIAN. ) SOLID_ANGLE_UNIT ( ) );
#160 = AXIS2_PLACEMENT_3D ( 'NONE', #195, #145, #204 ) ;
#161 = FILL_AREA_STYLE_COLOUR ( '', #5 ) ;
#162 = SURFACE_SIDE_STYLE ('',( #38 ) ) ;
#163 = CLOSED_SHELL ( 'NONE', ( #26, #170, #126, #71 ) ) ;
#164 = STYLED_ITEM ( 'NONE', ( #249 ), #126 ) ;
#165 = DIRECTION ( 'NONE',  ( -0.000000000000000000, -1.000000000000000000, -0.000000000000000000 ) ) ;
#166 = SURFACE_STYLE_USAGE ( .BOTH. , #162 ) ;
#167 = ADVANCED_BREP_SHAPE_REPRESENTATION ( '83207', ( #296, #189, #267 ), #63 ) ;
#168 = DIRECTION ( 'NONE',  ( -0.000000000000000000, -1.000000000000000000, -0.000000000000000000 ) ) ;
#169 = VERTEX_POINT ( 'NONE', #307 ) ;
#170 = ADVANCED_FACE ( 'NONE', ( #183 ), #259, .T. ) ;
#171 = DIMENSIONAL_EXPONENTS ( 1.000000000000000000, 0.000000000000000000, 0.000000000000000000, 0.000000000000000000, 0.000000000000000000, 0.000000000000000000, 0.000000000000000000 ) ;
#172 = CIRCLE ( 'NONE', #140, 0.3125000000000000555 ) ;
#173 = LINE ( 'NONE', #226, #20 ) ;
#174 =( CONVERSION_BASED_UNIT ( 'INCH', #10 ) LENGTH_UNIT ( ) NAMED_UNIT ( #197 ) );
#175 = DIMENSIONAL_EXPONENTS ( 1.000000000000000000, 0.000000000000000000, 0.000000000000000000, 0.000000000000000000, 0.000000000000000000, 0.000000000000000000, 0.000000000000000000 ) ;
#176 = SURFACE_STYLE_FILL_AREA ( #101 ) ;
#177 = AXIS2_PLACEMENT_3D ( 'NONE', #286, #230, #66 ) ;
#178 =( CONVERSION_BASED_UNIT ( 'INCH', #102 ) LENGTH_UNIT ( ) NAMED_UNIT ( #100 ) );
#179 = CARTESIAN_POINT ( 'NONE',  ( 3.827021247335478926E-17, 0.000000000000000000, 0.3125000000000000000 ) ) ;
#180 =( CONVERSION_BASED_UNIT ( 'INCH', #151 ) LENGTH_UNIT ( ) NAMED_UNIT ( #254 ) );
#181 = ORIENTED_EDGE ( 'NONE', *, *, #194, .T. ) ;
#182 = AXIS2_PLACEMENT_3D ( 'NONE', #65, #18, #158 ) ;
#183 = FACE_OUTER_BOUND ( 'NONE', #25, .T. ) ;
#184 = CARTESIAN_POINT ( 'NONE',  ( 0.3125000000000000000, 4.000000000000000000, 0.000000000000000000 ) ) ;
#185 = PRESENTATION_LAYER_ASSIGNMENT (  '', '', ( #266 ) ) ;
#186 = AXIS2_PLACEMENT_3D ( 'NONE', #220, #196, #131 ) ;
#187 = LENGTH_MEASURE_WITH_UNIT ( LENGTH_MEASURE( 0.02539999999999999897 ), #203 );
#188 = DIRECTION ( 'NONE',  ( -1.000000000000000000, 0.000000000000000000, 0.000000000000000000 ) ) ;
#189 = MANIFOLD_SOLID_BREP ( 'Revolve - Tool Body (Straight Shanked)', #299 ) ;
#190 = CARTESIAN_POINT ( 'NONE',  ( 0.000000000000000000, 2.000000000000000000, 0.000000000000000000 ) ) ;
#191 = DIRECTION ( 'NONE',  ( -3.061616997868383018E-17, 1.000000000000000000, -0.000000000000000000 ) ) ;
#192 =( GEOMETRIC_REPRESENTATION_CONTEXT ( 3 ) GLOBAL_UNCERTAINTY_ASSIGNED_CONTEXT ( ( #272 ) ) GLOBAL_UNIT_ASSIGNED_CONTEXT ( ( #109, #241, #257 ) ) REPRESENTATION_CONTEXT ( 'NONE', 'WORKASPACE' ) );
#193 = ORIENTED_EDGE ( 'NONE', *, *, #253, .F. ) ;
#194 = EDGE_CURVE ( 'NONE', #309, #169, #93, .T. ) ;
#195 = CARTESIAN_POINT ( 'NONE',  ( 0.000000000000000000, 2.000000000000000000, 0.000000000000000000 ) ) ;
#196 = DIRECTION ( 'NONE',  ( -3.061616997868383018E-17, 1.000000000000000000, -0.000000000000000000 ) ) ;
#197 = DIMENSIONAL_EXPONENTS ( 1.000000000000000000, 0.000000000000000000, 0.000000000000000000, 0.000000000000000000, 0.000000000000000000, 0.000000000000000000, 0.000000000000000000 ) ;
#198 = CARTESIAN_POINT ( 'NONE',  ( 0.000000000000000000, 2.000000000000000000, 0.000000000000000000 ) ) ;
#199 = LINE ( 'NONE', #179, #44 ) ;
#200 = FILL_AREA_STYLE_COLOUR ( '', #6 ) ;
#201 = FILL_AREA_STYLE_COLOUR ( '', #43 ) ;
#202 = ORIENTED_EDGE ( 'NONE', *, *, #111, .T. ) ;
#203 =( LENGTH_UNIT ( ) NAMED_UNIT ( * ) SI_UNIT ( $, .METRE. ) );
#204 = DIRECTION ( 'NONE',  ( -1.000000000000000000, 0.000000000000000000, 0.000000000000000000 ) ) ;
#205 = CIRCLE ( 'NONE', #260, 0.3125000000000000000 ) ;
#206 = UNCERTAINTY_MEASURE_WITH_UNIT (LENGTH_MEASURE( 1.000000000000000082E-05 ), #174, 'distance_accuracy_value', 'NONE');
#207 = PRODUCT_DEFINITION_CONTEXT ( 'detailed design', #113, 'design' ) ;
#208 = PRODUCT_DEFINITION ( 'UNKNOWN', '', #214, #207 ) ;
#209 = ORIENTED_EDGE ( 'NONE', *, *, #141, .T. ) ;
#210 = AXIS2_PLACEMENT_3D ( 'NONE', #288, #9, #274 ) ;
#211 = SURFACE_STYLE_FILL_AREA ( #232 ) ;
#212 = FILL_AREA_STYLE ('',( #201 ) ) ;
#213 = AXIS2_PLACEMENT_3D ( 'NONE', #225, #11, #114 ) ;
#214 = PRODUCT_DEFINITION_FORMATION_WITH_SPECIFIED_SOURCE ( 'ANY', '', #270, .NOT_KNOWN. ) ;
#215 = EDGE_LOOP ( 'NONE', ( #134, #233, #76, #261 ) ) ;
#216 = DIMENSIONAL_EXPONENTS ( 1.000000000000000000, 0.000000000000000000, 0.000000000000000000, 0.000000000000000000, 0.000000000000000000, 0.000000000000000000, 0.000000000000000000 ) ;
#217 = DIRECTION ( 'NONE',  ( -1.000000000000000000, 0.000000000000000000, 0.000000000000000000 ) ) ;
#218 = CYLINDRICAL_SURFACE ( 'NONE', #213, 0.3125000000000000000 ) ;
#219 = SURFACE_STYLE_USAGE ( .BOTH. , #255 ) ;
#220 = CARTESIAN_POINT ( 'NONE',  ( -6.123233995736766036E-17, 4.000000000000000000, 0.000000000000000000 ) ) ;
#221 = CYLINDRICAL_SURFACE ( 'NONE', #90, 0.3125000000000000000 ) ;
#222 = DIMENSIONAL_EXPONENTS ( 1.000000000000000000, 0.000000000000000000, 0.000000000000000000, 0.000000000000000000, 0.000000000000000000, 0.000000000000000000, 0.000000000000000000 ) ;
#223 = FILL_AREA_STYLE ('',( #294 ) ) ;
#224 = PRESENTATION_LAYER_ASSIGNMENT (  '', '', ( #84 ) ) ;
#225 = CARTESIAN_POINT ( 'NONE',  ( 0.000000000000000000, 0.000000000000000000, 0.000000000000000000 ) ) ;
#226 = CARTESIAN_POINT ( 'NONE',  ( -0.3125000000000000555, 4.000000000000000000, 0.000000000000000000 ) ) ;
#227 = SURFACE_STYLE_USAGE ( .BOTH. , #39 ) ;
#228 = PRODUCT_RELATED_PRODUCT_CATEGORY ( 'part', '', ( #270 ) ) ;
#229 = VERTEX_POINT ( 'NONE', #246 ) ;
#230 = DIRECTION ( 'NONE',  ( 0.000000000000000000, -1.000000000000000000, -0.000000000000000000 ) ) ;
#231 = FILL_AREA_STYLE_COLOUR ( '', #143 ) ;
#232 = FILL_AREA_STYLE ('',( #231 ) ) ;
#233 = ORIENTED_EDGE ( 'NONE', *, *, #280, .T. ) ;
#234 = DIRECTION ( 'NONE',  ( 0.000000000000000000, 0.000000000000000000, -1.000000000000000000 ) ) ;
#235 = LENGTH_MEASURE_WITH_UNIT ( LENGTH_MEASURE( 0.02539999999999999897 ), #104 );
#236 = SURFACE_SIDE_STYLE ('',( #48 ) ) ;
#237 =( CONVERSION_BASED_UNIT ( 'INCH', #46 ) LENGTH_UNIT ( ) NAMED_UNIT ( #171 ) );
#238 = EDGE_LOOP ( 'NONE', ( #107, #77, #209, #31 ) ) ;
#239 = VERTEX_POINT ( 'NONE', #242 ) ;
#240 = CIRCLE ( 'NONE', #12, 0.3125000000000000000 ) ;
#241 =( NAMED_UNIT ( * ) PLANE_ANGLE_UNIT ( ) SI_UNIT ( $, .RADIAN. ) );
#242 = CARTESIAN_POINT ( 'NONE',  ( 0.3125000000000000000, 4.000000000000000000, 3.827021247335478926E-17 ) ) ;
#243 = DIRECTION ( 'NONE',  ( -0.000000000000000000, -1.000000000000000000, -0.000000000000000000 ) ) ;
#244 = ORIENTED_EDGE ( 'NONE', *, *, #291, .T. ) ;
#245 = SURFACE_STYLE_USAGE ( .BOTH. , #236 ) ;
#246 = CARTESIAN_POINT ( 'NONE',  ( 0.000000000000000000, 0.000000000000000000, -0.3125000000000000000 ) ) ;
#247 = MECHANICAL_DESIGN_GEOMETRIC_PRESENTATION_REPRESENTATION (  '', ( #33 ), #67 ) ;
#248 = SURFACE_SIDE_STYLE ('',( #284 ) ) ;
#249 = PRESENTATION_STYLE_ASSIGNMENT (( #278 ) ) ;
#250 = CARTESIAN_POINT ( 'NONE',  ( -6.123233995736766036E-17, 4.000000000000000000, 0.000000000000000000 ) ) ;
#251 = FILL_AREA_STYLE_COLOUR ( '', #132 ) ;
#252 = DIRECTION ( 'NONE',  ( -0.000000000000000000, -1.000000000000000000, -0.000000000000000000 ) ) ;
#253 = EDGE_CURVE ( 'NONE', #73, #89, #205, .T. ) ;
#254 = DIMENSIONAL_EXPONENTS ( 1.000000000000000000, 0.000000000000000000, 0.000000000000000000, 0.000000000000000000, 0.000000000000000000, 0.000000000000000000, 0.000000000000000000 ) ;
#255 = SURFACE_SIDE_STYLE ('',( #176 ) ) ;
#256 = FACE_OUTER_BOUND ( 'NONE', #215, .T. ) ;
#257 =( NAMED_UNIT ( * ) SI_UNIT ( $, .STERADIAN. ) SOLID_ANGLE_UNIT ( ) );
#258 = DIRECTION ( 'NONE',  ( -1.000000000000000000, 0.000000000000000000, 0.000000000000000000 ) ) ;
#259 = PLANE ( 'NONE',  #210 ) ;
#260 = AXIS2_PLACEMENT_3D ( 'NONE', #96, #191, #149 ) ;
#261 = ORIENTED_EDGE ( 'NONE', *, *, #141, .F. ) ;
#262 =( GEOMETRIC_REPRESENTATION_CONTEXT ( 3 ) GLOBAL_UNCERTAINTY_ASSIGNED_CONTEXT ( ( #285 ) ) GLOBAL_UNIT_ASSIGNED_CONTEXT ( ( #178, #281, #279 ) ) REPRESENTATION_CONTEXT ( 'NONE', 'WORKASPACE' ) );
#263 = ORIENTED_EDGE ( 'NONE', *, *, #51, .T. ) ;
#264 = FILL_AREA_STYLE ('',( #161 ) ) ;
#265 = VERTEX_POINT ( 'NONE', #7 ) ;
#266 = STYLED_ITEM ( 'NONE', ( #70 ), #170 ) ;
#267 = AXIS2_PLACEMENT_3D ( 'NONE', #276, #68, #137 ) ;
#268 = FACE_OUTER_BOUND ( 'NONE', #29, .T. ) ;
#269 = FACE_OUTER_BOUND ( 'NONE', #238, .T. ) ;
#270 = PRODUCT ( '83207', '83207', '', ( #297 ) ) ;
#271 = AXIS2_PLACEMENT_3D ( 'NONE', #82, #85, #136 ) ;
#272 = UNCERTAINTY_MEASURE_WITH_UNIT (LENGTH_MEASURE( 1.000000000000000082E-05 ), #109, 'distance_accuracy_value', 'NONE');
#273 = CARTESIAN_POINT ( 'NONE',  ( 0.000000000000000000, 0.000000000000000000, -0.3125000000000000000 ) ) ;
#274 = DIRECTION ( 'NONE',  ( 0.000000000000000000, -0.000000000000000000, 1.000000000000000000 ) ) ;
#275 = DIRECTION ( 'NONE',  ( -3.061616997868383018E-17, 1.000000000000000000, -0.000000000000000000 ) ) ;
#276 = CARTESIAN_POINT ( 'NONE',  ( 0.000000000000000000, 0.000000000000000000, 0.000000000000000000 ) ) ;
#277 = AXIS2_PLACEMENT_3D ( 'NONE', #184, #88, #40 ) ;
#278 = SURFACE_STYLE_USAGE ( .BOTH. , #150 ) ;
#279 =( NAMED_UNIT ( * ) SI_UNIT ( $, .STERADIAN. ) SOLID_ANGLE_UNIT ( ) );
#280 = EDGE_CURVE ( 'NONE', #89, #239, #53, .T. ) ;
#281 =( NAMED_UNIT ( * ) PLANE_ANGLE_UNIT ( ) SI_UNIT ( $, .RADIAN. ) );
#282 = DIRECTION ( 'NONE',  ( 0.000000000000000000, 0.000000000000000000, -1.000000000000000000 ) ) ;
#283 = CIRCLE ( 'NONE', #69, 0.3125000000000000555 ) ;
#284 = SURFACE_STYLE_FILL_AREA ( #212 ) ;
#285 = UNCERTAINTY_MEASURE_WITH_UNIT (LENGTH_MEASURE( 1.000000000000000082E-05 ), #178, 'distance_accuracy_value', 'NONE');
#286 = CARTESIAN_POINT ( 'NONE',  ( 0.000000000000000000, 0.000000000000000000, 0.000000000000000000 ) ) ;
#287 = EDGE_LOOP ( 'NONE', ( #181, #112, #138, #305 ) ) ;
#288 = CARTESIAN_POINT ( 'NONE',  ( 0.000000000000000000, 2.000000000000000000, 0.000000000000000000 ) ) ;
#289 = PRESENTATION_LAYER_ASSIGNMENT (  '', '', ( #33 ) ) ;
#290 = FACE_OUTER_BOUND ( 'NONE', #91, .T. ) ;
#291 = EDGE_CURVE ( 'NONE', #265, #229, #308, .T. ) ;
#292 = PLANE ( 'NONE',  #177 ) ;
#293 = PRESENTATION_LAYER_ASSIGNMENT (  '', '', ( #164 ) ) ;
#294 = FILL_AREA_STYLE_COLOUR ( '', #79 ) ;
#295 = VERTEX_POINT ( 'NONE', #81 ) ;
#296 = MANIFOLD_SOLID_BREP ( 'Revolve - Cutting Edge', #163 ) ;
#297 = PRODUCT_CONTEXT ( 'NONE', #133, 'mechanical' ) ;
#298 = ORIENTED_EDGE ( 'NONE', *, *, #51, .F. ) ;
#299 = CLOSED_SHELL ( 'NONE', ( #303, #157, #99, #130 ) ) ;
#300 = CIRCLE ( 'NONE', #160, 0.3125000000000000000 ) ;
#301 =( NAMED_UNIT ( * ) SI_UNIT ( $, .STERADIAN. ) SOLID_ANGLE_UNIT ( ) );
#302 =( LENGTH_UNIT ( ) NAMED_UNIT ( * ) SI_UNIT ( $, .METRE. ) );
#303 = ADVANCED_FACE ( 'NONE', ( #256 ), #128, .T. ) ;
#304 = DIRECTION ( 'NONE',  ( -3.061616997868383018E-17, 1.000000000000000000, -0.000000000000000000 ) ) ;
#305 = ORIENTED_EDGE ( 'NONE', *, *, #111, .F. ) ;
#306 = CARTESIAN_POINT ( 'NONE',  ( -0.3125000000000000000, 2.000000000000000000, 0.000000000000000000 ) ) ;
#307 = CARTESIAN_POINT ( 'NONE',  ( 3.827021247335478926E-17, 2.000000000000000000, 0.3125000000000000000 ) ) ;
#308 = CIRCLE ( 'NONE', #182, 0.3125000000000000000 ) ;
#309 = VERTEX_POINT ( 'NONE', #21 ) ;
ENDSEC;
END-ISO-10303-21;
